  0
SECTION
  2
HEADER
  9
$ACADVER
  1
AC1015
  9
$ACADMAINTVER
 70
     6
  9
$DWGCODEPAGE
  3
ANSI_1252
  9
$INSBASE
 10
0.0
 20
0.0
 30
0.0
  9
$EXTMIN
 10
-1.353541156003701
 20
0.1861537518013279
 30
-0.0000000000112498
  9
$EXTMAX
 10
16.24552720786211
 20
12.66920234018684
 30
0.0000000000002956
  9
$LIMMIN
 10
0.0
 20
0.0
  9
$LIMMAX
 10
26.25
 20
20.0
  9
$ORTHOMODE
 70
     1
  9
$REGENMODE
 70
     1
  9
$FILLMODE
 70
     1
  9
$QTEXTMODE
 70
     0
  9
$MIRRTEXT
 70
     0
  9
$LTSCALE
 40
0.5
  9
$ATTMODE
 70
     1
  9
$TEXTSIZE
 40
0.225
  9
$TRACEWID
 40
0.05
  9
$TEXTSTYLE
  7
STANDARD
  9
$CLAYER
  8
0
  9
$CELTYPE
  6
BYLAYER
  9
$CECOLOR
 62
   256
  9
$CELTSCALE
 40
1.0
  9
$DISPSILH
 70
     0
  9
$DIMSCALE
 40
2.5
  9
$DIMASZ
 40
0.125
  9
$DIMEXO
 40
0.062
  9
$DIMDLI
 40
0.375
  9
$DIMRND
 40
0.0
  9
$DIMDLE
 40
0.0
  9
$DIMEXE
 40
0.08
  9
$DIMTP
 40
0.0
  9
$DIMTM
 40
0.0
  9
$DIMTXT
 40
0.09
  9
$DIMCEN
 40
-0.06
  9
$DIMTSZ
 40
0.0
  9
$DIMTOL
 70
     0
  9
$DIMLIM
 70
     0
  9
$DIMTIH
 70
     1
  9
$DIMTOH
 70
     1
  9
$DIMSE1
 70
     0
  9
$DIMSE2
 70
     0
  9
$DIMTAD
 70
     0
  9
$DIMZIN
 70
     0
  9
$DIMBLK
  1

  9
$DIMASO
 70
     0
  9
$DIMSHO
 70
     0
  9
$DIMPOST
  1

  9
$DIMAPOST
  1

  9
$DIMALT
 70
     0
  9
$DIMALTD
 70
     2
  9
$DIMALTF
 40
25.4
  9
$DIMLFAC
 40
1.0
  9
$DIMTOFL
 70
     0
  9
$DIMTVP
 40
0.0
  9
$DIMTIX
 70
     0
  9
$DIMSOXD
 70
     0
  9
$DIMSAH
 70
     0
  9
$DIMBLK1
  1

  9
$DIMBLK2
  1

  9
$DIMSTYLE
  2
STANDARD
  9
$DIMCLRD
 70
     0
  9
$DIMCLRE
 70
     0
  9
$DIMCLRT
 70
     0
  9
$DIMTFAC
 40
1.0
  9
$DIMGAP
 40
0.09
  9
$DIMJUST
 70
     0
  9
$DIMSD1
 70
     0
  9
$DIMSD2
 70
     0
  9
$DIMTOLJ
 70
     1
  9
$DIMTZIN
 70
     0
  9
$DIMALTZ
 70
     0
  9
$DIMALTTZ
 70
     0
  9
$DIMUPT
 70
     0
  9
$DIMDEC
 70
     4
  9
$DIMTDEC
 70
     4
  9
$DIMALTU
 70
     2
  9
$DIMALTTD
 70
     2
  9
$DIMTXSTY
  7
STANDARD
  9
$DIMAUNIT
 70
     0
  9
$DIMADEC
 70
     0
  9
$DIMALTRND
 40
0.0
  9
$DIMAZIN
 70
     0
  9
$DIMDSEP
 70
    46
  9
$DIMATFIT
 70
     3
  9
$DIMFRAC
 70
     0
  9
$DIMLDRBLK
  1

  9
$DIMLUNIT
 70
     2
  9
$DIMLWD
 70
    -2
  9
$DIMLWE
 70
    -2
  9
$DIMTMOVE
 70
     2
  9
$LUNITS
 70
     2
  9
$LUPREC
 70
     4
  9
$SKETCHINC
 40
0.1
  9
$FILLETRAD
 40
0.0
  9
$AUNITS
 70
     0
  9
$AUPREC
 70
     0
  9
$MENU
  1
qa
  9
$ELEVATION
 40
0.0
  9
$PELEVATION
 40
0.0
  9
$THICKNESS
 40
0.0
  9
$LIMCHECK
 70
     0
  9
$CHAMFERA
 40
0.25
  9
$CHAMFERB
 40
0.25
  9
$CHAMFERC
 40
0.0
  9
$CHAMFERD
 40
0.0
  9
$SKPOLY
 70
     0
  9
$TDCREATE
 40
2449771.675867477
  9
$TDUCREATE
 40
2449772.00920081
  9
$TDUPDATE
 40
2454162.834265185
  9
$TDUUPDATE
 40
2454163.167598519
  9
$TDINDWG
 40
0.202245
  9
$TDUSRTIMER
 40
0.202245
  9
$USRTIMER
 70
     1
  9
$ANGBASE
 50
0.0
  9
$ANGDIR
 70
     0
  9
$PDMODE
 70
     0
  9
$PDSIZE
 40
0.0
  9
$PLINEWID
 40
0.0
  9
$SPLFRAME
 70
     0
  9
$SPLINETYPE
 70
     6
  9
$SPLINESEGS
 70
     8
  9
$HANDSEED
  5
76F
  9
$SURFTAB1
 70
     6
  9
$SURFTAB2
 70
     6
  9
$SURFTYPE
 70
     6
  9
$SURFU
 70
     6
  9
$SURFV
 70
     6
  9
$UCSBASE
  2

  9
$UCSNAME
  2

  9
$UCSORG
 10
0.0
 20
0.0
 30
0.0
  9
$UCSXDIR
 10
1.0
 20
0.0
 30
0.0
  9
$UCSYDIR
 10
0.0
 20
1.0
 30
0.0
  9
$UCSORTHOREF
  2

  9
$UCSORTHOVIEW
 70
     0
  9
$UCSORGTOP
 10
0.0
 20
0.0
 30
0.0
  9
$UCSORGBOTTOM
 10
0.0
 20
0.0
 30
0.0
  9
$UCSORGLEFT
 10
0.0
 20
0.0
 30
0.0
  9
$UCSORGRIGHT
 10
0.0
 20
0.0
 30
0.0
  9
$UCSORGFRONT
 10
0.0
 20
0.0
 30
0.0
  9
$UCSORGBACK
 10
0.0
 20
0.0
 30
0.0
  9
$PUCSBASE
  2

  9
$PUCSNAME
  2

  9
$PUCSORG
 10
0.0
 20
0.0
 30
0.0
  9
$PUCSXDIR
 10
1.0
 20
0.0
 30
0.0
  9
$PUCSYDIR
 10
0.0
 20
1.0
 30
0.0
  9
$PUCSORTHOREF
  2

  9
$PUCSORTHOVIEW
 70
     0
  9
$PUCSORGTOP
 10
0.0
 20
0.0
 30
0.0
  9
$PUCSORGBOTTOM
 10
0.0
 20
0.0
 30
0.0
  9
$PUCSORGLEFT
 10
0.0
 20
0.0
 30
0.0
  9
$PUCSORGRIGHT
 10
0.0
 20
0.0
 30
0.0
  9
$PUCSORGFRONT
 10
0.0
 20
0.0
 30
0.0
  9
$PUCSORGBACK
 10
0.0
 20
0.0
 30
0.0
  9
$USERI1
 70
     0
  9
$USERI2
 70
     0
  9
$USERI3
 70
     0
  9
$USERI4
 70
     0
  9
$USERI5
 70
     0
  9
$USERR1
 40
0.0
  9
$USERR2
 40
0.0
  9
$USERR3
 40
0.0
  9
$USERR4
 40
0.0
  9
$USERR5
 40
0.0
  9
$WORLDVIEW
 70
     1
  9
$SHADEDGE
 70
     3
  9
$SHADEDIF
 70
    70
  9
$TILEMODE
 70
     1
  9
$MAXACTVP
 70
    16
  9
$PINSBASE
 10
0.0
 20
0.0
 30
0.0
  9
$PLIMCHECK
 70
     0
  9
$PEXTMIN
 10
1.000000000000000E+20
 20
1.000000000000000E+20
 30
1.000000000000000E+20
  9
$PEXTMAX
 10
-1.000000000000000E+20
 20
-1.000000000000000E+20
 30
-1.000000000000000E+20
  9
$PLIMMIN
 10
0.0
 20
0.0
  9
$PLIMMAX
 10
12.0
 20
9.0
  9
$UNITMODE
 70
     0
  9
$VISRETAIN
 70
     0
  9
$PLINEGEN
 70
     0
  9
$PSLTSCALE
 70
     0
  9
$TREEDEPTH
 70
  3020
  9
$CMLSTYLE
  2
STANDARD
  9
$CMLJUST
 70
     0
  9
$CMLSCALE
 40
1.0
  9
$PROXYGRAPHICS
 70
     1
  9
$MEASUREMENT
 70
     0
  9
$CELWEIGHT
370
    -1
  9
$ENDCAPS
280
     0
  9
$JOINSTYLE
280
     0
  9
$LWDISPLAY
290
     0
  9
$INSUNITS
 70
     0
  9
$HYPERLINKBASE
  1

  9
$STYLESHEET
  1

  9
$XEDIT
290
     1
  9
$CEPSNTYPE
380
     0
  9
$PSTYLEMODE
290
     1
  9
$FINGERPRINTGUID
  2
{6373DD30-55A5-11D5-BE3F-00508B5FCD51}
  9
$VERSIONGUID
  2
{4F2FC776-B2DB-4F37-B227-12009A939EEE}
  9
$EXTNAMES
290
     1
  9
$PSVPSCALE
 40
0.0
  9
$OLESTARTUP
290
     0
  0
ENDSEC
  0
SECTION
  2
CLASSES
  0
CLASS
  1
DICTIONARYVAR
  2
AcDbDictionaryVar
  3
AutoCAD 2000
 90
        0
280
     0
281
     0
  0
CLASS
  1
LWPOLYLINE
  2
AcDbPolyline
  3
AutoCAD 2000
 90
        0
280
     0
281
     1
  0
CLASS
  1
ACDBDICTIONARYWDFLT
  2
AcDbDictionaryWithDefault
  3
AutoCAD 2000
 90
        0
280
     0
281
     0
  0
CLASS
  1
ACDBPLACEHOLDER
  2
AcDbPlaceHolder
  3
ObjectDBX Classes
 90
        0
280
     0
281
     0
  0
CLASS
  1
LAYOUT
  2
AcDbLayout
  3
ObjectDBX Classes
 90
        0
280
     0
281
     0
  0
CLASS
  1
LONG_TRANSACTION
  2
AcDbLongTransaction
  3
ObjectDBX Classes
 90
   -65536
280
     1
281
     0
  0
CLASS
  1
LWPOLYLINE
  2
AcDbPolyline
  3
AutoCAD 2000
 90
        0
280
     0
281
     1
  0
CLASS
  1
HATCH
  2
AcDbHatch
  3
AutoCAD 2000
 90
        0
280
     0
281
     1
  0
CLASS
  1
XRECORD
  2
AcDbXrecord
  3
AutoCAD 2000
 90
        0
280
     0
281
     0
  0
CLASS
  1
LONG_TRANSACTION
  2
AcDbLongTransaction
  3
ObjectDBX Classes
 90
   -65536
280
     1
281
     0
  0
CLASS
  1
LWPOLYLINE
  2
AcDbPolyline
  3
AutoCAD 2000
 90
        0
280
     0
281
     1
  0
CLASS
  1
HATCH
  2
AcDbHatch
  3
AutoCAD 2000
 90
        0
280
     0
281
     1
  0
CLASS
  1
XRECORD
  2
AcDbXrecord
  3
AutoCAD 2000
 90
        0
280
     0
281
     0
  0
CLASS
  1
LONG_TRANSACTION
  2
AcDbLongTransaction
  3
ObjectDBX Classes
 90
   -65536
280
     1
281
     0
  0
CLASS
  1
LWPOLYLINE
  2
AcDbPolyline
  3
AutoCAD 2000
 90
        0
280
     0
281
     1
  0
CLASS
  1
HATCH
  2
AcDbHatch
  3
AutoCAD 2000
 90
        0
280
     0
281
     1
  0
CLASS
  1
XRECORD
  2
AcDbXrecord
  3
AutoCAD 2000
 90
        0
280
     0
281
     0
  0
CLASS
  1
LONG_TRANSACTION
  2
AcDbLongTransaction
  3
ObjectDBX Classes
 90
   -65536
280
     1
281
     0
  0
CLASS
  1
LWPOLYLINE
  2
AcDbPolyline
  3
AutoCAD 2000
 90
        0
280
     0
281
     1
  0
CLASS
  1
HATCH
  2
AcDbHatch
  3
AutoCAD 2000
 90
        0
280
     0
281
     1
  0
CLASS
  1
XRECORD
  2
AcDbXrecord
  3
AutoCAD 2000
 90
        0
280
     0
281
     0
  0
CLASS
  1
LONG_TRANSACTION
  2
AcDbLongTransaction
  3
ObjectDBX Classes
 90
   -65536
280
     1
281
     0
  0
CLASS
  1
LWPOLYLINE
  2
AcDbPolyline
  3
AutoCAD 2000
 90
        0
280
     0
281
     1
  0
CLASS
  1
HATCH
  2
AcDbHatch
  3
AutoCAD 2000
 90
        0
280
     0
281
     1
  0
CLASS
  1
XRECORD
  2
AcDbXrecord
  3
AutoCAD 2000
 90
        0
280
     0
281
     0
  0
CLASS
  1
TABLESTYLE
  2
AcDbTableStyle
  3
ObjectDBX Classes
 90
     2047
280
     1
281
     0
  0
ENDSEC
  0
SECTION
  2
TABLES
  0
TABLE
  2
VPORT
  5
1D
330
0
100
AcDbSymbolTable
 70
     4
  0
VPORT
  5
75F
330
1D
100
AcDbSymbolTableRecord
100
AcDbViewportTableRecord
  2
*Active
 70
     0
 10
0.0
 20
0.0
 11
1.0
 21
1.0
 12
12.44822942199815
 22
10.0
 13
0.0
 23
0.0
 14
0.063
 24
0.063
 15
0.25
 25
0.25
 16
0.0
 26
0.0
 36
1.0
 17
0.0
 27
0.0
 37
0.0
 40
20.24948024948025
 41
1.814583333333333
 42
50.0
 43
0.0
 44
0.0
 50
0.0
 51
0.0
 71
     0
 72
   100
 73
     1
 74
     0
 75
     0
 76
     0
 77
     0
 78
     0
281
     0
 65
     1
110
0.0
120
0.0
130
0.0
111
1.0
121
0.0
131
0.0
112
0.0
122
1.0
132
0.0
 79
     0
146
0.0
  0
ENDTAB
  0
TABLE
  2
LTYPE
  5
18
330
0
100
AcDbSymbolTable
 70
     2
  0
LTYPE
  5
19
330
18
100
AcDbSymbolTableRecord
100
AcDbLinetypeTableRecord
  2
BYBLOCK
 70
     0
  3

 72
    65
 73
     0
 40
0.0
  0
LTYPE
  5
1A
330
18
100
AcDbSymbolTableRecord
100
AcDbLinetypeTableRecord
  2
BYLAYER
 70
     0
  3

 72
    65
 73
     0
 40
0.0
  0
LTYPE
  5
A
330
18
100
AcDbSymbolTableRecord
100
AcDbLinetypeTableRecord
  2
CONTINUOUS
 70
     0
  3
Solid line
 72
    65
 73
     0
 40
0.0
  0
LTYPE
  5
754
330
18
100
AcDbSymbolTableRecord
100
AcDbLinetypeTableRecord
  2
HIDDEN
 70
     0
  3
Hidden __ __ __ __ __ __ __ __ __ __ __ __ __ _
 72
    65
 73
     2
 40
0.375
 49
0.25
 74
     0
 49
-0.125
 74
     0
  0
ENDTAB
  0
TABLE
  2
LAYER
  5
14
330
0
100
AcDbSymbolTable
 70
     2
  0
LAYER
  5
6
330
14
100
AcDbSymbolTableRecord
100
AcDbLayerTableRecord
  2
0
 70
     0
 62
     7
  6
CONTINUOUS
370
    -3
390
7
  0
ENDTAB
  0
TABLE
  2
STYLE
  5
15
330
0
100
AcDbSymbolTable
 70
     2
  0
STYLE
  5
16
330
15
100
AcDbSymbolTableRecord
100
AcDbTextStyleTableRecord
  2
STANDARD
 70
     0
 40
0.0
 41
1.0
 50
0.0
 71
     0
 42
0.225
  3
TXT
  4

  0
STYLE
  5
753
330
15
100
AcDbSymbolTableRecord
100
AcDbTextStyleTableRecord
  2

 70
     1
 40
0.0
 41
1.0
 50
0.0
 71
     0
 42
0.225
  3
ltypeshp.shx
  4

  0
ENDTAB
  0
TABLE
  2
VIEW
  5
1B
330
0
100
AcDbSymbolTable
 70
     0
  0
ENDTAB
  0
TABLE
  2
UCS
  5
1C
330
0
100
AcDbSymbolTable
 70
     0
  0
ENDTAB
  0
TABLE
  2
APPID
  5
1F
330
0
100
AcDbSymbolTable
 70
     1
  0
APPID
  5
20
330
1F
100
AcDbSymbolTableRecord
100
AcDbRegAppTableRecord
  2
ACAD
 70
     0
  0
ENDTAB
  0
TABLE
  2
DIMSTYLE
  5
21
330
0
100
AcDbSymbolTable
 70
     1
100
AcDbDimStyleTable
  0
DIMSTYLE
105
28
330
21
100
AcDbSymbolTableRecord
100
AcDbDimStyleTableRecord
  2
STANDARD
 70
     0
  3

  4

340
16
  0
ENDTAB
  0
TABLE
  2
BLOCK_RECORD
  5
1
330
0
100
AcDbSymbolTable
 70
     0
  0
BLOCK_RECORD
  5
2
330
1
100
AcDbSymbolTableRecord
100
AcDbBlockTableRecord
  2
*MODEL_SPACE
340
C
  0
BLOCK_RECORD
  5
E
330
1
100
AcDbSymbolTableRecord
100
AcDbBlockTableRecord
  2
*PAPER_SPACE
340
13
  0
ENDTAB
  0
ENDSEC
  0
SECTION
  2
BLOCKS
  0
BLOCK
  5
5
330
2
100
AcDbEntity
  8
0
100
AcDbBlockBegin
  2
*MODEL_SPACE
 70
     0
 10
0.0
 20
0.0
 30
0.0
  3
*MODEL_SPACE
  1

  4

  0
ENDBLK
  5
B
330
2
100
AcDbEntity
  8
0
100
AcDbBlockEnd
  0
BLOCK
  5
11
330
E
100
AcDbEntity
 67
     1
  8
0
100
AcDbBlockBegin
  2
*PAPER_SPACE
 70
     0
 10
0.0
 20
0.0
 30
0.0
  3
*PAPER_SPACE
  1

  4

  0
ENDBLK
  5
12
330
E
100
AcDbEntity
 67
     1
  8
0
100
AcDbBlockEnd
  0
ENDSEC
  0
SECTION
  2
ENTITIES
  0
LINE
  5
322
330
2
100
AcDbEntity
  8
0
100
AcDbLine
 10
7.810318392719596
 20
4.9062461010208
 30
0.0
 11
7.810318392719596
 21
5.062496101020798
 31
0.0
  0
LINE
  5
323
330
2
100
AcDbEntity
  8
0
100
AcDbLine
 10
7.711318392719596
 20
4.7499961010208
 30
0.0
 11
7.711318392719596
 21
5.062496101020798
 31
0.0
  0
LINE
  5
324
330
2
100
AcDbEntity
  8
0
100
AcDbLine
 10
7.758193392719596
 20
4.7499961010208
 30
0.0
 11
7.758193392719596
 21
5.187496101020798
 31
0.0
  0
LINE
  5
325
330
2
100
AcDbEntity
  8
0
100
AcDbLine
 10
7.180068392719596
 20
4.7499961010208
 30
0.0
 11
7.180068392719596
 21
5.062496101020798
 31
0.0
  0
LINE
  5
326
330
2
100
AcDbEntity
  8
0
100
AcDbLine
 10
7.133193392719596
 20
4.7499961010208
 30
0.0
 11
7.133193392719596
 21
5.187496101020798
 31
0.0
  0
LINE
  5
327
330
2
100
AcDbEntity
  8
0
100
AcDbLine
 10
7.081068392719596
 20
4.906246101020802
 30
0.0
 11
7.081068392719596
 21
5.062496101020798
 31
0.0
  0
LINE
  5
328
330
2
100
AcDbEntity
  8
0
100
AcDbLine
 10
7.095398694248571
 20
4.9062461010208
 30
0.0
 11
7.795813777576383
 21
4.9062461010208
 31
0.0
  0
LINE
  5
329
330
2
100
AcDbEntity
  8
0
100
AcDbLine
 10
7.758193392719608
 20
4.732950646475343
 30
0.0
 11
7.72866979940877
 21
4.7499961010208
 31
0.0
  0
LINE
  5
32A
330
2
100
AcDbEntity
  8
0
100
AcDbLine
 10
7.679463810557389
 20
4.687496101020798
 30
0.0
 11
7.75819339271961
 21
4.732950646475343
 31
0.0
  0
LINE
  5
32B
330
2
100
AcDbEntity
  8
0
100
AcDbLine
 10
7.758193392719608
 20
4.642041555566253
 30
0.0
 11
7.679463810557389
 21
4.687496101020798
 31
0.0
  0
LINE
  5
32C
330
2
100
AcDbEntity
  8
0
100
AcDbLine
 10
7.758193392719608
 20
4.551132464657162
 30
0.0
 11
7.679463810557389
 21
4.596587010111707
 31
0.0
  0
LINE
  5
32D
330
2
100
AcDbEntity
  8
0
100
AcDbLine
 10
7.679463810557389
 20
4.505677919202615
 30
0.0
 11
7.75819339271961
 21
4.55113246465716
 31
0.0
  0
LINE
  5
32E
330
2
100
AcDbEntity
  8
0
100
AcDbLine
 10
7.758193392719608
 20
4.46022337374807
 30
0.0
 11
7.679463810557389
 21
4.505677919202615
 31
0.0
  0
LINE
  5
32F
330
2
100
AcDbEntity
  8
0
100
AcDbLine
 10
7.679463810557389
 20
4.414768828293525
 30
0.0
 11
7.75819339271961
 21
4.46022337374807
 31
0.0
  0
LINE
  5
330
330
2
100
AcDbEntity
  8
0
100
AcDbLine
 10
7.679463810557389
 20
4.323859737384433
 30
0.0
 11
7.75819339271961
 21
4.369314282838978
 31
0.0
  0
LINE
  5
331
330
2
100
AcDbEntity
  8
0
100
AcDbLine
 10
7.758193392719608
 20
4.278405191929888
 30
0.0
 11
7.679463810557389
 21
4.323859737384433
 31
0.0
  0
LINE
  5
332
330
2
100
AcDbEntity
  8
0
100
AcDbLine
 10
7.679463810557389
 20
4.232950646475343
 30
0.0
 11
7.75819339271961
 21
4.278405191929888
 31
0.0
  0
LINE
  5
333
330
2
100
AcDbEntity
  8
0
100
AcDbLine
 10
7.758193392719608
 20
4.36931428283898
 30
0.0
 11
7.679463810557389
 21
4.414768828293525
 31
0.0
  0
LINE
  5
334
330
2
100
AcDbEntity
  8
0
100
AcDbLine
 10
7.679463810557389
 20
4.142041555566252
 30
0.0
 11
7.75819339271961
 21
4.187496101020797
 31
0.0
  0
LINE
  5
335
330
2
100
AcDbEntity
  8
0
100
AcDbLine
 10
7.758193392719608
 20
4.096587010111707
 30
0.0
 11
7.679463810557389
 21
4.142041555566252
 31
0.0
  0
LINE
  5
336
330
2
100
AcDbEntity
  8
0
100
AcDbLine
 10
7.679463810557389
 20
4.051132464657162
 30
0.0
 11
7.75819339271961
 21
4.096587010111707
 31
0.0
  0
LINE
  5
337
330
2
100
AcDbEntity
  8
0
100
AcDbLine
 10
7.758193392719608
 20
4.005677919202617
 30
0.0
 11
7.679463810557389
 21
4.051132464657162
 31
0.0
  0
LINE
  5
338
330
2
100
AcDbEntity
  8
0
100
AcDbLine
 10
7.758193392719608
 20
3.914768828293525
 30
0.0
 11
7.679463810557389
 21
3.96022337374807
 31
0.0
  0
LINE
  5
339
330
2
100
AcDbEntity
  8
0
100
AcDbLine
 10
7.679463810557389
 20
3.86931428283898
 30
0.0
 11
7.75819339271961
 21
3.914768828293525
 31
0.0
  0
LINE
  5
33A
330
2
100
AcDbEntity
  8
0
100
AcDbLine
 10
7.758193392719608
 20
3.823859737384435
 30
0.0
 11
7.679463810557389
 21
3.86931428283898
 31
0.0
  0
LINE
  5
33B
330
2
100
AcDbEntity
  8
0
100
AcDbLine
 10
7.679463810557389
 20
3.96022337374807
 30
0.0
 11
7.75819339271961
 21
4.005677919202615
 31
0.0
  0
LINE
  5
33C
330
2
100
AcDbEntity
  8
0
100
AcDbLine
 10
7.758193392719608
 20
4.187496101020798
 30
0.0
 11
7.679463810557389
 21
4.232950646475343
 31
0.0
  0
LINE
  5
33D
330
2
100
AcDbEntity
  8
0
100
AcDbLine
 10
7.679463810557389
 20
4.596587010111707
 30
0.0
 11
7.75819339271961
 21
4.642041555566252
 31
0.0
  0
LINE
  5
33E
330
2
100
AcDbEntity
  8
0
100
AcDbLine
 10
7.758193392719608
 20
3.732950646475343
 30
0.0
 11
7.679463810557389
 21
3.778405191929888
 31
0.0
  0
LINE
  5
33F
330
2
100
AcDbEntity
  8
0
100
AcDbLine
 10
7.679463810557389
 20
3.687496101020797
 30
0.0
 11
7.75819339271961
 21
3.732950646475343
 31
0.0
  0
LINE
  5
340
330
2
100
AcDbEntity
  8
0
100
AcDbLine
 10
7.758193392719608
 20
3.642041555566253
 30
0.0
 11
7.679463810557389
 21
3.687496101020797
 31
0.0
  0
LINE
  5
341
330
2
100
AcDbEntity
  8
0
100
AcDbLine
 10
7.679463810557389
 20
3.596587010111707
 30
0.0
 11
7.75819339271961
 21
3.642041555566252
 31
0.0
  0
LINE
  5
342
330
2
100
AcDbEntity
  8
0
100
AcDbLine
 10
7.679463810557389
 20
3.505677919202617
 30
0.0
 11
7.75819339271961
 21
3.55113246465716
 31
0.0
  0
LINE
  5
343
330
2
100
AcDbEntity
  8
0
100
AcDbLine
 10
7.758193392719608
 20
3.46022337374807
 30
0.0
 11
7.679463810557389
 21
3.505677919202617
 31
0.0
  0
LINE
  5
344
330
2
100
AcDbEntity
  8
0
100
AcDbLine
 10
7.679463810557389
 20
3.414768828293525
 30
0.0
 11
7.75819339271961
 21
3.46022337374807
 31
0.0
  0
LINE
  5
345
330
2
100
AcDbEntity
  8
0
100
AcDbLine
 10
7.758193392719608
 20
3.551132464657162
 30
0.0
 11
7.679463810557389
 21
3.596587010111707
 31
0.0
  0
LINE
  5
346
330
2
100
AcDbEntity
  8
0
100
AcDbLine
 10
7.679463810557389
 20
3.323859737384433
 30
0.0
 11
7.75819339271961
 21
3.36931428283898
 31
0.0
  0
LINE
  5
347
330
2
100
AcDbEntity
  8
0
100
AcDbLine
 10
7.758193392719608
 20
3.27840519192989
 30
0.0
 11
7.679463810557389
 21
3.323859737384433
 31
0.0
  0
LINE
  5
348
330
2
100
AcDbEntity
  8
0
100
AcDbLine
 10
7.679463810557389
 20
3.232950646475343
 30
0.0
 11
7.75819339271961
 21
3.278405191929886
 31
0.0
  0
LINE
  5
349
330
2
100
AcDbEntity
  8
0
100
AcDbLine
 10
7.758193392719608
 20
3.187496101020797
 30
0.0
 11
7.679463810557389
 21
3.232950646475343
 31
0.0
  0
LINE
  5
34A
330
2
100
AcDbEntity
  8
0
100
AcDbLine
 10
7.758193392719608
 20
3.096587010111707
 30
0.0
 11
7.679463810557389
 21
3.142041555566252
 31
0.0
  0
LINE
  5
34B
330
2
100
AcDbEntity
  8
0
100
AcDbLine
 10
7.679463810557389
 20
3.05113246465716
 30
0.0
 11
7.75819339271961
 21
3.096587010111707
 31
0.0
  0
LINE
  5
34C
330
2
100
AcDbEntity
  8
0
100
AcDbLine
 10
7.758193392719608
 20
3.005677919202617
 30
0.0
 11
7.679463810557389
 21
3.05113246465716
 31
0.0
  0
LINE
  5
34D
330
2
100
AcDbEntity
  8
0
100
AcDbLine
 10
7.679463810557389
 20
3.142041555566252
 30
0.0
 11
7.75819339271961
 21
3.187496101020797
 31
0.0
  0
LINE
  5
34E
330
2
100
AcDbEntity
  8
0
100
AcDbLine
 10
7.758193392719608
 20
3.36931428283898
 30
0.0
 11
7.679463810557389
 21
3.414768828293525
 31
0.0
  0
LINE
  5
34F
330
2
100
AcDbEntity
  8
0
100
AcDbLine
 10
7.758193392719608
 20
2.914768828293525
 30
0.0
 11
7.679463810557389
 21
2.96022337374807
 31
0.0
  0
LINE
  5
350
330
2
100
AcDbEntity
  8
0
100
AcDbLine
 10
7.679463810557389
 20
2.869314282838978
 30
0.0
 11
7.75819339271961
 21
2.914768828293525
 31
0.0
  0
LINE
  5
351
330
2
100
AcDbEntity
  8
0
100
AcDbLine
 10
7.758193392719608
 20
2.823859737384435
 30
0.0
 11
7.679463810557389
 21
2.869314282838978
 31
0.0
  0
LINE
  5
352
330
2
100
AcDbEntity
  8
0
100
AcDbLine
 10
7.679463810557389
 20
2.778405191929888
 30
0.0
 11
7.75819339271961
 21
2.823859737384433
 31
0.0
  0
LINE
  5
353
330
2
100
AcDbEntity
  8
0
100
AcDbLine
 10
7.679463810557389
 20
2.687496101020798
 30
0.0
 11
7.75819339271961
 21
2.732950646475342
 31
0.0
  0
LINE
  5
354
330
2
100
AcDbEntity
  8
0
100
AcDbLine
 10
7.758193392719608
 20
2.642041555566252
 30
0.0
 11
7.679463810557389
 21
2.687496101020798
 31
0.0
  0
LINE
  5
355
330
2
100
AcDbEntity
  8
0
100
AcDbLine
 10
7.679463810557389
 20
2.596587010111707
 30
0.0
 11
7.75819339271961
 21
2.642041555566252
 31
0.0
  0
LINE
  5
356
330
2
100
AcDbEntity
  8
0
100
AcDbLine
 10
7.758193392719608
 20
2.732950646475343
 30
0.0
 11
7.679463810557389
 21
2.778405191929888
 31
0.0
  0
LINE
  5
357
330
2
100
AcDbEntity
  8
0
100
AcDbLine
 10
7.679463810557389
 20
2.505677919202615
 30
0.0
 11
7.75819339271961
 21
2.551132464657162
 31
0.0
  0
LINE
  5
358
330
2
100
AcDbEntity
  8
0
100
AcDbLine
 10
7.758193392719608
 20
2.460223373748072
 30
0.0
 11
7.679463810557389
 21
2.505677919202615
 31
0.0
  0
LINE
  5
359
330
2
100
AcDbEntity
  8
0
100
AcDbLine
 10
7.679463810557389
 20
2.414768828293525
 30
0.0
 11
7.75819339271961
 21
2.46022337374807
 31
0.0
  0
LINE
  5
35A
330
2
100
AcDbEntity
  8
0
100
AcDbLine
 10
7.758193392719608
 20
2.36931428283898
 30
0.0
 11
7.679463810557389
 21
2.414768828293525
 31
0.0
  0
LINE
  5
35B
330
2
100
AcDbEntity
  8
0
100
AcDbLine
 10
7.758193392719608
 20
2.278405191929888
 30
0.0
 11
7.679463810557389
 21
2.323859737384435
 31
0.0
  0
LINE
  5
35C
330
2
100
AcDbEntity
  8
0
100
AcDbLine
 10
7.679463810557389
 20
2.232950646475343
 30
0.0
 11
7.75819339271961
 21
2.278405191929888
 31
0.0
  0
LINE
  5
35D
330
2
100
AcDbEntity
  8
0
100
AcDbLine
 10
7.758193392719608
 20
2.187496101020798
 30
0.0
 11
7.679463810557389
 21
2.232950646475343
 31
0.0
  0
LINE
  5
35E
330
2
100
AcDbEntity
  8
0
100
AcDbLine
 10
7.679463810557389
 20
2.323859737384435
 30
0.0
 11
7.75819339271961
 21
2.369314282838978
 31
0.0
  0
LINE
  5
35F
330
2
100
AcDbEntity
  8
0
100
AcDbLine
 10
7.758193392719608
 20
2.551132464657162
 30
0.0
 11
7.679463810557389
 21
2.596587010111707
 31
0.0
  0
LINE
  5
360
330
2
100
AcDbEntity
  8
0
100
AcDbLine
 10
7.679463810557389
 20
2.96022337374807
 30
0.0
 11
7.75819339271961
 21
3.005677919202615
 31
0.0
  0
LINE
  5
361
330
2
100
AcDbEntity
  8
0
100
AcDbLine
 10
7.679463810557389
 20
3.778405191929888
 30
0.0
 11
7.75819339271961
 21
3.823859737384433
 31
0.0
  0
LINE
  5
362
330
2
100
AcDbEntity
  8
0
100
AcDbLine
 10
7.75819339271961
 20
4.732950646475343
 30
0.0
 11
7.13319339271961
 21
4.687500646475343
 31
0.0
  0
LINE
  5
363
330
2
100
AcDbEntity
  8
0
100
AcDbLine
 10
7.75819339271961
 20
4.642041555566253
 30
0.0
 11
7.13319339271961
 21
4.596591555566253
 31
0.0
  0
LINE
  5
364
330
2
100
AcDbEntity
  8
0
100
AcDbLine
 10
7.75819339271961
 20
4.551132464657162
 30
0.0
 11
7.13319339271961
 21
4.505682464657161
 31
0.0
  0
LINE
  5
365
330
2
100
AcDbEntity
  8
0
100
AcDbLine
 10
7.75819339271961
 20
4.46022337374807
 30
0.0
 11
7.13319339271961
 21
4.414773373748069
 31
0.0
  0
LINE
  5
366
330
2
100
AcDbEntity
  8
0
100
AcDbLine
 10
7.75819339271961
 20
4.36931428283898
 30
0.0
 11
7.13319339271961
 21
4.323864282838979
 31
0.0
  0
LINE
  5
367
330
2
100
AcDbEntity
  8
0
100
AcDbLine
 10
7.75819339271961
 20
4.278405191929888
 30
0.0
 11
7.13319339271961
 21
4.232955191929888
 31
0.0
  0
LINE
  5
368
330
2
100
AcDbEntity
  8
0
100
AcDbLine
 10
7.75819339271961
 20
4.187496101020798
 30
0.0
 11
7.13319339271961
 21
4.142046101020798
 31
0.0
  0
LINE
  5
369
330
2
100
AcDbEntity
  8
0
100
AcDbLine
 10
7.75819339271961
 20
4.096587010111707
 30
0.0
 11
7.13319339271961
 21
4.051137010111706
 31
0.0
  0
LINE
  5
36A
330
2
100
AcDbEntity
  8
0
100
AcDbLine
 10
7.75819339271961
 20
4.005677919202617
 30
0.0
 11
7.13319339271961
 21
3.960227919202616
 31
0.0
  0
LINE
  5
36B
330
2
100
AcDbEntity
  8
0
100
AcDbLine
 10
7.75819339271961
 20
3.914768828293525
 30
0.0
 11
7.13319339271961
 21
3.869318828293524
 31
0.0
  0
LINE
  5
36C
330
2
100
AcDbEntity
  8
0
100
AcDbLine
 10
7.75819339271961
 20
3.823859737384435
 30
0.0
 11
7.13319339271961
 21
3.778409737384434
 31
0.0
  0
LINE
  5
36D
330
2
100
AcDbEntity
  8
0
100
AcDbLine
 10
7.75819339271961
 20
3.732950646475343
 30
0.0
 11
7.13319339271961
 21
3.687500646475343
 31
0.0
  0
LINE
  5
36E
330
2
100
AcDbEntity
  8
0
100
AcDbLine
 10
7.75819339271961
 20
3.642041555566253
 30
0.0
 11
7.13319339271961
 21
3.596591555566251
 31
0.0
  0
LINE
  5
36F
330
2
100
AcDbEntity
  8
0
100
AcDbLine
 10
7.75819339271961
 20
3.551132464657162
 30
0.0
 11
7.13319339271961
 21
3.505682464657161
 31
0.0
  0
LINE
  5
370
330
2
100
AcDbEntity
  8
0
100
AcDbLine
 10
7.75819339271961
 20
3.46022337374807
 30
0.0
 11
7.13319339271961
 21
3.414773373748071
 31
0.0
  0
LINE
  5
371
330
2
100
AcDbEntity
  8
0
100
AcDbLine
 10
7.75819339271961
 20
3.36931428283898
 30
0.0
 11
7.13319339271961
 21
3.323864282838979
 31
0.0
  0
LINE
  5
372
330
2
100
AcDbEntity
  8
0
100
AcDbLine
 10
7.75819339271961
 20
3.27840519192989
 30
0.0
 11
7.13319339271961
 21
3.232955191929888
 31
0.0
  0
LINE
  5
373
330
2
100
AcDbEntity
  8
0
100
AcDbLine
 10
7.75819339271961
 20
3.187496101020797
 30
0.0
 11
7.13319339271961
 21
3.142046101020798
 31
0.0
  0
LINE
  5
374
330
2
100
AcDbEntity
  8
0
100
AcDbLine
 10
7.75819339271961
 20
3.096587010111707
 30
0.0
 11
7.13319339271961
 21
3.051137010111706
 31
0.0
  0
LINE
  5
375
330
2
100
AcDbEntity
  8
0
100
AcDbLine
 10
7.75819339271961
 20
3.005677919202617
 30
0.0
 11
7.13319339271961
 21
2.960227919202614
 31
0.0
  0
LINE
  5
376
330
2
100
AcDbEntity
  8
0
100
AcDbLine
 10
7.75819339271961
 20
2.914768828293525
 30
0.0
 11
7.13319339271961
 21
2.869318828293524
 31
0.0
  0
LINE
  5
377
330
2
100
AcDbEntity
  8
0
100
AcDbLine
 10
7.75819339271961
 20
2.823859737384435
 30
0.0
 11
7.13319339271961
 21
2.778409737384433
 31
0.0
  0
LINE
  5
378
330
2
100
AcDbEntity
  8
0
100
AcDbLine
 10
7.75819339271961
 20
2.732950646475343
 30
0.0
 11
7.13319339271961
 21
2.687500646475343
 31
0.0
  0
LINE
  5
379
330
2
100
AcDbEntity
  8
0
100
AcDbLine
 10
7.75819339271961
 20
2.642041555566252
 30
0.0
 11
7.13319339271961
 21
2.596591555566253
 31
0.0
  0
LINE
  5
37A
330
2
100
AcDbEntity
  8
0
100
AcDbLine
 10
7.75819339271961
 20
2.551132464657162
 30
0.0
 11
7.13319339271961
 21
2.505682464657161
 31
0.0
  0
LINE
  5
37B
330
2
100
AcDbEntity
  8
0
100
AcDbLine
 10
7.75819339271961
 20
2.460223373748072
 30
0.0
 11
7.13319339271961
 21
2.414773373748069
 31
0.0
  0
LINE
  5
37C
330
2
100
AcDbEntity
  8
0
100
AcDbLine
 10
7.75819339271961
 20
2.36931428283898
 30
0.0
 11
7.13319339271961
 21
2.323864282838979
 31
0.0
  0
LINE
  5
37D
330
2
100
AcDbEntity
  8
0
100
AcDbLine
 10
7.75819339271961
 20
2.278405191929888
 30
0.0
 11
7.13319339271961
 21
2.232955191929889
 31
0.0
  0
LINE
  5
37E
330
2
100
AcDbEntity
  8
0
100
AcDbLine
 10
7.758193392719608
 20
2.096587010111708
 30
0.0
 11
7.679463810557389
 21
2.142041555566252
 31
0.0
  0
LINE
  5
37F
330
2
100
AcDbEntity
  8
0
100
AcDbLine
 10
7.679463810557389
 20
2.051132464657162
 30
0.0
 11
7.75819339271961
 21
2.096587010111707
 31
0.0
  0
LINE
  5
380
330
2
100
AcDbEntity
  8
0
100
AcDbLine
 10
7.758193392719608
 20
2.005677919202617
 30
0.0
 11
7.679463810557389
 21
2.051132464657162
 31
0.0
  0
LINE
  5
381
330
2
100
AcDbEntity
  8
0
100
AcDbLine
 10
7.679463810557389
 20
1.960223373748072
 30
0.0
 11
7.75819339271961
 21
2.005677919202615
 31
0.0
  0
LINE
  5
382
330
2
100
AcDbEntity
  8
0
100
AcDbLine
 10
7.679463810557389
 20
1.86931428283898
 30
0.0
 11
7.75819339271961
 21
1.914768828293525
 31
0.0
  0
LINE
  5
383
330
2
100
AcDbEntity
  8
0
100
AcDbLine
 10
7.758193392719608
 20
1.823859737384435
 30
0.0
 11
7.679463810557389
 21
1.86931428283898
 31
0.0
  0
LINE
  5
384
330
2
100
AcDbEntity
  8
0
100
AcDbLine
 10
7.679463810557389
 20
1.778405191929888
 30
0.0
 11
7.75819339271961
 21
1.823859737384435
 31
0.0
  0
LINE
  5
385
330
2
100
AcDbEntity
  8
0
100
AcDbLine
 10
7.758193392719608
 20
1.914768828293525
 30
0.0
 11
7.679463810557389
 21
1.960223373748072
 31
0.0
  0
LINE
  5
386
330
2
100
AcDbEntity
  8
0
100
AcDbLine
 10
7.679463810557389
 20
1.687496101020798
 30
0.0
 11
7.75819339271961
 21
1.732950646475342
 31
0.0
  0
LINE
  5
387
330
2
100
AcDbEntity
  8
0
100
AcDbLine
 10
7.758193392719608
 20
1.642041555566252
 30
0.0
 11
7.679463810557389
 21
1.687496101020798
 31
0.0
  0
LINE
  5
388
330
2
100
AcDbEntity
  8
0
100
AcDbLine
 10
7.679463810557389
 20
1.596587010111708
 30
0.0
 11
7.75819339271961
 21
1.642041555566252
 31
0.0
  0
LINE
  5
389
330
2
100
AcDbEntity
  8
0
100
AcDbLine
 10
7.758193392719608
 20
1.551132464657162
 30
0.0
 11
7.679463810557389
 21
1.596587010111708
 31
0.0
  0
LINE
  5
38A
330
2
100
AcDbEntity
  8
0
100
AcDbLine
 10
7.758193392719608
 20
1.460223373748072
 30
0.0
 11
7.679463810557389
 21
1.505677919202617
 31
0.0
  0
LINE
  5
38B
330
2
100
AcDbEntity
  8
0
100
AcDbLine
 10
7.679463810557389
 20
1.414768828293525
 30
0.0
 11
7.75819339271961
 21
1.460223373748072
 31
0.0
  0
LINE
  5
38C
330
2
100
AcDbEntity
  8
0
100
AcDbLine
 10
7.758193392719608
 20
1.369314282838982
 30
0.0
 11
7.679463810557389
 21
1.414768828293525
 31
0.0
  0
LINE
  5
38D
330
2
100
AcDbEntity
  8
0
100
AcDbLine
 10
7.679463810557389
 20
1.505677919202617
 30
0.0
 11
7.75819339271961
 21
1.551132464657162
 31
0.0
  0
LINE
  5
38E
330
2
100
AcDbEntity
  8
0
100
AcDbLine
 10
7.758193392719608
 20
1.732950646475345
 30
0.0
 11
7.679463810557389
 21
1.778405191929888
 31
0.0
  0
LINE
  5
38F
330
2
100
AcDbEntity
  8
0
100
AcDbLine
 10
7.679463810557389
 20
1.142041555566252
 30
0.0
 11
7.75819339271961
 21
1.187496101020798
 31
0.0
  0
LINE
  5
390
330
2
100
AcDbEntity
  8
0
100
AcDbLine
 10
7.758193392719608
 20
1.27840519192989
 30
0.0
 11
7.679463810557389
 21
1.323859737384435
 31
0.0
  0
LINE
  5
391
330
2
100
AcDbEntity
  8
0
100
AcDbLine
 10
7.679463810557389
 20
1.232950646475345
 30
0.0
 11
7.75819339271961
 21
1.278405191929888
 31
0.0
  0
LINE
  5
392
330
2
100
AcDbEntity
  8
0
100
AcDbLine
 10
7.758193392719608
 20
1.187496101020798
 30
0.0
 11
7.679463810557389
 21
1.232950646475345
 31
0.0
  0
LINE
  5
393
330
2
100
AcDbEntity
  8
0
100
AcDbLine
 10
7.679463810557389
 20
1.051132464657162
 30
0.0
 11
7.75819339271961
 21
1.096587010111705
 31
0.0
  0
LINE
  5
394
330
2
100
AcDbEntity
  8
0
100
AcDbLine
 10
7.758193392719608
 20
1.005677919202615
 30
0.0
 11
7.679463810557389
 21
1.051132464657162
 31
0.0
  0
LINE
  5
395
330
2
100
AcDbEntity
  8
0
100
AcDbLine
 10
7.679463810557389
 20
0.9602233737480717
 30
0.0
 11
7.75819339271961
 21
1.005677919202615
 31
0.0
  0
LINE
  5
396
330
2
100
AcDbEntity
  8
0
100
AcDbLine
 10
7.758193392719608
 20
1.096587010111708
 30
0.0
 11
7.679463810557389
 21
1.142041555566252
 31
0.0
  0
LINE
  5
397
330
2
100
AcDbEntity
  8
0
100
AcDbLine
 10
7.679463810557389
 20
0.8693142828389799
 30
0.0
 11
7.75819339271961
 21
0.9147688282935249
 31
0.0
  0
LINE
  5
398
330
2
100
AcDbEntity
  8
0
100
AcDbLine
 10
7.758193392719608
 20
0.823859737384435
 30
0.0
 11
7.679463810557389
 21
0.8693142828389799
 31
0.0
  0
LINE
  5
399
330
2
100
AcDbEntity
  8
0
100
AcDbLine
 10
7.679463810557389
 20
0.7784051919298882
 30
0.0
 11
7.75819339271961
 21
0.8238597373844332
 31
0.0
  0
LINE
  5
39A
330
2
100
AcDbEntity
  8
0
100
AcDbLine
 10
7.758193392719608
 20
0.7329506464753433
 30
0.0
 11
7.679463810557389
 21
0.7784051919298882
 31
0.0
  0
LINE
  5
39B
330
2
100
AcDbEntity
  8
0
100
AcDbLine
 10
7.758193392719608
 20
0.6420415555662515
 30
0.0
 11
7.679463810557389
 21
0.6874961010207965
 31
0.0
  0
LINE
  5
39C
330
2
100
AcDbEntity
  8
0
100
AcDbLine
 10
7.679463810557389
 20
0.5965870101117066
 30
0.0
 11
7.75819339271961
 21
0.6420415555662515
 31
0.0
  0
LINE
  5
39D
330
2
100
AcDbEntity
  8
0
100
AcDbLine
 10
7.758193392719608
 20
0.5511324646571616
 30
0.0
 11
7.679463810557389
 21
0.5965870101117066
 31
0.0
  0
LINE
  5
39E
330
2
100
AcDbEntity
  8
0
100
AcDbLine
 10
7.679463810557389
 20
0.6874961010207965
 30
0.0
 11
7.75819339271961
 21
0.7329506464753415
 31
0.0
  0
LINE
  5
39F
330
2
100
AcDbEntity
  8
0
100
AcDbLine
 10
7.758193392719608
 20
0.9147688282935249
 30
0.0
 11
7.679463810557389
 21
0.9602233737480717
 31
0.0
  0
LINE
  5
3A0
330
2
100
AcDbEntity
  8
0
100
AcDbLine
 10
7.679463810557389
 20
1.323859737384435
 30
0.0
 11
7.75819339271961
 21
1.36931428283898
 31
0.0
  0
LINE
  5
3A1
330
2
100
AcDbEntity
  8
0
100
AcDbLine
 10
7.758193392719608
 20
0.4602233737480699
 30
0.0
 11
7.679463810557389
 21
0.5056779192026149
 31
0.0
  0
LINE
  5
3A2
330
2
100
AcDbEntity
  8
0
100
AcDbLine
 10
7.679463810557389
 20
0.4147688282935249
 30
0.0
 11
7.75819339271961
 21
0.4602233737480699
 31
0.0
  0
LINE
  5
3A3
330
2
100
AcDbEntity
  8
0
100
AcDbLine
 10
7.758193392719608
 20
0.3693142828389799
 30
0.0
 11
7.679463810557389
 21
0.4147688282935249
 31
0.0
  0
LINE
  5
3A4
330
2
100
AcDbEntity
  8
0
100
AcDbLine
 10
7.679463810557389
 20
0.3238597373844332
 30
0.0
 11
7.75819339271961
 21
0.3693142828389782
 31
0.0
  0
LINE
  5
3A5
330
2
100
AcDbEntity
  8
0
100
AcDbLine
 10
7.679463810557389
 20
0.2329506464753433
 30
0.0
 11
7.75819339271961
 21
0.2784051919298882
 31
0.0
  0
LINE
  5
3A6
330
2
100
AcDbEntity
  8
0
100
AcDbLine
 10
7.758193392719608
 20
0.2784051919298882
 30
0.0
 11
7.679463810557389
 21
0.3238597373844332
 31
0.0
  0
LINE
  5
3A7
330
2
100
AcDbEntity
  8
0
100
AcDbLine
 10
7.679463810557389
 20
0.5056779192026149
 30
0.0
 11
7.75819339271961
 21
0.5511324646571598
 31
0.0
  0
LINE
  5
3A8
330
2
100
AcDbEntity
  8
0
100
AcDbLine
 10
7.75819339271961
 20
1.187496101020798
 30
0.0
 11
7.13319339271961
 21
1.142046101020796
 31
0.0
  0
LINE
  5
3A9
330
2
100
AcDbEntity
  8
0
100
AcDbLine
 10
7.75819339271961
 20
1.096587010111708
 30
0.0
 11
7.13319339271961
 21
1.051137010111706
 31
0.0
  0
LINE
  5
3AA
330
2
100
AcDbEntity
  8
0
100
AcDbLine
 10
7.75819339271961
 20
1.005677919202615
 30
0.0
 11
7.13319339271961
 21
0.960227919202616
 31
0.0
  0
LINE
  5
3AB
330
2
100
AcDbEntity
  8
0
100
AcDbLine
 10
7.75819339271961
 20
0.9147688282935249
 30
0.0
 11
7.13319339271961
 21
0.8693188282935243
 31
0.0
  0
LINE
  5
3AC
330
2
100
AcDbEntity
  8
0
100
AcDbLine
 10
7.75819339271961
 20
0.823859737384435
 30
0.0
 11
7.13319339271961
 21
0.7784097373844343
 31
0.0
  0
LINE
  5
3AD
330
2
100
AcDbEntity
  8
0
100
AcDbLine
 10
7.75819339271961
 20
0.7329506464753433
 30
0.0
 11
7.13319339271961
 21
0.6875006464753426
 31
0.0
  0
LINE
  5
3AE
330
2
100
AcDbEntity
  8
0
100
AcDbLine
 10
7.75819339271961
 20
0.6420415555662515
 30
0.0
 11
7.13319339271961
 21
0.5965915555662509
 31
0.0
  0
LINE
  5
3AF
330
2
100
AcDbEntity
  8
0
100
AcDbLine
 10
7.75819339271961
 20
0.5511324646571616
 30
0.0
 11
7.13319339271961
 21
0.5056824646571609
 31
0.0
  0
LINE
  5
3B0
330
2
100
AcDbEntity
  8
0
100
AcDbLine
 10
7.75819339271961
 20
0.4602233737480699
 30
0.0
 11
7.13319339271961
 21
0.4147733737480692
 31
0.0
  0
LINE
  5
3B1
330
2
100
AcDbEntity
  8
0
100
AcDbLine
 10
7.75819339271961
 20
0.3693142828389799
 30
0.0
 11
7.13319339271961
 21
0.3238642828389793
 31
0.0
  0
LINE
  5
3B2
330
2
100
AcDbEntity
  8
0
100
AcDbLine
 10
7.75819339271961
 20
0.2784051919298882
 30
0.0
 11
7.154291030233212
 21
0.2451359186276321
 31
0.0
  0
LINE
  5
3B3
330
2
100
AcDbEntity
  8
0
100
AcDbLine
 10
7.75819339271961
 20
2.096587010111708
 30
0.0
 11
7.13319339271961
 21
2.051137010111706
 31
0.0
  0
LINE
  5
3B4
330
2
100
AcDbEntity
  8
0
100
AcDbLine
 10
7.75819339271961
 20
2.005677919202617
 30
0.0
 11
7.13319339271961
 21
1.960227919202616
 31
0.0
  0
LINE
  5
3B5
330
2
100
AcDbEntity
  8
0
100
AcDbLine
 10
7.75819339271961
 20
1.914768828293525
 30
0.0
 11
7.13319339271961
 21
1.869318828293526
 31
0.0
  0
LINE
  5
3B6
330
2
100
AcDbEntity
  8
0
100
AcDbLine
 10
7.75819339271961
 20
1.823859737384435
 30
0.0
 11
7.13319339271961
 21
1.778409737384434
 31
0.0
  0
LINE
  5
3B7
330
2
100
AcDbEntity
  8
0
100
AcDbLine
 10
7.75819339271961
 20
1.732950646475345
 30
0.0
 11
7.13319339271961
 21
1.687500646475343
 31
0.0
  0
LINE
  5
3B8
330
2
100
AcDbEntity
  8
0
100
AcDbLine
 10
7.75819339271961
 20
1.642041555566252
 30
0.0
 11
7.13319339271961
 21
1.596591555566253
 31
0.0
  0
LINE
  5
3B9
330
2
100
AcDbEntity
  8
0
100
AcDbLine
 10
7.75819339271961
 20
1.551132464657162
 30
0.0
 11
7.13319339271961
 21
1.505682464657163
 31
0.0
  0
LINE
  5
3BA
330
2
100
AcDbEntity
  8
0
100
AcDbLine
 10
7.75819339271961
 20
1.460223373748072
 30
0.0
 11
7.13319339271961
 21
1.414773373748071
 31
0.0
  0
LINE
  5
3BB
330
2
100
AcDbEntity
  8
0
100
AcDbLine
 10
7.75819339271961
 20
1.369314282838982
 30
0.0
 11
7.13319339271961
 21
1.323864282838979
 31
0.0
  0
LINE
  5
3BC
330
2
100
AcDbEntity
  8
0
100
AcDbLine
 10
7.75819339271961
 20
1.27840519192989
 30
0.0
 11
7.13319339271961
 21
1.232955191929889
 31
0.0
  0
LINE
  5
3BD
330
2
100
AcDbEntity
  8
0
100
AcDbLine
 10
7.75819339271961
 20
2.187496101020798
 30
0.0
 11
7.13319339271961
 21
2.142046101020798
 31
0.0
  0
LINE
  5
3BE
330
2
100
AcDbEntity
  8
0
100
AcDbLine
 10
7.679463810557389
 20
2.142041555566252
 30
0.0
 11
7.75819339271961
 21
2.187496101020798
 31
0.0
  0
LINE
  5
3BF
330
2
100
AcDbEntity
  8
0
100
AcDbLine
 10
7.133193392719596
 20
4.7499961010208
 30
0.0
 11
7.758193392719596
 21
4.7499961010208
 31
0.0
  0
LINE
  5
3C0
330
2
100
AcDbEntity
  8
0
100
AcDbLine
 10
7.13319339271961
 20
1.778409737384436
 30
0.0
 11
7.21192297488183
 21
1.823864282838981
 31
0.0
  0
LINE
  5
3C1
330
2
100
AcDbEntity
  8
0
100
AcDbLine
 10
7.154291030233212
 20
0.2451359186276321
 30
0.0
 11
7.21192297488183
 21
0.2784097373844343
 31
0.0
  0
LINE
  5
3C2
330
2
100
AcDbEntity
  8
0
100
AcDbLine
 10
7.21192297488183
 20
0.1875006464753426
 30
0.0
 11
7.679463810557389
 21
0.2329506464753433
 31
0.0
  0
LINE
  5
3C3
330
2
100
AcDbEntity
  8
0
100
AcDbLine
 10
7.211930847840046
 20
0.1874961010207983
 30
0.0
 11
7.679463810557389
 21
0.1874961010207983
 31
0.0
  0
LINE
  5
3C4
330
2
100
AcDbEntity
  8
0
100
AcDbLine
 10
7.154291030233212
 20
0.2451359186276321
 30
0.0
 11
7.211930847840046
 21
0.1874961010207983
 31
0.0
  0
LINE
  5
3C5
330
2
100
AcDbEntity
  8
0
100
AcDbLine
 10
7.708280837658096
 20
0.2163131281215041
 30
0.0
 11
7.679463810557389
 21
0.2329506464753433
 31
0.0
  0
LINE
  5
3C6
330
2
100
AcDbEntity
  8
0
100
AcDbLine
 10
7.679463810557389
 20
0.1874961010207983
 30
0.0
 11
7.708280837658096
 21
0.2163131281215041
 31
0.0
  0
LINE
  5
3C7
330
2
100
AcDbEntity
  8
0
100
AcDbLine
 10
7.21192297488183
 20
1.005682464657163
 30
0.0
 11
7.13319339271961
 21
1.051137010111706
 31
0.0
  0
LINE
  5
3C8
330
2
100
AcDbEntity
  8
0
100
AcDbLine
 10
7.21192297488183
 20
1.005682464657163
 30
0.0
 11
7.679463810557389
 21
1.051132464657162
 31
0.0
  0
LINE
  5
3C9
330
2
100
AcDbEntity
  8
0
100
AcDbLine
 10
7.21192297488183
 20
0.6420461010207976
 30
0.0
 11
7.13319339271961
 21
0.6875006464753426
 31
0.0
  0
LINE
  5
3CA
330
2
100
AcDbEntity
  8
0
100
AcDbLine
 10
7.21192297488183
 20
0.6420461010207976
 30
0.0
 11
7.679463810557389
 21
0.6874961010207965
 31
0.0
  0
LINE
  5
3CB
330
2
100
AcDbEntity
  8
0
100
AcDbLine
 10
7.21192297488183
 20
0.5511370101117059
 30
0.0
 11
7.679463810557389
 21
0.5965870101117066
 31
0.0
  0
LINE
  5
3CC
330
2
100
AcDbEntity
  8
0
100
AcDbLine
 10
7.21192297488183
 20
0.460227919202616
 30
0.0
 11
7.679463810557389
 21
0.5056779192026149
 31
0.0
  0
LINE
  5
3CD
330
2
100
AcDbEntity
  8
0
100
AcDbLine
 10
7.21192297488183
 20
0.3693188282935243
 30
0.0
 11
7.679463810557389
 21
0.4147688282935249
 31
0.0
  0
LINE
  5
3CE
330
2
100
AcDbEntity
  8
0
100
AcDbLine
 10
7.21192297488183
 20
0.2784097373844343
 30
0.0
 11
7.679463810557389
 21
0.3238597373844332
 31
0.0
  0
LINE
  5
3CF
330
2
100
AcDbEntity
  8
0
100
AcDbLine
 10
7.13319339271961
 20
0.5965915555662527
 30
0.0
 11
7.21192297488183
 21
0.6420461010207976
 31
0.0
  0
LINE
  5
3D0
330
2
100
AcDbEntity
  8
0
100
AcDbLine
 10
7.21192297488183
 20
0.5511370101117059
 30
0.0
 11
7.13319339271961
 21
0.5965915555662509
 31
0.0
  0
LINE
  5
3D1
330
2
100
AcDbEntity
  8
0
100
AcDbLine
 10
7.21192297488183
 20
0.460227919202616
 30
0.0
 11
7.13319339271961
 21
0.5056824646571609
 31
0.0
  0
LINE
  5
3D2
330
2
100
AcDbEntity
  8
0
100
AcDbLine
 10
7.13319339271961
 20
0.414773373748071
 30
0.0
 11
7.21192297488183
 21
0.460227919202616
 31
0.0
  0
LINE
  5
3D3
330
2
100
AcDbEntity
  8
0
100
AcDbLine
 10
7.21192297488183
 20
0.3693188282935243
 30
0.0
 11
7.13319339271961
 21
0.4147733737480692
 31
0.0
  0
LINE
  5
3D4
330
2
100
AcDbEntity
  8
0
100
AcDbLine
 10
7.13319339271961
 20
0.3238642828389793
 30
0.0
 11
7.21192297488183
 21
0.3693188282935243
 31
0.0
  0
LINE
  5
3D5
330
2
100
AcDbEntity
  8
0
100
AcDbLine
 10
7.21192297488183
 20
0.2784097373844343
 30
0.0
 11
7.13319339271961
 21
0.3238642828389793
 31
0.0
  0
LINE
  5
3D6
330
2
100
AcDbEntity
  8
0
100
AcDbLine
 10
7.13319339271961
 20
0.5056824646571609
 30
0.0
 11
7.21192297488183
 21
0.5511370101117059
 31
0.0
  0
LINE
  5
3D7
330
2
100
AcDbEntity
  8
0
100
AcDbLine
 10
7.21192297488183
 20
0.9147733737480692
 30
0.0
 11
7.679463810557389
 21
0.9602233737480717
 31
0.0
  0
LINE
  5
3D8
330
2
100
AcDbEntity
  8
0
100
AcDbLine
 10
7.21192297488183
 20
0.8238642828389793
 30
0.0
 11
7.679463810557389
 21
0.8693142828389799
 31
0.0
  0
LINE
  5
3D9
330
2
100
AcDbEntity
  8
0
100
AcDbLine
 10
7.21192297488183
 20
0.7329551919298893
 30
0.0
 11
7.679463810557389
 21
0.7784051919298882
 31
0.0
  0
LINE
  5
3DA
330
2
100
AcDbEntity
  8
0
100
AcDbLine
 10
7.13319339271961
 20
0.960227919202616
 30
0.0
 11
7.21192297488183
 21
1.005682464657163
 31
0.0
  0
LINE
  5
3DB
330
2
100
AcDbEntity
  8
0
100
AcDbLine
 10
7.13319339271961
 20
0.869318828293526
 30
0.0
 11
7.21192297488183
 21
0.9147733737480692
 31
0.0
  0
LINE
  5
3DC
330
2
100
AcDbEntity
  8
0
100
AcDbLine
 10
7.21192297488183
 20
0.8238642828389793
 30
0.0
 11
7.13319339271961
 21
0.8693188282935243
 31
0.0
  0
LINE
  5
3DD
330
2
100
AcDbEntity
  8
0
100
AcDbLine
 10
7.13319339271961
 20
0.7784097373844343
 30
0.0
 11
7.21192297488183
 21
0.8238642828389793
 31
0.0
  0
LINE
  5
3DE
330
2
100
AcDbEntity
  8
0
100
AcDbLine
 10
7.21192297488183
 20
0.7329551919298893
 30
0.0
 11
7.13319339271961
 21
0.7784097373844343
 31
0.0
  0
LINE
  5
3DF
330
2
100
AcDbEntity
  8
0
100
AcDbLine
 10
7.13319339271961
 20
0.6875006464753444
 30
0.0
 11
7.21192297488183
 21
0.7329551919298893
 31
0.0
  0
LINE
  5
3E0
330
2
100
AcDbEntity
  8
0
100
AcDbLine
 10
7.21192297488183
 20
0.9147733737480692
 30
0.0
 11
7.13319339271961
 21
0.960227919202616
 31
0.0
  0
LINE
  5
3E1
330
2
100
AcDbEntity
  8
0
100
AcDbLine
 10
7.13319339271961
 20
1.414773373748073
 30
0.0
 11
7.21192297488183
 21
1.460227919202618
 31
0.0
  0
LINE
  5
3E2
330
2
100
AcDbEntity
  8
0
100
AcDbLine
 10
7.21192297488183
 20
1.096591555566253
 30
0.0
 11
7.679463810557389
 21
1.142041555566252
 31
0.0
  0
LINE
  5
3E3
330
2
100
AcDbEntity
  8
0
100
AcDbLine
 10
7.21192297488183
 20
1.369318828293526
 30
0.0
 11
7.679463810557389
 21
1.414768828293525
 31
0.0
  0
LINE
  5
3E4
330
2
100
AcDbEntity
  8
0
100
AcDbLine
 10
7.21192297488183
 20
1.278409737384436
 30
0.0
 11
7.679463810557389
 21
1.323859737384435
 31
0.0
  0
LINE
  5
3E5
330
2
100
AcDbEntity
  8
0
100
AcDbLine
 10
7.21192297488183
 20
1.187500646475346
 30
0.0
 11
7.679463810557389
 21
1.232950646475345
 31
0.0
  0
LINE
  5
3E6
330
2
100
AcDbEntity
  8
0
100
AcDbLine
 10
7.21192297488183
 20
1.369318828293526
 30
0.0
 11
7.13319339271961
 21
1.414773373748073
 31
0.0
  0
LINE
  5
3E7
330
2
100
AcDbEntity
  8
0
100
AcDbLine
 10
7.13319339271961
 20
1.232955191929891
 30
0.0
 11
7.21192297488183
 21
1.278409737384436
 31
0.0
  0
LINE
  5
3E8
330
2
100
AcDbEntity
  8
0
100
AcDbLine
 10
7.21192297488183
 20
1.278409737384436
 30
0.0
 11
7.13319339271961
 21
1.323864282838981
 31
0.0
  0
LINE
  5
3E9
330
2
100
AcDbEntity
  8
0
100
AcDbLine
 10
7.21192297488183
 20
1.187500646475346
 30
0.0
 11
7.13319339271961
 21
1.232955191929889
 31
0.0
  0
LINE
  5
3EA
330
2
100
AcDbEntity
  8
0
100
AcDbLine
 10
7.13319339271961
 20
1.142046101020799
 30
0.0
 11
7.21192297488183
 21
1.187500646475346
 31
0.0
  0
LINE
  5
3EB
330
2
100
AcDbEntity
  8
0
100
AcDbLine
 10
7.13319339271961
 20
1.051137010111706
 30
0.0
 11
7.21192297488183
 21
1.096591555566253
 31
0.0
  0
LINE
  5
3EC
330
2
100
AcDbEntity
  8
0
100
AcDbLine
 10
7.21192297488183
 20
1.096591555566253
 30
0.0
 11
7.13319339271961
 21
1.142046101020796
 31
0.0
  0
LINE
  5
3ED
330
2
100
AcDbEntity
  8
0
100
AcDbLine
 10
7.13319339271961
 20
1.323864282838983
 30
0.0
 11
7.21192297488183
 21
1.369318828293526
 31
0.0
  0
LINE
  5
3EE
330
2
100
AcDbEntity
  8
0
100
AcDbLine
 10
7.21192297488183
 20
1.732955191929889
 30
0.0
 11
7.679463810557389
 21
1.778405191929888
 31
0.0
  0
LINE
  5
3EF
330
2
100
AcDbEntity
  8
0
100
AcDbLine
 10
7.21192297488183
 20
1.642046101020799
 30
0.0
 11
7.679463810557389
 21
1.687496101020798
 31
0.0
  0
LINE
  5
3F0
330
2
100
AcDbEntity
  8
0
100
AcDbLine
 10
7.21192297488183
 20
1.55113701011171
 30
0.0
 11
7.679463810557389
 21
1.596587010111708
 31
0.0
  0
LINE
  5
3F1
330
2
100
AcDbEntity
  8
0
100
AcDbLine
 10
7.21192297488183
 20
1.460227919202618
 30
0.0
 11
7.679463810557389
 21
1.505677919202617
 31
0.0
  0
LINE
  5
3F2
330
2
100
AcDbEntity
  8
0
100
AcDbLine
 10
7.13319339271961
 20
1.687500646475346
 30
0.0
 11
7.21192297488183
 21
1.732955191929889
 31
0.0
  0
LINE
  5
3F3
330
2
100
AcDbEntity
  8
0
100
AcDbLine
 10
7.13319339271961
 20
1.596591555566253
 30
0.0
 11
7.21192297488183
 21
1.642046101020799
 31
0.0
  0
LINE
  5
3F4
330
2
100
AcDbEntity
  8
0
100
AcDbLine
 10
7.21192297488183
 20
1.642046101020799
 30
0.0
 11
7.13319339271961
 21
1.687500646475343
 31
0.0
  0
LINE
  5
3F5
330
2
100
AcDbEntity
  8
0
100
AcDbLine
 10
7.21192297488183
 20
1.55113701011171
 30
0.0
 11
7.13319339271961
 21
1.596591555566253
 31
0.0
  0
LINE
  5
3F6
330
2
100
AcDbEntity
  8
0
100
AcDbLine
 10
7.21192297488183
 20
1.460227919202618
 30
0.0
 11
7.13319339271961
 21
1.505682464657163
 31
0.0
  0
LINE
  5
3F7
330
2
100
AcDbEntity
  8
0
100
AcDbLine
 10
7.13319339271961
 20
1.505682464657163
 30
0.0
 11
7.21192297488183
 21
1.55113701011171
 31
0.0
  0
LINE
  5
3F8
330
2
100
AcDbEntity
  8
0
100
AcDbLine
 10
7.21192297488183
 20
1.732955191929889
 30
0.0
 11
7.13319339271961
 21
1.778409737384436
 31
0.0
  0
LINE
  5
3F9
330
2
100
AcDbEntity
  8
0
100
AcDbLine
 10
7.21192297488183
 20
3.369318828293526
 30
0.0
 11
7.13319339271961
 21
3.414773373748071
 31
0.0
  0
LINE
  5
3FA
330
2
100
AcDbEntity
  8
0
100
AcDbLine
 10
7.21192297488183
 20
3.369318828293526
 30
0.0
 11
7.679463810557389
 21
3.414768828293525
 31
0.0
  0
LINE
  5
3FB
330
2
100
AcDbEntity
  8
0
100
AcDbLine
 10
7.21192297488183
 20
2.551137010111708
 30
0.0
 11
7.13319339271961
 21
2.596591555566253
 31
0.0
  0
LINE
  5
3FC
330
2
100
AcDbEntity
  8
0
100
AcDbLine
 10
7.21192297488183
 20
2.551137010111708
 30
0.0
 11
7.679463810557389
 21
2.596587010111707
 31
0.0
  0
LINE
  5
3FD
330
2
100
AcDbEntity
  8
0
100
AcDbLine
 10
7.21192297488183
 20
2.187500646475344
 30
0.0
 11
7.13319339271961
 21
2.232955191929889
 31
0.0
  0
LINE
  5
3FE
330
2
100
AcDbEntity
  8
0
100
AcDbLine
 10
7.21192297488183
 20
2.187500646475344
 30
0.0
 11
7.679463810557389
 21
2.232950646475343
 31
0.0
  0
LINE
  5
3FF
330
2
100
AcDbEntity
  8
0
100
AcDbLine
 10
7.21192297488183
 20
2.096591555566253
 30
0.0
 11
7.679463810557389
 21
2.142041555566252
 31
0.0
  0
LINE
  5
400
330
2
100
AcDbEntity
  8
0
100
AcDbLine
 10
7.21192297488183
 20
2.005682464657163
 30
0.0
 11
7.679463810557389
 21
2.051132464657162
 31
0.0
  0
LINE
  5
401
330
2
100
AcDbEntity
  8
0
100
AcDbLine
 10
7.21192297488183
 20
1.914773373748073
 30
0.0
 11
7.679463810557389
 21
1.960223373748072
 31
0.0
  0
LINE
  5
402
330
2
100
AcDbEntity
  8
0
100
AcDbLine
 10
7.21192297488183
 20
1.823864282838981
 30
0.0
 11
7.679463810557389
 21
1.86931428283898
 31
0.0
  0
LINE
  5
403
330
2
100
AcDbEntity
  8
0
100
AcDbLine
 10
7.13319339271961
 20
2.05113701011171
 30
0.0
 11
7.21192297488183
 21
2.096591555566253
 31
0.0
  0
LINE
  5
404
330
2
100
AcDbEntity
  8
0
100
AcDbLine
 10
7.21192297488183
 20
2.096591555566253
 30
0.0
 11
7.13319339271961
 21
2.142046101020799
 31
0.0
  0
LINE
  5
405
330
2
100
AcDbEntity
  8
0
100
AcDbLine
 10
7.13319339271961
 20
1.960227919202618
 30
0.0
 11
7.21192297488183
 21
2.005682464657163
 31
0.0
  0
LINE
  5
406
330
2
100
AcDbEntity
  8
0
100
AcDbLine
 10
7.21192297488183
 20
2.005682464657163
 30
0.0
 11
7.13319339271961
 21
2.051137010111708
 31
0.0
  0
LINE
  5
407
330
2
100
AcDbEntity
  8
0
100
AcDbLine
 10
7.13319339271961
 20
1.869318828293526
 30
0.0
 11
7.21192297488183
 21
1.914773373748073
 31
0.0
  0
LINE
  5
408
330
2
100
AcDbEntity
  8
0
100
AcDbLine
 10
7.21192297488183
 20
1.823864282838981
 30
0.0
 11
7.13319339271961
 21
1.869318828293526
 31
0.0
  0
LINE
  5
409
330
2
100
AcDbEntity
  8
0
100
AcDbLine
 10
7.21192297488183
 20
1.914773373748073
 30
0.0
 11
7.13319339271961
 21
1.960227919202616
 31
0.0
  0
LINE
  5
40A
330
2
100
AcDbEntity
  8
0
100
AcDbLine
 10
7.13319339271961
 20
2.142046101020799
 30
0.0
 11
7.21192297488183
 21
2.187500646475344
 31
0.0
  0
LINE
  5
40B
330
2
100
AcDbEntity
  8
0
100
AcDbLine
 10
7.21192297488183
 20
2.460227919202616
 30
0.0
 11
7.679463810557389
 21
2.505677919202615
 31
0.0
  0
LINE
  5
40C
330
2
100
AcDbEntity
  8
0
100
AcDbLine
 10
7.21192297488183
 20
2.369318828293526
 30
0.0
 11
7.679463810557389
 21
2.414768828293525
 31
0.0
  0
LINE
  5
40D
330
2
100
AcDbEntity
  8
0
100
AcDbLine
 10
7.21192297488183
 20
2.278409737384436
 30
0.0
 11
7.679463810557389
 21
2.323859737384435
 31
0.0
  0
LINE
  5
40E
330
2
100
AcDbEntity
  8
0
100
AcDbLine
 10
7.13319339271961
 20
2.505682464657163
 30
0.0
 11
7.21192297488183
 21
2.551137010111708
 31
0.0
  0
LINE
  5
40F
330
2
100
AcDbEntity
  8
0
100
AcDbLine
 10
7.13319339271961
 20
2.414773373748073
 30
0.0
 11
7.21192297488183
 21
2.460227919202616
 31
0.0
  0
LINE
  5
410
330
2
100
AcDbEntity
  8
0
100
AcDbLine
 10
7.21192297488183
 20
2.460227919202616
 30
0.0
 11
7.13319339271961
 21
2.505682464657163
 31
0.0
  0
LINE
  5
411
330
2
100
AcDbEntity
  8
0
100
AcDbLine
 10
7.21192297488183
 20
2.369318828293526
 30
0.0
 11
7.13319339271961
 21
2.414773373748071
 31
0.0
  0
LINE
  5
412
330
2
100
AcDbEntity
  8
0
100
AcDbLine
 10
7.13319339271961
 20
2.232955191929889
 30
0.0
 11
7.21192297488183
 21
2.278409737384436
 31
0.0
  0
LINE
  5
413
330
2
100
AcDbEntity
  8
0
100
AcDbLine
 10
7.21192297488183
 20
2.278409737384436
 30
0.0
 11
7.13319339271961
 21
2.323864282838979
 31
0.0
  0
LINE
  5
414
330
2
100
AcDbEntity
  8
0
100
AcDbLine
 10
7.13319339271961
 20
2.323864282838981
 30
0.0
 11
7.21192297488183
 21
2.369318828293526
 31
0.0
  0
LINE
  5
415
330
2
100
AcDbEntity
  8
0
100
AcDbLine
 10
7.13319339271961
 20
2.960227919202618
 30
0.0
 11
7.21192297488183
 21
3.005682464657161
 31
0.0
  0
LINE
  5
416
330
2
100
AcDbEntity
  8
0
100
AcDbLine
 10
7.21192297488183
 20
2.914773373748071
 30
0.0
 11
7.679463810557389
 21
2.96022337374807
 31
0.0
  0
LINE
  5
417
330
2
100
AcDbEntity
  8
0
100
AcDbLine
 10
7.21192297488183
 20
2.823864282838979
 30
0.0
 11
7.679463810557389
 21
2.869314282838978
 31
0.0
  0
LINE
  5
418
330
2
100
AcDbEntity
  8
0
100
AcDbLine
 10
7.21192297488183
 20
2.732955191929889
 30
0.0
 11
7.679463810557389
 21
2.778405191929888
 31
0.0
  0
LINE
  5
419
330
2
100
AcDbEntity
  8
0
100
AcDbLine
 10
7.21192297488183
 20
2.642046101020799
 30
0.0
 11
7.679463810557389
 21
2.687496101020798
 31
0.0
  0
LINE
  5
41A
330
2
100
AcDbEntity
  8
0
100
AcDbLine
 10
7.13319339271961
 20
2.869318828293526
 30
0.0
 11
7.21192297488183
 21
2.914773373748071
 31
0.0
  0
LINE
  5
41B
330
2
100
AcDbEntity
  8
0
100
AcDbLine
 10
7.21192297488183
 20
2.914773373748071
 30
0.0
 11
7.13319339271961
 21
2.960227919202616
 31
0.0
  0
LINE
  5
41C
330
2
100
AcDbEntity
  8
0
100
AcDbLine
 10
7.13319339271961
 20
2.778409737384436
 30
0.0
 11
7.21192297488183
 21
2.823864282838979
 31
0.0
  0
LINE
  5
41D
330
2
100
AcDbEntity
  8
0
100
AcDbLine
 10
7.21192297488183
 20
2.823864282838979
 30
0.0
 11
7.13319339271961
 21
2.869318828293526
 31
0.0
  0
LINE
  5
41E
330
2
100
AcDbEntity
  8
0
100
AcDbLine
 10
7.13319339271961
 20
2.687500646475344
 30
0.0
 11
7.21192297488183
 21
2.732955191929889
 31
0.0
  0
LINE
  5
41F
330
2
100
AcDbEntity
  8
0
100
AcDbLine
 10
7.13319339271961
 20
2.596591555566253
 30
0.0
 11
7.21192297488183
 21
2.642046101020799
 31
0.0
  0
LINE
  5
420
330
2
100
AcDbEntity
  8
0
100
AcDbLine
 10
7.21192297488183
 20
2.642046101020799
 30
0.0
 11
7.13319339271961
 21
2.687500646475343
 31
0.0
  0
LINE
  5
421
330
2
100
AcDbEntity
  8
0
100
AcDbLine
 10
7.21192297488183
 20
2.732955191929889
 30
0.0
 11
7.13319339271961
 21
2.778409737384434
 31
0.0
  0
LINE
  5
422
330
2
100
AcDbEntity
  8
0
100
AcDbLine
 10
7.21192297488183
 20
3.278409737384434
 30
0.0
 11
7.679463810557389
 21
3.323859737384433
 31
0.0
  0
LINE
  5
423
330
2
100
AcDbEntity
  8
0
100
AcDbLine
 10
7.21192297488183
 20
3.187500646475344
 30
0.0
 11
7.679463810557389
 21
3.232950646475343
 31
0.0
  0
LINE
  5
424
330
2
100
AcDbEntity
  8
0
100
AcDbLine
 10
7.21192297488183
 20
3.096591555566253
 30
0.0
 11
7.679463810557389
 21
3.142041555566252
 31
0.0
  0
LINE
  5
425
330
2
100
AcDbEntity
  8
0
100
AcDbLine
 10
7.21192297488183
 20
3.005682464657161
 30
0.0
 11
7.679463810557389
 21
3.05113246465716
 31
0.0
  0
LINE
  5
426
330
2
100
AcDbEntity
  8
0
100
AcDbLine
 10
7.13319339271961
 20
3.323864282838981
 30
0.0
 11
7.21192297488183
 21
3.369318828293526
 31
0.0
  0
LINE
  5
427
330
2
100
AcDbEntity
  8
0
100
AcDbLine
 10
7.13319339271961
 20
3.232955191929891
 30
0.0
 11
7.21192297488183
 21
3.278409737384434
 31
0.0
  0
LINE
  5
428
330
2
100
AcDbEntity
  8
0
100
AcDbLine
 10
7.21192297488183
 20
3.278409737384434
 30
0.0
 11
7.13319339271961
 21
3.323864282838981
 31
0.0
  0
LINE
  5
429
330
2
100
AcDbEntity
  8
0
100
AcDbLine
 10
7.21192297488183
 20
3.187500646475344
 30
0.0
 11
7.13319339271961
 21
3.232955191929888
 31
0.0
  0
LINE
  5
42A
330
2
100
AcDbEntity
  8
0
100
AcDbLine
 10
7.13319339271961
 20
3.051137010111708
 30
0.0
 11
7.21192297488183
 21
3.096591555566253
 31
0.0
  0
LINE
  5
42B
330
2
100
AcDbEntity
  8
0
100
AcDbLine
 10
7.21192297488183
 20
3.096591555566253
 30
0.0
 11
7.13319339271961
 21
3.142046101020798
 31
0.0
  0
LINE
  5
42C
330
2
100
AcDbEntity
  8
0
100
AcDbLine
 10
7.21192297488183
 20
3.005682464657161
 30
0.0
 11
7.13319339271961
 21
3.051137010111708
 31
0.0
  0
LINE
  5
42D
330
2
100
AcDbEntity
  8
0
100
AcDbLine
 10
7.13319339271961
 20
3.142046101020798
 30
0.0
 11
7.21192297488183
 21
3.187500646475344
 31
0.0
  0
LINE
  5
42E
330
2
100
AcDbEntity
  8
0
100
AcDbLine
 10
7.13319339271961
 20
4.142046101020798
 30
0.0
 11
7.21192297488183
 21
4.187500646475343
 31
0.0
  0
LINE
  5
42F
330
2
100
AcDbEntity
  8
0
100
AcDbLine
 10
7.21192297488183
 20
3.732955191929889
 30
0.0
 11
7.13319339271961
 21
3.778409737384434
 31
0.0
  0
LINE
  5
430
330
2
100
AcDbEntity
  8
0
100
AcDbLine
 10
7.21192297488183
 20
3.732955191929889
 30
0.0
 11
7.679463810557389
 21
3.778405191929888
 31
0.0
  0
LINE
  5
431
330
2
100
AcDbEntity
  8
0
100
AcDbLine
 10
7.21192297488183
 20
3.642046101020798
 30
0.0
 11
7.679463810557389
 21
3.687496101020797
 31
0.0
  0
LINE
  5
432
330
2
100
AcDbEntity
  8
0
100
AcDbLine
 10
7.21192297488183
 20
3.551137010111708
 30
0.0
 11
7.679463810557389
 21
3.596587010111707
 31
0.0
  0
LINE
  5
433
330
2
100
AcDbEntity
  8
0
100
AcDbLine
 10
7.21192297488183
 20
3.460227919202618
 30
0.0
 11
7.679463810557389
 21
3.505677919202617
 31
0.0
  0
LINE
  5
434
330
2
100
AcDbEntity
  8
0
100
AcDbLine
 10
7.13319339271961
 20
3.687500646475344
 30
0.0
 11
7.21192297488183
 21
3.732955191929889
 31
0.0
  0
LINE
  5
435
330
2
100
AcDbEntity
  8
0
100
AcDbLine
 10
7.13319339271961
 20
3.596591555566254
 30
0.0
 11
7.21192297488183
 21
3.642046101020798
 31
0.0
  0
LINE
  5
436
330
2
100
AcDbEntity
  8
0
100
AcDbLine
 10
7.21192297488183
 20
3.642046101020798
 30
0.0
 11
7.13319339271961
 21
3.687500646475344
 31
0.0
  0
LINE
  5
437
330
2
100
AcDbEntity
  8
0
100
AcDbLine
 10
7.13319339271961
 20
3.505682464657163
 30
0.0
 11
7.21192297488183
 21
3.551137010111708
 31
0.0
  0
LINE
  5
438
330
2
100
AcDbEntity
  8
0
100
AcDbLine
 10
7.13319339271961
 20
3.414773373748071
 30
0.0
 11
7.21192297488183
 21
3.460227919202618
 31
0.0
  0
LINE
  5
439
330
2
100
AcDbEntity
  8
0
100
AcDbLine
 10
7.21192297488183
 20
3.460227919202618
 30
0.0
 11
7.13319339271961
 21
3.505682464657161
 31
0.0
  0
LINE
  5
43A
330
2
100
AcDbEntity
  8
0
100
AcDbLine
 10
7.21192297488183
 20
3.551137010111708
 30
0.0
 11
7.13319339271961
 21
3.596591555566253
 31
0.0
  0
LINE
  5
43B
330
2
100
AcDbEntity
  8
0
100
AcDbLine
 10
7.21192297488183
 20
4.096591555566253
 30
0.0
 11
7.679463810557389
 21
4.142041555566252
 31
0.0
  0
LINE
  5
43C
330
2
100
AcDbEntity
  8
0
100
AcDbLine
 10
7.21192297488183
 20
4.005682464657161
 30
0.0
 11
7.679463810557389
 21
4.051132464657162
 31
0.0
  0
LINE
  5
43D
330
2
100
AcDbEntity
  8
0
100
AcDbLine
 10
7.21192297488183
 20
3.914773373748071
 30
0.0
 11
7.679463810557389
 21
3.96022337374807
 31
0.0
  0
LINE
  5
43E
330
2
100
AcDbEntity
  8
0
100
AcDbLine
 10
7.21192297488183
 20
3.823864282838979
 30
0.0
 11
7.679463810557389
 21
3.86931428283898
 31
0.0
  0
LINE
  5
43F
330
2
100
AcDbEntity
  8
0
100
AcDbLine
 10
7.21192297488183
 20
4.096591555566253
 30
0.0
 11
7.13319339271961
 21
4.142046101020798
 31
0.0
  0
LINE
  5
440
330
2
100
AcDbEntity
  8
0
100
AcDbLine
 10
7.13319339271961
 20
4.051137010111708
 30
0.0
 11
7.21192297488183
 21
4.096591555566253
 31
0.0
  0
LINE
  5
441
330
2
100
AcDbEntity
  8
0
100
AcDbLine
 10
7.21192297488183
 20
4.005682464657161
 30
0.0
 11
7.13319339271961
 21
4.051137010111706
 31
0.0
  0
LINE
  5
442
330
2
100
AcDbEntity
  8
0
100
AcDbLine
 10
7.21192297488183
 20
3.914773373748071
 30
0.0
 11
7.13319339271961
 21
3.960227919202616
 31
0.0
  0
LINE
  5
443
330
2
100
AcDbEntity
  8
0
100
AcDbLine
 10
7.13319339271961
 20
3.869318828293526
 30
0.0
 11
7.21192297488183
 21
3.914773373748071
 31
0.0
  0
LINE
  5
444
330
2
100
AcDbEntity
  8
0
100
AcDbLine
 10
7.21192297488183
 20
3.823864282838979
 30
0.0
 11
7.13319339271961
 21
3.869318828293524
 31
0.0
  0
LINE
  5
445
330
2
100
AcDbEntity
  8
0
100
AcDbLine
 10
7.13319339271961
 20
3.960227919202616
 30
0.0
 11
7.21192297488183
 21
4.005682464657161
 31
0.0
  0
LINE
  5
446
330
2
100
AcDbEntity
  8
0
100
AcDbLine
 10
7.13319339271961
 20
3.778409737384434
 30
0.0
 11
7.21192297488183
 21
3.823864282838979
 31
0.0
  0
LINE
  5
447
330
2
100
AcDbEntity
  8
0
100
AcDbLine
 10
7.13319339271961
 20
4.505682464657163
 30
0.0
 11
7.21192297488183
 21
4.551137010111708
 31
0.0
  0
LINE
  5
448
330
2
100
AcDbEntity
  8
0
100
AcDbLine
 10
7.21192297488183
 20
4.460227919202616
 30
0.0
 11
7.679463810557389
 21
4.505677919202615
 31
0.0
  0
LINE
  5
449
330
2
100
AcDbEntity
  8
0
100
AcDbLine
 10
7.21192297488183
 20
4.369318828293524
 30
0.0
 11
7.679463810557389
 21
4.414768828293525
 31
0.0
  0
LINE
  5
44A
330
2
100
AcDbEntity
  8
0
100
AcDbLine
 10
7.21192297488183
 20
4.278409737384434
 30
0.0
 11
7.679463810557389
 21
4.323859737384433
 31
0.0
  0
LINE
  5
44B
330
2
100
AcDbEntity
  8
0
100
AcDbLine
 10
7.21192297488183
 20
4.187500646475343
 30
0.0
 11
7.679463810557389
 21
4.232950646475343
 31
0.0
  0
LINE
  5
44C
330
2
100
AcDbEntity
  8
0
100
AcDbLine
 10
7.21192297488183
 20
4.460227919202616
 30
0.0
 11
7.13319339271961
 21
4.505682464657161
 31
0.0
  0
LINE
  5
44D
330
2
100
AcDbEntity
  8
0
100
AcDbLine
 10
7.13319339271961
 20
4.414773373748071
 30
0.0
 11
7.21192297488183
 21
4.460227919202616
 31
0.0
  0
LINE
  5
44E
330
2
100
AcDbEntity
  8
0
100
AcDbLine
 10
7.13319339271961
 20
4.323864282838979
 30
0.0
 11
7.21192297488183
 21
4.369318828293524
 31
0.0
  0
LINE
  5
44F
330
2
100
AcDbEntity
  8
0
100
AcDbLine
 10
7.21192297488183
 20
4.278409737384434
 30
0.0
 11
7.13319339271961
 21
4.323864282838979
 31
0.0
  0
LINE
  5
450
330
2
100
AcDbEntity
  8
0
100
AcDbLine
 10
7.13319339271961
 20
4.232955191929889
 30
0.0
 11
7.21192297488183
 21
4.278409737384434
 31
0.0
  0
LINE
  5
451
330
2
100
AcDbEntity
  8
0
100
AcDbLine
 10
7.21192297488183
 20
4.369318828293524
 30
0.0
 11
7.13319339271961
 21
4.414773373748069
 31
0.0
  0
LINE
  5
452
330
2
100
AcDbEntity
  8
0
100
AcDbLine
 10
7.21192297488183
 20
4.187500646475343
 30
0.0
 11
7.13319339271961
 21
4.232955191929888
 31
0.0
  0
LINE
  5
453
330
2
100
AcDbEntity
  8
0
100
AcDbLine
 10
7.21192297488183
 20
4.732955191929889
 30
0.0
 11
7.387221564035537
 21
4.7499961010208
 31
0.0
  0
LINE
  5
454
330
2
100
AcDbEntity
  8
0
100
AcDbLine
 10
7.21192297488183
 20
4.642046101020798
 30
0.0
 11
7.679463810557389
 21
4.687496101020798
 31
0.0
  0
LINE
  5
455
330
2
100
AcDbEntity
  8
0
100
AcDbLine
 10
7.21192297488183
 20
4.551137010111708
 30
0.0
 11
7.679463810557389
 21
4.596587010111707
 31
0.0
  0
LINE
  5
456
330
2
100
AcDbEntity
  8
0
100
AcDbLine
 10
7.133193392719596
 20
4.7499961010208
 30
0.0
 11
7.081068392719596
 21
4.9062461010208
 31
0.0
  0
LINE
  5
457
330
2
100
AcDbEntity
  8
0
100
AcDbLine
 10
7.21192297488183
 20
4.732955191929889
 30
0.0
 11
7.182407254529212
 21
4.7499961010208
 31
0.0
  0
LINE
  5
458
330
2
100
AcDbEntity
  8
0
100
AcDbLine
 10
7.13319339271961
 20
4.687500646475344
 30
0.0
 11
7.21192297488183
 21
4.732955191929889
 31
0.0
  0
LINE
  5
459
330
2
100
AcDbEntity
  8
0
100
AcDbLine
 10
7.21192297488183
 20
4.642046101020798
 30
0.0
 11
7.13319339271961
 21
4.687500646475343
 31
0.0
  0
LINE
  5
45A
330
2
100
AcDbEntity
  8
0
100
AcDbLine
 10
7.21192297488183
 20
4.551137010111708
 30
0.0
 11
7.13319339271961
 21
4.596591555566253
 31
0.0
  0
LINE
  5
45B
330
2
100
AcDbEntity
  8
0
100
AcDbLine
 10
7.13319339271961
 20
4.596591555566253
 30
0.0
 11
7.21192297488183
 21
4.642046101020798
 31
0.0
  0
LINE
  5
45C
330
2
100
AcDbEntity
  8
0
100
AcDbLine
 10
7.810318392719596
 20
4.9062461010208
 30
0.0
 11
7.758193392719596
 21
4.7499961010208
 31
0.0
  0
LINE
  5
45E
330
2
100
AcDbEntity
  8
0
100
AcDbLine
 10
7.133193392719596
 20
5.187496101020798
 30
0.0
 11
7.758193392719596
 21
5.187496101020798
 31
0.0
  0
ARC
  5
45F
330
2
100
AcDbEntity
  8
0
100
AcDbCircle
 10
7.935318392719596
 20
5.062496101020798
 30
0.0
 40
0.224
100
AcDbArc
 50
146.0799371439038
 51
180.0
  0
LINE
  5
460
330
2
100
AcDbEntity
  8
0
100
AcDbLine
 10
9.12794339271959
 20
5.286496101020799
 30
0.0
 11
5.763443392719594
 21
5.286496101020799
 31
0.0
  0
LINE
  5
461
330
2
100
AcDbEntity
  8
0
100
AcDbLine
 10
9.12794339271959
 20
5.187496101020798
 30
0.0
 11
5.763443392719594
 21
5.187496101020798
 31
0.0
  0
LINE
  5
462
330
2
100
AcDbEntity
  8
0
100
AcDbLine
 10
5.664443392719594
 20
5.385496101020799
 30
0.0
 11
5.664443392719594
 21
7.255246101020799
 31
0.0
  0
LINE
  5
463
330
2
100
AcDbEntity
  8
0
100
AcDbLine
 10
5.565443392719594
 20
5.385496101020799
 30
0.0
 11
5.565443392719594
 21
7.255246101020799
 31
0.0
  0
ARC
  5
464
330
2
100
AcDbEntity
  8
0
100
AcDbCircle
 10
5.763443392719594
 20
5.385496101020799
 30
0.0
 40
0.198
100
AcDbArc
 50
180.0
 51
270.0
  0
ARC
  5
465
330
2
100
AcDbEntity
  8
0
100
AcDbCircle
 10
5.763443392719594
 20
5.385496101020799
 30
0.0
 40
0.099
100
AcDbArc
 50
180.0
 51
270.0
  0
ARC
  5
466
330
2
100
AcDbEntity
  8
0
100
AcDbCircle
 10
6.956068392719594
 20
5.062496101020798
 30
0.0
 40
0.125
100
AcDbArc
 50
0.0
 51
90.0
  0
ARC
  5
467
330
2
100
AcDbEntity
  8
0
100
AcDbCircle
 10
6.956068392719594
 20
5.062496101020798
 30
0.0
 40
0.224
100
AcDbArc
 50
359.9999999999998
 51
33.92006285609616
  0
LINE
  5
468
330
2
100
AcDbEntity
  8
0
100
AcDbLine
 10
5.664443392719594
 20
7.005246101020799
 30
0.0
 11
5.565443392719594
 21
7.005246101020799
 31
0.0
  0
LINE
  5
469
330
2
100
AcDbEntity
  8
0
100
AcDbLine
 10
5.664443392719594
 20
7.255246101020799
 30
0.0
 11
5.565443392719594
 21
7.255246101020799
 31
0.0
  0
LINE
  5
46A
330
2
100
AcDbEntity
  8
0
100
AcDbLine
 10
9.325943392719591
 20
7.255246101020799
 30
0.0
 11
9.325943392719591
 21
5.385496101020799
 31
0.0
  0
LINE
  5
46B
330
2
100
AcDbEntity
  8
0
100
AcDbLine
 10
9.226943392719591
 20
7.255246101020799
 30
0.0
 11
9.226943392719591
 21
5.385496101020799
 31
0.0
  0
ARC
  5
46C
330
2
100
AcDbEntity
  8
0
100
AcDbCircle
 10
9.12794339271959
 20
5.385496101020799
 30
0.0
 40
0.099
100
AcDbArc
 50
270.0
 51
0.0
  0
ARC
  5
46D
330
2
100
AcDbEntity
  8
0
100
AcDbCircle
 10
9.12794339271959
 20
5.385496101020799
 30
0.0
 40
0.198
100
AcDbArc
 50
270.0
 51
0.0
  0
ARC
  5
46E
330
2
100
AcDbEntity
  8
0
100
AcDbCircle
 10
7.935318392719596
 20
5.062496101020798
 30
0.0
 40
0.125
100
AcDbArc
 50
90.0
 51
180.0
  0
LINE
  5
46F
330
2
100
AcDbEntity
  8
0
100
AcDbLine
 10
9.325943392719589
 20
7.005246101020799
 30
0.0
 11
9.226943392719592
 21
7.005246101020799
 31
0.0
  0
LINE
  5
470
330
2
100
AcDbEntity
  8
0
100
AcDbLine
 10
9.325943392719589
 20
7.255246101020799
 30
0.0
 11
9.226943392719592
 21
7.255246101020799
 31
0.0
  0
CIRCLE
  5
472
330
2
100
AcDbEntity
  8
0
100
AcDbCircle
 10
7.445693392719592
 20
11.23102302723933
 30
0.0
 40
0.364625
  0
LINE
  5
473
330
2
100
AcDbEntity
  8
0
100
AcDbLine
 10
9.325943392719593
 20
9.793523027239328
 30
0.0
 11
5.565443392719596
 21
9.793523027239328
 31
0.0
  0
LINE
  5
474
330
2
100
AcDbEntity
  8
0
100
AcDbLine
 10
5.565443392719596
 20
12.66852302723933
 30
0.0
 11
9.325943392719593
 21
12.66852302723933
 31
0.0
  0
CIRCLE
  5
475
330
2
100
AcDbEntity
  8
0
100
AcDbCircle
 10
7.445693392719592
 20
11.23102302723933
 30
0.0
 40
0.489625
  0
CIRCLE
  5
476
330
2
100
AcDbEntity
  8
0
100
AcDbCircle
 10
7.445693392719592
 20
11.23102302723933
 30
0.0
 40
0.265625
  0
LINE
  5
477
330
2
100
AcDbEntity
  8
0
100
AcDbLine
 10
5.565443392719596
 20
9.793523027239328
 30
0.0
 11
5.565443392719596
 21
12.66852302723933
 31
0.0
  0
LINE
  5
478
330
2
100
AcDbEntity
  8
0
100
AcDbLine
 10
5.664443392719596
 20
9.793523027239328
 30
0.0
 11
5.664443392719596
 21
12.66852302723933
 31
0.0
  0
LINE
  5
479
330
2
100
AcDbEntity
  8
0
100
AcDbLine
 10
5.664443392719596
 20
10.04352302723933
 30
0.0
 11
5.565443392719596
 21
10.04352302723933
 31
0.0
  0
LINE
  5
47A
330
2
100
AcDbEntity
  8
0
100
AcDbLine
 10
5.565443392719596
 20
12.41852302723933
 30
0.0
 11
5.664443392719596
 21
12.41852302723933
 31
0.0
  0
LINE
  5
47B
330
2
100
AcDbEntity
  8
0
100
AcDbLine
 10
9.226943392719592
 20
12.66852302723933
 30
0.0
 11
9.226943392719592
 21
9.793523027239328
 31
0.0
  0
LINE
  5
47C
330
2
100
AcDbEntity
  8
0
100
AcDbLine
 10
9.325943392719593
 20
12.66852302723933
 30
0.0
 11
9.325943392719589
 21
9.793523027239328
 31
0.0
  0
LINE
  5
47D
330
2
100
AcDbEntity
  8
0
100
AcDbLine
 10
9.325943392719593
 20
10.04352302723933
 30
0.0
 11
9.226943392719592
 21
10.04352302723933
 31
0.0
  0
LINE
  5
47E
330
2
100
AcDbEntity
  8
0
100
AcDbLine
 10
9.226943392719592
 20
12.41852302723933
 30
0.0
 11
9.325943392719593
 21
12.41852302723933
 31
0.0
  0
LINE
  5
480
330
2
100
AcDbEntity
  8
0
100
AcDbLine
 10
15.99421334931472
 20
7.255246101020799
 30
0.0
 11
13.61921334931472
 21
7.255246101020799
 31
0.0
  0
LINE
  5
481
330
2
100
AcDbEntity
  8
0
  6
HIDDEN
100
AcDbLine
 10
16.24421334931472
 20
5.286496101020797
 30
0.0
 11
13.36921334931472
 21
5.286496101020797
 31
0.0
  0
LINE
  5
482
330
2
100
AcDbEntity
  8
0
100
AcDbLine
 10
16.24421334931472
 20
5.187496101020798
 30
0.0
 11
13.36921334931472
 21
5.1874961010208
 31
0.0
  0
LINE
  5
483
330
2
100
AcDbEntity
  8
0
100
AcDbLine
 10
13.36921334931472
 20
7.005246101020799
 30
0.0
 11
13.36921334931472
 21
5.1874961010208
 31
0.0
  0
LINE
  5
484
330
2
100
AcDbEntity
  8
0
100
AcDbLine
 10
13.61921334931472
 20
7.255246101020799
 30
0.0
 11
13.36921334931472
 21
7.005246101020799
 31
0.0
  0
LINE
  5
485
330
2
100
AcDbEntity
  8
0
100
AcDbLine
 10
15.17133834931473
 20
4.906246101020798
 30
0.0
 11
15.17133834931473
 21
5.062496101020798
 31
0.0
  0
LINE
  5
486
330
2
100
AcDbEntity
  8
0
100
AcDbLine
 10
14.44208834931473
 20
4.906246101020795
 30
0.0
 11
14.44208834931473
 21
5.062496101020798
 31
0.0
  0
LINE
  5
487
330
2
100
AcDbEntity
  8
0
100
AcDbLine
 10
14.49421334931474
 20
1.778409737384436
 30
0.0
 11
14.57294293147697
 21
1.823864282838981
 31
0.0
  0
LINE
  5
488
330
2
100
AcDbEntity
  8
0
100
AcDbLine
 10
15.11921334931474
 20
1.823859737384435
 30
0.0
 11
14.49421334931474
 21
1.778409737384434
 31
0.0
  0
LINE
  5
489
330
2
100
AcDbEntity
  8
0
100
AcDbLine
 10
15.04048376715253
 20
1.778405191929888
 30
0.0
 11
15.11921334931474
 21
1.823859737384435
 31
0.0
  0
LINE
  5
48A
330
2
100
AcDbEntity
  8
0
100
AcDbLine
 10
14.51531098682835
 20
0.2451359186276321
 30
0.0
 11
14.57294293147697
 21
0.2784097373844343
 31
0.0
  0
LINE
  5
48B
330
2
100
AcDbEntity
  8
0
100
AcDbLine
 10
15.11921334931474
 20
0.2784051919298882
 30
0.0
 11
14.51531098682835
 21
0.2451359186276321
 31
0.0
  0
LINE
  5
48C
330
2
100
AcDbEntity
  8
0
100
AcDbLine
 10
15.04048376715253
 20
0.2329506464753433
 30
0.0
 11
15.11921334931474
 21
0.2784051919298882
 31
0.0
  0
LINE
  5
48D
330
2
100
AcDbEntity
  8
0
100
AcDbLine
 10
14.57295080443518
 20
0.1874961010207983
 30
0.0
 11
15.04048376715253
 21
0.1874961010207983
 31
0.0
  0
LINE
  5
48E
330
2
100
AcDbEntity
  8
0
100
AcDbLine
 10
14.57294293147697
 20
0.1875006464753426
 30
0.0
 11
15.04048376715253
 21
0.2329506464753433
 31
0.0
  0
LINE
  5
48F
330
2
100
AcDbEntity
  8
0
100
AcDbLine
 10
14.51531098682835
 20
0.2451359186276321
 30
0.0
 11
14.57295080443518
 21
0.1874961010207983
 31
0.0
  0
LINE
  5
490
330
2
100
AcDbEntity
  8
0
100
AcDbLine
 10
15.04048376715253
 20
0.1874961010207983
 30
0.0
 11
15.06930079425323
 21
0.2163131281215041
 31
0.0
  0
LINE
  5
491
330
2
100
AcDbEntity
  8
0
100
AcDbLine
 10
15.06930079425323
 20
0.2163131281215041
 30
0.0
 11
15.04048376715253
 21
0.2329506464753433
 31
0.0
  0
LINE
  5
492
330
2
100
AcDbEntity
  8
0
100
AcDbLine
 10
14.57294293147697
 20
1.005682464657163
 30
0.0
 11
15.04048376715253
 21
1.051132464657162
 31
0.0
  0
LINE
  5
493
330
2
100
AcDbEntity
  8
0
100
AcDbLine
 10
14.57294293147697
 20
1.005682464657163
 30
0.0
 11
14.49421334931474
 21
1.051137010111706
 31
0.0
  0
LINE
  5
494
330
2
100
AcDbEntity
  8
0
100
AcDbLine
 10
15.11921334931474
 20
1.005677919202615
 30
0.0
 11
15.04048376715253
 21
1.051132464657162
 31
0.0
  0
LINE
  5
495
330
2
100
AcDbEntity
  8
0
100
AcDbLine
 10
14.57294293147697
 20
0.6420461010207976
 30
0.0
 11
15.04048376715253
 21
0.6874961010207965
 31
0.0
  0
LINE
  5
496
330
2
100
AcDbEntity
  8
0
100
AcDbLine
 10
14.57294293147697
 20
0.6420461010207976
 30
0.0
 11
14.49421334931474
 21
0.6875006464753426
 31
0.0
  0
LINE
  5
497
330
2
100
AcDbEntity
  8
0
100
AcDbLine
 10
15.11921334931474
 20
0.6420415555662515
 30
0.0
 11
15.04048376715253
 21
0.6874961010207965
 31
0.0
  0
LINE
  5
498
330
2
100
AcDbEntity
  8
0
100
AcDbLine
 10
14.57294293147697
 20
0.2784097373844343
 30
0.0
 11
15.04048376715253
 21
0.3238597373844332
 31
0.0
  0
LINE
  5
499
330
2
100
AcDbEntity
  8
0
100
AcDbLine
 10
14.57294293147697
 20
0.3693188282935243
 30
0.0
 11
15.04048376715253
 21
0.4147688282935249
 31
0.0
  0
LINE
  5
49A
330
2
100
AcDbEntity
  8
0
100
AcDbLine
 10
14.57294293147697
 20
0.460227919202616
 30
0.0
 11
15.04048376715253
 21
0.5056779192026149
 31
0.0
  0
LINE
  5
49B
330
2
100
AcDbEntity
  8
0
100
AcDbLine
 10
14.57294293147697
 20
0.5511370101117059
 30
0.0
 11
15.04048376715253
 21
0.5965870101117066
 31
0.0
  0
LINE
  5
49C
330
2
100
AcDbEntity
  8
0
100
AcDbLine
 10
15.11921334931474
 20
0.3693142828389799
 30
0.0
 11
14.49421334931474
 21
0.3238642828389793
 31
0.0
  0
LINE
  5
49D
330
2
100
AcDbEntity
  8
0
100
AcDbLine
 10
15.11921334931474
 20
0.4602233737480699
 30
0.0
 11
14.49421334931474
 21
0.4147733737480692
 31
0.0
  0
LINE
  5
49E
330
2
100
AcDbEntity
  8
0
100
AcDbLine
 10
15.11921334931474
 20
0.5511324646571616
 30
0.0
 11
14.49421334931474
 21
0.5056824646571609
 31
0.0
  0
LINE
  5
49F
330
2
100
AcDbEntity
  8
0
100
AcDbLine
 10
15.11921334931474
 20
0.6420415555662515
 30
0.0
 11
14.49421334931474
 21
0.5965915555662509
 31
0.0
  0
LINE
  5
4A0
330
2
100
AcDbEntity
  8
0
100
AcDbLine
 10
14.49421334931474
 20
0.5056824646571609
 30
0.0
 11
14.57294293147697
 21
0.5511370101117059
 31
0.0
  0
LINE
  5
4A1
330
2
100
AcDbEntity
  8
0
100
AcDbLine
 10
14.57294293147697
 20
0.2784097373844343
 30
0.0
 11
14.49421334931474
 21
0.3238642828389793
 31
0.0
  0
LINE
  5
4A2
330
2
100
AcDbEntity
  8
0
100
AcDbLine
 10
14.49421334931474
 20
0.3238642828389793
 30
0.0
 11
14.57294293147697
 21
0.3693188282935243
 31
0.0
  0
LINE
  5
4A3
330
2
100
AcDbEntity
  8
0
100
AcDbLine
 10
14.57294293147697
 20
0.3693188282935243
 30
0.0
 11
14.49421334931474
 21
0.4147733737480692
 31
0.0
  0
LINE
  5
4A4
330
2
100
AcDbEntity
  8
0
100
AcDbLine
 10
14.49421334931474
 20
0.414773373748071
 30
0.0
 11
14.57294293147697
 21
0.460227919202616
 31
0.0
  0
LINE
  5
4A5
330
2
100
AcDbEntity
  8
0
100
AcDbLine
 10
14.57294293147697
 20
0.460227919202616
 30
0.0
 11
14.49421334931474
 21
0.5056824646571609
 31
0.0
  0
LINE
  5
4A6
330
2
100
AcDbEntity
  8
0
100
AcDbLine
 10
14.57294293147697
 20
0.5511370101117059
 30
0.0
 11
14.49421334931474
 21
0.5965915555662509
 31
0.0
  0
LINE
  5
4A7
330
2
100
AcDbEntity
  8
0
100
AcDbLine
 10
14.49421334931474
 20
0.5965915555662527
 30
0.0
 11
14.57294293147697
 21
0.6420461010207976
 31
0.0
  0
LINE
  5
4A8
330
2
100
AcDbEntity
  8
0
100
AcDbLine
 10
15.04048376715253
 20
0.5056779192026149
 30
0.0
 11
15.11921334931474
 21
0.5511324646571598
 31
0.0
  0
LINE
  5
4A9
330
2
100
AcDbEntity
  8
0
100
AcDbLine
 10
15.11921334931474
 20
0.2784051919298882
 30
0.0
 11
15.04048376715253
 21
0.3238597373844332
 31
0.0
  0
LINE
  5
4AA
330
2
100
AcDbEntity
  8
0
100
AcDbLine
 10
15.04048376715253
 20
0.3238597373844332
 30
0.0
 11
15.11921334931474
 21
0.3693142828389782
 31
0.0
  0
LINE
  5
4AB
330
2
100
AcDbEntity
  8
0
100
AcDbLine
 10
15.11921334931474
 20
0.3693142828389799
 30
0.0
 11
15.04048376715253
 21
0.4147688282935249
 31
0.0
  0
LINE
  5
4AC
330
2
100
AcDbEntity
  8
0
100
AcDbLine
 10
15.04048376715253
 20
0.4147688282935249
 30
0.0
 11
15.11921334931474
 21
0.4602233737480699
 31
0.0
  0
LINE
  5
4AD
330
2
100
AcDbEntity
  8
0
100
AcDbLine
 10
15.11921334931474
 20
0.4602233737480699
 30
0.0
 11
15.04048376715253
 21
0.5056779192026149
 31
0.0
  0
LINE
  5
4AE
330
2
100
AcDbEntity
  8
0
100
AcDbLine
 10
15.11921334931474
 20
0.5511324646571616
 30
0.0
 11
15.04048376715253
 21
0.5965870101117066
 31
0.0
  0
LINE
  5
4AF
330
2
100
AcDbEntity
  8
0
100
AcDbLine
 10
15.04048376715253
 20
0.5965870101117066
 30
0.0
 11
15.11921334931474
 21
0.6420415555662515
 31
0.0
  0
LINE
  5
4B0
330
2
100
AcDbEntity
  8
0
100
AcDbLine
 10
14.57294293147697
 20
0.7329551919298893
 30
0.0
 11
15.04048376715253
 21
0.7784051919298882
 31
0.0
  0
LINE
  5
4B1
330
2
100
AcDbEntity
  8
0
100
AcDbLine
 10
14.57294293147697
 20
0.8238642828389793
 30
0.0
 11
15.04048376715253
 21
0.8693142828389799
 31
0.0
  0
LINE
  5
4B2
330
2
100
AcDbEntity
  8
0
100
AcDbLine
 10
14.57294293147697
 20
0.9147733737480692
 30
0.0
 11
15.04048376715253
 21
0.9602233737480717
 31
0.0
  0
LINE
  5
4B3
330
2
100
AcDbEntity
  8
0
100
AcDbLine
 10
15.11921334931474
 20
0.7329506464753433
 30
0.0
 11
14.49421334931474
 21
0.6875006464753426
 31
0.0
  0
LINE
  5
4B4
330
2
100
AcDbEntity
  8
0
100
AcDbLine
 10
15.11921334931474
 20
0.823859737384435
 30
0.0
 11
14.49421334931474
 21
0.7784097373844343
 31
0.0
  0
LINE
  5
4B5
330
2
100
AcDbEntity
  8
0
100
AcDbLine
 10
15.11921334931474
 20
0.9147688282935249
 30
0.0
 11
14.49421334931474
 21
0.8693188282935243
 31
0.0
  0
LINE
  5
4B6
330
2
100
AcDbEntity
  8
0
100
AcDbLine
 10
15.11921334931474
 20
1.005677919202615
 30
0.0
 11
14.49421334931474
 21
0.960227919202616
 31
0.0
  0
LINE
  5
4B7
330
2
100
AcDbEntity
  8
0
100
AcDbLine
 10
14.57294293147697
 20
0.9147733737480692
 30
0.0
 11
14.49421334931474
 21
0.960227919202616
 31
0.0
  0
LINE
  5
4B8
330
2
100
AcDbEntity
  8
0
100
AcDbLine
 10
14.49421334931474
 20
0.6875006464753444
 30
0.0
 11
14.57294293147697
 21
0.7329551919298893
 31
0.0
  0
LINE
  5
4B9
330
2
100
AcDbEntity
  8
0
100
AcDbLine
 10
14.57294293147697
 20
0.7329551919298893
 30
0.0
 11
14.49421334931474
 21
0.7784097373844343
 31
0.0
  0
LINE
  5
4BA
330
2
100
AcDbEntity
  8
0
100
AcDbLine
 10
14.49421334931474
 20
0.7784097373844343
 30
0.0
 11
14.57294293147697
 21
0.8238642828389793
 31
0.0
  0
LINE
  5
4BB
330
2
100
AcDbEntity
  8
0
100
AcDbLine
 10
14.57294293147697
 20
0.8238642828389793
 30
0.0
 11
14.49421334931474
 21
0.8693188282935243
 31
0.0
  0
LINE
  5
4BC
330
2
100
AcDbEntity
  8
0
100
AcDbLine
 10
14.49421334931474
 20
0.869318828293526
 30
0.0
 11
14.57294293147697
 21
0.9147733737480692
 31
0.0
  0
LINE
  5
4BD
330
2
100
AcDbEntity
  8
0
100
AcDbLine
 10
14.49421334931474
 20
0.960227919202616
 30
0.0
 11
14.57294293147697
 21
1.005682464657163
 31
0.0
  0
LINE
  5
4BE
330
2
100
AcDbEntity
  8
0
100
AcDbLine
 10
15.11921334931474
 20
0.9147688282935249
 30
0.0
 11
15.04048376715253
 21
0.9602233737480717
 31
0.0
  0
LINE
  5
4BF
330
2
100
AcDbEntity
  8
0
100
AcDbLine
 10
15.04048376715253
 20
0.6874961010207965
 30
0.0
 11
15.11921334931474
 21
0.7329506464753415
 31
0.0
  0
LINE
  5
4C0
330
2
100
AcDbEntity
  8
0
100
AcDbLine
 10
15.11921334931474
 20
0.7329506464753433
 30
0.0
 11
15.04048376715253
 21
0.7784051919298882
 31
0.0
  0
LINE
  5
4C1
330
2
100
AcDbEntity
  8
0
100
AcDbLine
 10
15.04048376715253
 20
0.7784051919298882
 30
0.0
 11
15.11921334931474
 21
0.8238597373844332
 31
0.0
  0
LINE
  5
4C2
330
2
100
AcDbEntity
  8
0
100
AcDbLine
 10
15.11921334931474
 20
0.823859737384435
 30
0.0
 11
15.04048376715253
 21
0.8693142828389799
 31
0.0
  0
LINE
  5
4C3
330
2
100
AcDbEntity
  8
0
100
AcDbLine
 10
15.04048376715253
 20
0.8693142828389799
 30
0.0
 11
15.11921334931474
 21
0.9147688282935249
 31
0.0
  0
LINE
  5
4C4
330
2
100
AcDbEntity
  8
0
100
AcDbLine
 10
15.04048376715253
 20
0.9602233737480717
 30
0.0
 11
15.11921334931474
 21
1.005677919202615
 31
0.0
  0
LINE
  5
4C5
330
2
100
AcDbEntity
  8
0
100
AcDbLine
 10
14.49421334931474
 20
1.414773373748073
 30
0.0
 11
14.57294293147697
 21
1.460227919202618
 31
0.0
  0
LINE
  5
4C6
330
2
100
AcDbEntity
  8
0
100
AcDbLine
 10
15.11921334931474
 20
1.460223373748072
 30
0.0
 11
14.49421334931474
 21
1.414773373748071
 31
0.0
  0
LINE
  5
4C7
330
2
100
AcDbEntity
  8
0
100
AcDbLine
 10
15.04048376715253
 20
1.414768828293525
 30
0.0
 11
15.11921334931474
 21
1.460223373748072
 31
0.0
  0
LINE
  5
4C8
330
2
100
AcDbEntity
  8
0
100
AcDbLine
 10
14.57294293147697
 20
1.187500646475346
 30
0.0
 11
15.04048376715253
 21
1.232950646475345
 31
0.0
  0
LINE
  5
4C9
330
2
100
AcDbEntity
  8
0
100
AcDbLine
 10
14.57294293147697
 20
1.278409737384436
 30
0.0
 11
15.04048376715253
 21
1.323859737384435
 31
0.0
  0
LINE
  5
4CA
330
2
100
AcDbEntity
  8
0
100
AcDbLine
 10
14.57294293147697
 20
1.369318828293526
 30
0.0
 11
15.04048376715253
 21
1.414768828293525
 31
0.0
  0
LINE
  5
4CB
330
2
100
AcDbEntity
  8
0
100
AcDbLine
 10
14.57294293147697
 20
1.096591555566253
 30
0.0
 11
15.04048376715253
 21
1.142041555566252
 31
0.0
  0
LINE
  5
4CC
330
2
100
AcDbEntity
  8
0
100
AcDbLine
 10
15.11921334931474
 20
1.27840519192989
 30
0.0
 11
14.49421334931474
 21
1.232955191929889
 31
0.0
  0
LINE
  5
4CD
330
2
100
AcDbEntity
  8
0
100
AcDbLine
 10
15.11921334931474
 20
1.369314282838982
 30
0.0
 11
14.49421334931474
 21
1.323864282838979
 31
0.0
  0
LINE
  5
4CE
330
2
100
AcDbEntity
  8
0
100
AcDbLine
 10
15.11921334931474
 20
1.096587010111708
 30
0.0
 11
14.49421334931474
 21
1.051137010111706
 31
0.0
  0
LINE
  5
4CF
330
2
100
AcDbEntity
  8
0
100
AcDbLine
 10
15.11921334931474
 20
1.187496101020798
 30
0.0
 11
14.49421334931474
 21
1.142046101020796
 31
0.0
  0
LINE
  5
4D0
330
2
100
AcDbEntity
  8
0
100
AcDbLine
 10
14.49421334931474
 20
1.323864282838983
 30
0.0
 11
14.57294293147697
 21
1.369318828293526
 31
0.0
  0
LINE
  5
4D1
330
2
100
AcDbEntity
  8
0
100
AcDbLine
 10
14.57294293147697
 20
1.096591555566253
 30
0.0
 11
14.49421334931474
 21
1.142046101020796
 31
0.0
  0
LINE
  5
4D2
330
2
100
AcDbEntity
  8
0
100
AcDbLine
 10
14.49421334931474
 20
1.051137010111706
 30
0.0
 11
14.57294293147697
 21
1.096591555566253
 31
0.0
  0
LINE
  5
4D3
330
2
100
AcDbEntity
  8
0
100
AcDbLine
 10
14.49421334931474
 20
1.142046101020799
 30
0.0
 11
14.57294293147697
 21
1.187500646475346
 31
0.0
  0
LINE
  5
4D4
330
2
100
AcDbEntity
  8
0
100
AcDbLine
 10
14.57294293147697
 20
1.187500646475346
 30
0.0
 11
14.49421334931474
 21
1.232955191929889
 31
0.0
  0
LINE
  5
4D5
330
2
100
AcDbEntity
  8
0
100
AcDbLine
 10
14.57294293147697
 20
1.278409737384436
 30
0.0
 11
14.49421334931474
 21
1.323864282838981
 31
0.0
  0
LINE
  5
4D6
330
2
100
AcDbEntity
  8
0
100
AcDbLine
 10
14.49421334931474
 20
1.232955191929891
 30
0.0
 11
14.57294293147697
 21
1.278409737384436
 31
0.0
  0
LINE
  5
4D7
330
2
100
AcDbEntity
  8
0
100
AcDbLine
 10
14.57294293147697
 20
1.369318828293526
 30
0.0
 11
14.49421334931474
 21
1.414773373748073
 31
0.0
  0
LINE
  5
4D8
330
2
100
AcDbEntity
  8
0
100
AcDbLine
 10
15.04048376715253
 20
1.323859737384435
 30
0.0
 11
15.11921334931474
 21
1.36931428283898
 31
0.0
  0
LINE
  5
4D9
330
2
100
AcDbEntity
  8
0
100
AcDbLine
 10
15.11921334931474
 20
1.096587010111708
 30
0.0
 11
15.04048376715253
 21
1.142041555566252
 31
0.0
  0
LINE
  5
4DA
330
2
100
AcDbEntity
  8
0
100
AcDbLine
 10
15.04048376715253
 20
1.051132464657162
 30
0.0
 11
15.11921334931474
 21
1.096587010111705
 31
0.0
  0
LINE
  5
4DB
330
2
100
AcDbEntity
  8
0
100
AcDbLine
 10
15.11921334931474
 20
1.187496101020798
 30
0.0
 11
15.04048376715253
 21
1.232950646475345
 31
0.0
  0
LINE
  5
4DC
330
2
100
AcDbEntity
  8
0
100
AcDbLine
 10
15.04048376715253
 20
1.232950646475345
 30
0.0
 11
15.11921334931474
 21
1.278405191929888
 31
0.0
  0
LINE
  5
4DD
330
2
100
AcDbEntity
  8
0
100
AcDbLine
 10
15.11921334931474
 20
1.27840519192989
 30
0.0
 11
15.04048376715253
 21
1.323859737384435
 31
0.0
  0
LINE
  5
4DE
330
2
100
AcDbEntity
  8
0
100
AcDbLine
 10
15.04048376715253
 20
1.142041555566252
 30
0.0
 11
15.11921334931474
 21
1.187496101020798
 31
0.0
  0
LINE
  5
4DF
330
2
100
AcDbEntity
  8
0
100
AcDbLine
 10
15.11921334931474
 20
1.369314282838982
 30
0.0
 11
15.04048376715253
 21
1.414768828293525
 31
0.0
  0
LINE
  5
4E0
330
2
100
AcDbEntity
  8
0
100
AcDbLine
 10
14.57294293147697
 20
1.460227919202618
 30
0.0
 11
15.04048376715253
 21
1.505677919202617
 31
0.0
  0
LINE
  5
4E1
330
2
100
AcDbEntity
  8
0
100
AcDbLine
 10
14.57294293147697
 20
1.55113701011171
 30
0.0
 11
15.04048376715253
 21
1.596587010111708
 31
0.0
  0
LINE
  5
4E2
330
2
100
AcDbEntity
  8
0
100
AcDbLine
 10
14.57294293147697
 20
1.642046101020799
 30
0.0
 11
15.04048376715253
 21
1.687496101020798
 31
0.0
  0
LINE
  5
4E3
330
2
100
AcDbEntity
  8
0
100
AcDbLine
 10
14.57294293147697
 20
1.732955191929889
 30
0.0
 11
15.04048376715253
 21
1.778405191929888
 31
0.0
  0
LINE
  5
4E4
330
2
100
AcDbEntity
  8
0
100
AcDbLine
 10
15.11921334931474
 20
1.551132464657162
 30
0.0
 11
14.49421334931474
 21
1.505682464657163
 31
0.0
  0
LINE
  5
4E5
330
2
100
AcDbEntity
  8
0
100
AcDbLine
 10
15.11921334931474
 20
1.642041555566252
 30
0.0
 11
14.49421334931474
 21
1.596591555566253
 31
0.0
  0
LINE
  5
4E6
330
2
100
AcDbEntity
  8
0
100
AcDbLine
 10
15.11921334931474
 20
1.732950646475345
 30
0.0
 11
14.49421334931474
 21
1.687500646475343
 31
0.0
  0
LINE
  5
4E7
330
2
100
AcDbEntity
  8
0
100
AcDbLine
 10
14.57294293147697
 20
1.732955191929889
 30
0.0
 11
14.49421334931474
 21
1.778409737384436
 31
0.0
  0
LINE
  5
4E8
330
2
100
AcDbEntity
  8
0
100
AcDbLine
 10
14.49421334931474
 20
1.505682464657163
 30
0.0
 11
14.57294293147697
 21
1.55113701011171
 31
0.0
  0
LINE
  5
4E9
330
2
100
AcDbEntity
  8
0
100
AcDbLine
 10
14.57294293147697
 20
1.460227919202618
 30
0.0
 11
14.49421334931474
 21
1.505682464657163
 31
0.0
  0
LINE
  5
4EA
330
2
100
AcDbEntity
  8
0
100
AcDbLine
 10
14.57294293147697
 20
1.55113701011171
 30
0.0
 11
14.49421334931474
 21
1.596591555566253
 31
0.0
  0
LINE
  5
4EB
330
2
100
AcDbEntity
  8
0
100
AcDbLine
 10
14.57294293147697
 20
1.642046101020799
 30
0.0
 11
14.49421334931474
 21
1.687500646475343
 31
0.0
  0
LINE
  5
4EC
330
2
100
AcDbEntity
  8
0
100
AcDbLine
 10
14.49421334931474
 20
1.596591555566253
 30
0.0
 11
14.57294293147697
 21
1.642046101020799
 31
0.0
  0
LINE
  5
4ED
330
2
100
AcDbEntity
  8
0
100
AcDbLine
 10
14.49421334931474
 20
1.687500646475346
 30
0.0
 11
14.57294293147697
 21
1.732955191929889
 31
0.0
  0
LINE
  5
4EE
330
2
100
AcDbEntity
  8
0
100
AcDbLine
 10
15.11921334931474
 20
1.732950646475345
 30
0.0
 11
15.04048376715253
 21
1.778405191929888
 31
0.0
  0
LINE
  5
4EF
330
2
100
AcDbEntity
  8
0
100
AcDbLine
 10
15.04048376715253
 20
1.505677919202617
 30
0.0
 11
15.11921334931474
 21
1.551132464657162
 31
0.0
  0
LINE
  5
4F0
330
2
100
AcDbEntity
  8
0
100
AcDbLine
 10
15.11921334931474
 20
1.460223373748072
 30
0.0
 11
15.04048376715253
 21
1.505677919202617
 31
0.0
  0
LINE
  5
4F1
330
2
100
AcDbEntity
  8
0
100
AcDbLine
 10
15.11921334931474
 20
1.551132464657162
 30
0.0
 11
15.04048376715253
 21
1.596587010111708
 31
0.0
  0
LINE
  5
4F2
330
2
100
AcDbEntity
  8
0
100
AcDbLine
 10
15.04048376715253
 20
1.596587010111708
 30
0.0
 11
15.11921334931474
 21
1.642041555566252
 31
0.0
  0
LINE
  5
4F3
330
2
100
AcDbEntity
  8
0
100
AcDbLine
 10
15.11921334931474
 20
1.642041555566252
 30
0.0
 11
15.04048376715253
 21
1.687496101020798
 31
0.0
  0
LINE
  5
4F4
330
2
100
AcDbEntity
  8
0
100
AcDbLine
 10
15.04048376715253
 20
1.687496101020798
 30
0.0
 11
15.11921334931474
 21
1.732950646475342
 31
0.0
  0
LINE
  5
4F5
330
2
100
AcDbEntity
  8
0
100
AcDbLine
 10
14.57294293147697
 20
3.369318828293526
 30
0.0
 11
15.04048376715253
 21
3.414768828293525
 31
0.0
  0
LINE
  5
4F6
330
2
100
AcDbEntity
  8
0
100
AcDbLine
 10
14.57294293147697
 20
3.369318828293526
 30
0.0
 11
14.49421334931474
 21
3.414773373748071
 31
0.0
  0
LINE
  5
4F7
330
2
100
AcDbEntity
  8
0
100
AcDbLine
 10
15.11921334931474
 20
3.36931428283898
 30
0.0
 11
15.04048376715253
 21
3.414768828293525
 31
0.0
  0
LINE
  5
4F8
330
2
100
AcDbEntity
  8
0
100
AcDbLine
 10
14.57294293147697
 20
2.551137010111708
 30
0.0
 11
15.04048376715253
 21
2.596587010111707
 31
0.0
  0
LINE
  5
4F9
330
2
100
AcDbEntity
  8
0
100
AcDbLine
 10
14.57294293147697
 20
2.551137010111708
 30
0.0
 11
14.49421334931474
 21
2.596591555566253
 31
0.0
  0
LINE
  5
4FA
330
2
100
AcDbEntity
  8
0
100
AcDbLine
 10
15.11921334931474
 20
2.551132464657162
 30
0.0
 11
15.04048376715253
 21
2.596587010111707
 31
0.0
  0
LINE
  5
4FB
330
2
100
AcDbEntity
  8
0
100
AcDbLine
 10
14.57294293147697
 20
2.187500646475344
 30
0.0
 11
15.04048376715253
 21
2.232950646475343
 31
0.0
  0
LINE
  5
4FC
330
2
100
AcDbEntity
  8
0
100
AcDbLine
 10
14.57294293147697
 20
2.187500646475344
 30
0.0
 11
14.49421334931474
 21
2.232955191929889
 31
0.0
  0
LINE
  5
4FD
330
2
100
AcDbEntity
  8
0
100
AcDbLine
 10
15.11921334931474
 20
2.187496101020798
 30
0.0
 11
15.04048376715253
 21
2.232950646475343
 31
0.0
  0
LINE
  5
4FE
330
2
100
AcDbEntity
  8
0
100
AcDbLine
 10
14.57294293147697
 20
1.823864282838981
 30
0.0
 11
15.04048376715253
 21
1.86931428283898
 31
0.0
  0
LINE
  5
4FF
330
2
100
AcDbEntity
  8
0
100
AcDbLine
 10
14.57294293147697
 20
1.914773373748073
 30
0.0
 11
15.04048376715253
 21
1.960223373748072
 31
0.0
  0
LINE
  5
500
330
2
100
AcDbEntity
  8
0
100
AcDbLine
 10
14.57294293147697
 20
2.005682464657163
 30
0.0
 11
15.04048376715253
 21
2.051132464657162
 31
0.0
  0
LINE
  5
501
330
2
100
AcDbEntity
  8
0
100
AcDbLine
 10
14.57294293147697
 20
2.096591555566253
 30
0.0
 11
15.04048376715253
 21
2.142041555566252
 31
0.0
  0
LINE
  5
502
330
2
100
AcDbEntity
  8
0
100
AcDbLine
 10
15.11921334931474
 20
2.187496101020798
 30
0.0
 11
14.49421334931474
 21
2.142046101020798
 31
0.0
  0
LINE
  5
503
330
2
100
AcDbEntity
  8
0
100
AcDbLine
 10
15.11921334931474
 20
1.914768828293525
 30
0.0
 11
14.49421334931474
 21
1.869318828293526
 31
0.0
  0
LINE
  5
504
330
2
100
AcDbEntity
  8
0
100
AcDbLine
 10
15.11921334931474
 20
2.005677919202617
 30
0.0
 11
14.49421334931474
 21
1.960227919202616
 31
0.0
  0
LINE
  5
505
330
2
100
AcDbEntity
  8
0
100
AcDbLine
 10
15.11921334931474
 20
2.096587010111708
 30
0.0
 11
14.49421334931474
 21
2.051137010111706
 31
0.0
  0
LINE
  5
506
330
2
100
AcDbEntity
  8
0
100
AcDbLine
 10
14.49421334931474
 20
2.142046101020799
 30
0.0
 11
14.57294293147697
 21
2.187500646475344
 31
0.0
  0
LINE
  5
507
330
2
100
AcDbEntity
  8
0
100
AcDbLine
 10
14.57294293147697
 20
1.914773373748073
 30
0.0
 11
14.49421334931474
 21
1.960227919202616
 31
0.0
  0
LINE
  5
508
330
2
100
AcDbEntity
  8
0
100
AcDbLine
 10
14.57294293147697
 20
1.823864282838981
 30
0.0
 11
14.49421334931474
 21
1.869318828293526
 31
0.0
  0
LINE
  5
509
330
2
100
AcDbEntity
  8
0
100
AcDbLine
 10
14.49421334931474
 20
1.869318828293526
 30
0.0
 11
14.57294293147697
 21
1.914773373748073
 31
0.0
  0
LINE
  5
50A
330
2
100
AcDbEntity
  8
0
100
AcDbLine
 10
14.57294293147697
 20
2.005682464657163
 30
0.0
 11
14.49421334931474
 21
2.051137010111708
 31
0.0
  0
LINE
  5
50B
330
2
100
AcDbEntity
  8
0
100
AcDbLine
 10
14.49421334931474
 20
1.960227919202618
 30
0.0
 11
14.57294293147697
 21
2.005682464657163
 31
0.0
  0
LINE
  5
50C
330
2
100
AcDbEntity
  8
0
100
AcDbLine
 10
14.57294293147697
 20
2.096591555566253
 30
0.0
 11
14.49421334931474
 21
2.142046101020799
 31
0.0
  0
LINE
  5
50D
330
2
100
AcDbEntity
  8
0
100
AcDbLine
 10
14.49421334931474
 20
2.05113701011171
 30
0.0
 11
14.57294293147697
 21
2.096591555566253
 31
0.0
  0
LINE
  5
50E
330
2
100
AcDbEntity
  8
0
100
AcDbLine
 10
15.04048376715253
 20
2.142041555566252
 30
0.0
 11
15.11921334931474
 21
2.187496101020798
 31
0.0
  0
LINE
  5
50F
330
2
100
AcDbEntity
  8
0
100
AcDbLine
 10
15.11921334931474
 20
1.914768828293525
 30
0.0
 11
15.04048376715253
 21
1.960223373748072
 31
0.0
  0
LINE
  5
510
330
2
100
AcDbEntity
  8
0
100
AcDbLine
 10
15.11921334931474
 20
1.823859737384435
 30
0.0
 11
15.04048376715253
 21
1.86931428283898
 31
0.0
  0
LINE
  5
511
330
2
100
AcDbEntity
  8
0
100
AcDbLine
 10
15.04048376715253
 20
1.86931428283898
 30
0.0
 11
15.11921334931474
 21
1.914768828293525
 31
0.0
  0
LINE
  5
512
330
2
100
AcDbEntity
  8
0
100
AcDbLine
 10
15.04048376715253
 20
1.960223373748072
 30
0.0
 11
15.11921334931474
 21
2.005677919202615
 31
0.0
  0
LINE
  5
513
330
2
100
AcDbEntity
  8
0
100
AcDbLine
 10
15.11921334931474
 20
2.005677919202617
 30
0.0
 11
15.04048376715253
 21
2.051132464657162
 31
0.0
  0
LINE
  5
514
330
2
100
AcDbEntity
  8
0
100
AcDbLine
 10
15.04048376715253
 20
2.051132464657162
 30
0.0
 11
15.11921334931474
 21
2.096587010111707
 31
0.0
  0
LINE
  5
515
330
2
100
AcDbEntity
  8
0
100
AcDbLine
 10
15.11921334931474
 20
2.096587010111708
 30
0.0
 11
15.04048376715253
 21
2.142041555566252
 31
0.0
  0
LINE
  5
516
330
2
100
AcDbEntity
  8
0
100
AcDbLine
 10
14.57294293147697
 20
2.278409737384436
 30
0.0
 11
15.04048376715253
 21
2.323859737384435
 31
0.0
  0
LINE
  5
517
330
2
100
AcDbEntity
  8
0
100
AcDbLine
 10
14.57294293147697
 20
2.369318828293526
 30
0.0
 11
15.04048376715253
 21
2.414768828293525
 31
0.0
  0
LINE
  5
518
330
2
100
AcDbEntity
  8
0
100
AcDbLine
 10
14.57294293147697
 20
2.460227919202616
 30
0.0
 11
15.04048376715253
 21
2.505677919202615
 31
0.0
  0
LINE
  5
519
330
2
100
AcDbEntity
  8
0
100
AcDbLine
 10
15.11921334931474
 20
2.278405191929888
 30
0.0
 11
14.49421334931474
 21
2.232955191929889
 31
0.0
  0
LINE
  5
51A
330
2
100
AcDbEntity
  8
0
100
AcDbLine
 10
15.11921334931474
 20
2.36931428283898
 30
0.0
 11
14.49421334931474
 21
2.323864282838979
 31
0.0
  0
LINE
  5
51B
330
2
100
AcDbEntity
  8
0
100
AcDbLine
 10
15.11921334931474
 20
2.460223373748072
 30
0.0
 11
14.49421334931474
 21
2.414773373748069
 31
0.0
  0
LINE
  5
51C
330
2
100
AcDbEntity
  8
0
100
AcDbLine
 10
15.11921334931474
 20
2.551132464657162
 30
0.0
 11
14.49421334931474
 21
2.505682464657161
 31
0.0
  0
LINE
  5
51D
330
2
100
AcDbEntity
  8
0
100
AcDbLine
 10
14.49421334931474
 20
2.323864282838981
 30
0.0
 11
14.57294293147697
 21
2.369318828293526
 31
0.0
  0
LINE
  5
51E
330
2
100
AcDbEntity
  8
0
100
AcDbLine
 10
14.57294293147697
 20
2.278409737384436
 30
0.0
 11
14.49421334931474
 21
2.323864282838979
 31
0.0
  0
LINE
  5
51F
330
2
100
AcDbEntity
  8
0
100
AcDbLine
 10
14.49421334931474
 20
2.232955191929889
 30
0.0
 11
14.57294293147697
 21
2.278409737384436
 31
0.0
  0
LINE
  5
520
330
2
100
AcDbEntity
  8
0
100
AcDbLine
 10
14.57294293147697
 20
2.369318828293526
 30
0.0
 11
14.49421334931474
 21
2.414773373748071
 31
0.0
  0
LINE
  5
521
330
2
100
AcDbEntity
  8
0
100
AcDbLine
 10
14.57294293147697
 20
2.460227919202616
 30
0.0
 11
14.49421334931474
 21
2.505682464657163
 31
0.0
  0
LINE
  5
522
330
2
100
AcDbEntity
  8
0
100
AcDbLine
 10
14.49421334931474
 20
2.414773373748073
 30
0.0
 11
14.57294293147697
 21
2.460227919202616
 31
0.0
  0
LINE
  5
523
330
2
100
AcDbEntity
  8
0
100
AcDbLine
 10
14.49421334931474
 20
2.505682464657163
 30
0.0
 11
14.57294293147697
 21
2.551137010111708
 31
0.0
  0
LINE
  5
524
330
2
100
AcDbEntity
  8
0
100
AcDbLine
 10
15.04048376715253
 20
2.323859737384435
 30
0.0
 11
15.11921334931474
 21
2.369314282838978
 31
0.0
  0
LINE
  5
525
330
2
100
AcDbEntity
  8
0
100
AcDbLine
 10
15.04048376715253
 20
2.232950646475343
 30
0.0
 11
15.11921334931474
 21
2.278405191929888
 31
0.0
  0
LINE
  5
526
330
2
100
AcDbEntity
  8
0
100
AcDbLine
 10
15.11921334931474
 20
2.278405191929888
 30
0.0
 11
15.04048376715253
 21
2.323859737384435
 31
0.0
  0
LINE
  5
527
330
2
100
AcDbEntity
  8
0
100
AcDbLine
 10
15.11921334931474
 20
2.36931428283898
 30
0.0
 11
15.04048376715253
 21
2.414768828293525
 31
0.0
  0
LINE
  5
528
330
2
100
AcDbEntity
  8
0
100
AcDbLine
 10
15.04048376715253
 20
2.414768828293525
 30
0.0
 11
15.11921334931474
 21
2.46022337374807
 31
0.0
  0
LINE
  5
529
330
2
100
AcDbEntity
  8
0
100
AcDbLine
 10
15.11921334931474
 20
2.460223373748072
 30
0.0
 11
15.04048376715253
 21
2.505677919202615
 31
0.0
  0
LINE
  5
52A
330
2
100
AcDbEntity
  8
0
100
AcDbLine
 10
15.04048376715253
 20
2.505677919202615
 30
0.0
 11
15.11921334931474
 21
2.551132464657162
 31
0.0
  0
LINE
  5
52B
330
2
100
AcDbEntity
  8
0
100
AcDbLine
 10
14.49421334931474
 20
2.960227919202618
 30
0.0
 11
14.57294293147697
 21
3.005682464657161
 31
0.0
  0
LINE
  5
52C
330
2
100
AcDbEntity
  8
0
100
AcDbLine
 10
15.11921334931474
 20
3.005677919202617
 30
0.0
 11
14.49421334931474
 21
2.960227919202614
 31
0.0
  0
LINE
  5
52D
330
2
100
AcDbEntity
  8
0
100
AcDbLine
 10
15.04048376715253
 20
2.96022337374807
 30
0.0
 11
15.11921334931474
 21
3.005677919202615
 31
0.0
  0
LINE
  5
52E
330
2
100
AcDbEntity
  8
0
100
AcDbLine
 10
14.57294293147697
 20
2.642046101020799
 30
0.0
 11
15.04048376715253
 21
2.687496101020798
 31
0.0
  0
LINE
  5
52F
330
2
100
AcDbEntity
  8
0
100
AcDbLine
 10
14.57294293147697
 20
2.732955191929889
 30
0.0
 11
15.04048376715253
 21
2.778405191929888
 31
0.0
  0
LINE
  5
530
330
2
100
AcDbEntity
  8
0
100
AcDbLine
 10
14.57294293147697
 20
2.823864282838979
 30
0.0
 11
15.04048376715253
 21
2.869314282838978
 31
0.0
  0
LINE
  5
531
330
2
100
AcDbEntity
  8
0
100
AcDbLine
 10
14.57294293147697
 20
2.914773373748071
 30
0.0
 11
15.04048376715253
 21
2.96022337374807
 31
0.0
  0
LINE
  5
532
330
2
100
AcDbEntity
  8
0
100
AcDbLine
 10
15.11921334931474
 20
2.642041555566252
 30
0.0
 11
14.49421334931474
 21
2.596591555566253
 31
0.0
  0
LINE
  5
533
330
2
100
AcDbEntity
  8
0
100
AcDbLine
 10
15.11921334931474
 20
2.732950646475343
 30
0.0
 11
14.49421334931474
 21
2.687500646475343
 31
0.0
  0
LINE
  5
534
330
2
100
AcDbEntity
  8
0
100
AcDbLine
 10
15.11921334931474
 20
2.823859737384435
 30
0.0
 11
14.49421334931474
 21
2.778409737384433
 31
0.0
  0
LINE
  5
535
330
2
100
AcDbEntity
  8
0
100
AcDbLine
 10
15.11921334931474
 20
2.914768828293525
 30
0.0
 11
14.49421334931474
 21
2.869318828293524
 31
0.0
  0
LINE
  5
536
330
2
100
AcDbEntity
  8
0
100
AcDbLine
 10
14.57294293147697
 20
2.732955191929889
 30
0.0
 11
14.49421334931474
 21
2.778409737384434
 31
0.0
  0
LINE
  5
537
330
2
100
AcDbEntity
  8
0
100
AcDbLine
 10
14.57294293147697
 20
2.642046101020799
 30
0.0
 11
14.49421334931474
 21
2.687500646475343
 31
0.0
  0
LINE
  5
538
330
2
100
AcDbEntity
  8
0
100
AcDbLine
 10
14.49421334931474
 20
2.596591555566253
 30
0.0
 11
14.57294293147697
 21
2.642046101020799
 31
0.0
  0
LINE
  5
539
330
2
100
AcDbEntity
  8
0
100
AcDbLine
 10
14.49421334931474
 20
2.687500646475344
 30
0.0
 11
14.57294293147697
 21
2.732955191929889
 31
0.0
  0
LINE
  5
53A
330
2
100
AcDbEntity
  8
0
100
AcDbLine
 10
14.57294293147697
 20
2.823864282838979
 30
0.0
 11
14.49421334931474
 21
2.869318828293526
 31
0.0
  0
LINE
  5
53B
330
2
100
AcDbEntity
  8
0
100
AcDbLine
 10
14.49421334931474
 20
2.778409737384436
 30
0.0
 11
14.57294293147697
 21
2.823864282838979
 31
0.0
  0
LINE
  5
53C
330
2
100
AcDbEntity
  8
0
100
AcDbLine
 10
14.57294293147697
 20
2.914773373748071
 30
0.0
 11
14.49421334931474
 21
2.960227919202616
 31
0.0
  0
LINE
  5
53D
330
2
100
AcDbEntity
  8
0
100
AcDbLine
 10
14.49421334931474
 20
2.869318828293526
 30
0.0
 11
14.57294293147697
 21
2.914773373748071
 31
0.0
  0
LINE
  5
53E
330
2
100
AcDbEntity
  8
0
100
AcDbLine
 10
15.11921334931474
 20
2.732950646475343
 30
0.0
 11
15.04048376715253
 21
2.778405191929888
 31
0.0
  0
LINE
  5
53F
330
2
100
AcDbEntity
  8
0
100
AcDbLine
 10
15.04048376715253
 20
2.596587010111707
 30
0.0
 11
15.11921334931474
 21
2.642041555566252
 31
0.0
  0
LINE
  5
540
330
2
100
AcDbEntity
  8
0
100
AcDbLine
 10
15.11921334931474
 20
2.642041555566252
 30
0.0
 11
15.04048376715253
 21
2.687496101020798
 31
0.0
  0
LINE
  5
541
330
2
100
AcDbEntity
  8
0
100
AcDbLine
 10
15.04048376715253
 20
2.687496101020798
 30
0.0
 11
15.11921334931474
 21
2.732950646475342
 31
0.0
  0
LINE
  5
542
330
2
100
AcDbEntity
  8
0
100
AcDbLine
 10
15.04048376715253
 20
2.778405191929888
 30
0.0
 11
15.11921334931474
 21
2.823859737384433
 31
0.0
  0
LINE
  5
543
330
2
100
AcDbEntity
  8
0
100
AcDbLine
 10
15.11921334931474
 20
2.823859737384435
 30
0.0
 11
15.04048376715253
 21
2.869314282838978
 31
0.0
  0
LINE
  5
544
330
2
100
AcDbEntity
  8
0
100
AcDbLine
 10
15.04048376715253
 20
2.869314282838978
 30
0.0
 11
15.11921334931474
 21
2.914768828293525
 31
0.0
  0
LINE
  5
545
330
2
100
AcDbEntity
  8
0
100
AcDbLine
 10
15.11921334931474
 20
2.914768828293525
 30
0.0
 11
15.04048376715253
 21
2.96022337374807
 31
0.0
  0
LINE
  5
546
330
2
100
AcDbEntity
  8
0
100
AcDbLine
 10
14.57294293147697
 20
3.005682464657161
 30
0.0
 11
15.04048376715253
 21
3.05113246465716
 31
0.0
  0
LINE
  5
547
330
2
100
AcDbEntity
  8
0
100
AcDbLine
 10
14.57294293147697
 20
3.096591555566253
 30
0.0
 11
15.04048376715253
 21
3.142041555566252
 31
0.0
  0
LINE
  5
548
330
2
100
AcDbEntity
  8
0
100
AcDbLine
 10
14.57294293147697
 20
3.187500646475344
 30
0.0
 11
15.04048376715253
 21
3.232950646475343
 31
0.0
  0
LINE
  5
549
330
2
100
AcDbEntity
  8
0
100
AcDbLine
 10
14.57294293147697
 20
3.278409737384434
 30
0.0
 11
15.04048376715253
 21
3.323859737384433
 31
0.0
  0
LINE
  5
54A
330
2
100
AcDbEntity
  8
0
100
AcDbLine
 10
15.11921334931474
 20
3.096587010111707
 30
0.0
 11
14.49421334931474
 21
3.051137010111706
 31
0.0
  0
LINE
  5
54B
330
2
100
AcDbEntity
  8
0
100
AcDbLine
 10
15.11921334931474
 20
3.187496101020797
 30
0.0
 11
14.49421334931474
 21
3.142046101020798
 31
0.0
  0
LINE
  5
54C
330
2
100
AcDbEntity
  8
0
100
AcDbLine
 10
15.11921334931474
 20
3.27840519192989
 30
0.0
 11
14.49421334931474
 21
3.232955191929888
 31
0.0
  0
LINE
  5
54D
330
2
100
AcDbEntity
  8
0
100
AcDbLine
 10
15.11921334931474
 20
3.36931428283898
 30
0.0
 11
14.49421334931474
 21
3.323864282838979
 31
0.0
  0
LINE
  5
54E
330
2
100
AcDbEntity
  8
0
100
AcDbLine
 10
14.49421334931474
 20
3.142046101020798
 30
0.0
 11
14.57294293147697
 21
3.187500646475344
 31
0.0
  0
LINE
  5
54F
330
2
100
AcDbEntity
  8
0
100
AcDbLine
 10
14.57294293147697
 20
3.005682464657161
 30
0.0
 11
14.49421334931474
 21
3.051137010111708
 31
0.0
  0
LINE
  5
550
330
2
100
AcDbEntity
  8
0
100
AcDbLine
 10
14.57294293147697
 20
3.096591555566253
 30
0.0
 11
14.49421334931474
 21
3.142046101020798
 31
0.0
  0
LINE
  5
551
330
2
100
AcDbEntity
  8
0
100
AcDbLine
 10
14.49421334931474
 20
3.051137010111708
 30
0.0
 11
14.57294293147697
 21
3.096591555566253
 31
0.0
  0
LINE
  5
552
330
2
100
AcDbEntity
  8
0
100
AcDbLine
 10
14.57294293147697
 20
3.187500646475344
 30
0.0
 11
14.49421334931474
 21
3.232955191929888
 31
0.0
  0
LINE
  5
553
330
2
100
AcDbEntity
  8
0
100
AcDbLine
 10
14.57294293147697
 20
3.278409737384434
 30
0.0
 11
14.49421334931474
 21
3.323864282838981
 31
0.0
  0
LINE
  5
554
330
2
100
AcDbEntity
  8
0
100
AcDbLine
 10
14.49421334931474
 20
3.232955191929891
 30
0.0
 11
14.57294293147697
 21
3.278409737384434
 31
0.0
  0
LINE
  5
555
330
2
100
AcDbEntity
  8
0
100
AcDbLine
 10
14.49421334931474
 20
3.323864282838981
 30
0.0
 11
14.57294293147697
 21
3.369318828293526
 31
0.0
  0
LINE
  5
556
330
2
100
AcDbEntity
  8
0
100
AcDbLine
 10
15.04048376715253
 20
3.142041555566252
 30
0.0
 11
15.11921334931474
 21
3.187496101020797
 31
0.0
  0
LINE
  5
557
330
2
100
AcDbEntity
  8
0
100
AcDbLine
 10
15.11921334931474
 20
3.005677919202617
 30
0.0
 11
15.04048376715253
 21
3.05113246465716
 31
0.0
  0
LINE
  5
558
330
2
100
AcDbEntity
  8
0
100
AcDbLine
 10
15.04048376715253
 20
3.05113246465716
 30
0.0
 11
15.11921334931474
 21
3.096587010111707
 31
0.0
  0
LINE
  5
559
330
2
100
AcDbEntity
  8
0
100
AcDbLine
 10
15.11921334931474
 20
3.096587010111707
 30
0.0
 11
15.04048376715253
 21
3.142041555566252
 31
0.0
  0
LINE
  5
55A
330
2
100
AcDbEntity
  8
0
100
AcDbLine
 10
15.11921334931474
 20
3.187496101020797
 30
0.0
 11
15.04048376715253
 21
3.232950646475343
 31
0.0
  0
LINE
  5
55B
330
2
100
AcDbEntity
  8
0
100
AcDbLine
 10
15.04048376715253
 20
3.232950646475343
 30
0.0
 11
15.11921334931474
 21
3.278405191929886
 31
0.0
  0
LINE
  5
55C
330
2
100
AcDbEntity
  8
0
100
AcDbLine
 10
15.11921334931474
 20
3.27840519192989
 30
0.0
 11
15.04048376715253
 21
3.323859737384433
 31
0.0
  0
LINE
  5
55D
330
2
100
AcDbEntity
  8
0
100
AcDbLine
 10
15.04048376715253
 20
3.323859737384433
 30
0.0
 11
15.11921334931474
 21
3.36931428283898
 31
0.0
  0
LINE
  5
55E
330
2
100
AcDbEntity
  8
0
100
AcDbLine
 10
14.4564186508437
 20
4.906246101020798
 30
0.0
 11
15.15683373417151
 21
4.906246101020798
 31
0.0
  0
LINE
  5
55F
330
2
100
AcDbEntity
  8
0
100
AcDbLine
 10
15.17133834931473
 20
4.906246101020798
 30
0.0
 11
15.11921334931472
 21
4.749996101020798
 31
0.0
  0
LINE
  5
560
330
2
100
AcDbEntity
  8
0
100
AcDbLine
 10
14.49421334931474
 20
4.142046101020798
 30
0.0
 11
14.57294293147697
 21
4.187500646475343
 31
0.0
  0
LINE
  5
561
330
2
100
AcDbEntity
  8
0
100
AcDbLine
 10
15.11921334931474
 20
4.187496101020798
 30
0.0
 11
14.49421334931474
 21
4.142046101020798
 31
0.0
  0
LINE
  5
562
330
2
100
AcDbEntity
  8
0
100
AcDbLine
 10
15.04048376715253
 20
4.142041555566252
 30
0.0
 11
15.11921334931474
 21
4.187496101020797
 31
0.0
  0
LINE
  5
563
330
2
100
AcDbEntity
  8
0
100
AcDbLine
 10
14.57294293147697
 20
3.732955191929889
 30
0.0
 11
15.04048376715253
 21
3.778405191929888
 31
0.0
  0
LINE
  5
564
330
2
100
AcDbEntity
  8
0
100
AcDbLine
 10
14.57294293147697
 20
3.732955191929889
 30
0.0
 11
14.49421334931474
 21
3.778409737384434
 31
0.0
  0
LINE
  5
565
330
2
100
AcDbEntity
  8
0
100
AcDbLine
 10
15.11921334931474
 20
3.732950646475343
 30
0.0
 11
15.04048376715253
 21
3.778405191929888
 31
0.0
  0
LINE
  5
566
330
2
100
AcDbEntity
  8
0
100
AcDbLine
 10
14.57294293147697
 20
3.460227919202618
 30
0.0
 11
15.04048376715253
 21
3.505677919202617
 31
0.0
  0
LINE
  5
567
330
2
100
AcDbEntity
  8
0
100
AcDbLine
 10
14.57294293147697
 20
3.551137010111708
 30
0.0
 11
15.04048376715253
 21
3.596587010111707
 31
0.0
  0
LINE
  5
568
330
2
100
AcDbEntity
  8
0
100
AcDbLine
 10
14.57294293147697
 20
3.642046101020798
 30
0.0
 11
15.04048376715253
 21
3.687496101020797
 31
0.0
  0
LINE
  5
569
330
2
100
AcDbEntity
  8
0
100
AcDbLine
 10
15.11921334931474
 20
3.46022337374807
 30
0.0
 11
14.49421334931474
 21
3.414773373748071
 31
0.0
  0
LINE
  5
56A
330
2
100
AcDbEntity
  8
0
100
AcDbLine
 10
15.11921334931474
 20
3.551132464657162
 30
0.0
 11
14.49421334931474
 21
3.505682464657161
 31
0.0
  0
LINE
  5
56B
330
2
100
AcDbEntity
  8
0
100
AcDbLine
 10
15.11921334931474
 20
3.642041555566253
 30
0.0
 11
14.49421334931474
 21
3.596591555566251
 31
0.0
  0
LINE
  5
56C
330
2
100
AcDbEntity
  8
0
100
AcDbLine
 10
15.11921334931474
 20
3.732950646475343
 30
0.0
 11
14.49421334931474
 21
3.687500646475343
 31
0.0
  0
LINE
  5
56D
330
2
100
AcDbEntity
  8
0
100
AcDbLine
 10
14.57294293147697
 20
3.551137010111708
 30
0.0
 11
14.49421334931474
 21
3.596591555566253
 31
0.0
  0
LINE
  5
56E
330
2
100
AcDbEntity
  8
0
100
AcDbLine
 10
14.57294293147697
 20
3.460227919202618
 30
0.0
 11
14.49421334931474
 21
3.505682464657161
 31
0.0
  0
LINE
  5
56F
330
2
100
AcDbEntity
  8
0
100
AcDbLine
 10
14.49421334931474
 20
3.414773373748071
 30
0.0
 11
14.57294293147697
 21
3.460227919202618
 31
0.0
  0
LINE
  5
570
330
2
100
AcDbEntity
  8
0
100
AcDbLine
 10
14.49421334931474
 20
3.505682464657163
 30
0.0
 11
14.57294293147697
 21
3.551137010111708
 31
0.0
  0
LINE
  5
571
330
2
100
AcDbEntity
  8
0
100
AcDbLine
 10
14.57294293147697
 20
3.642046101020798
 30
0.0
 11
14.49421334931474
 21
3.687500646475344
 31
0.0
  0
LINE
  5
572
330
2
100
AcDbEntity
  8
0
100
AcDbLine
 10
14.49421334931474
 20
3.596591555566254
 30
0.0
 11
14.57294293147697
 21
3.642046101020798
 31
0.0
  0
LINE
  5
573
330
2
100
AcDbEntity
  8
0
100
AcDbLine
 10
14.49421334931474
 20
3.687500646475344
 30
0.0
 11
14.57294293147697
 21
3.732955191929889
 31
0.0
  0
LINE
  5
574
330
2
100
AcDbEntity
  8
0
100
AcDbLine
 10
15.11921334931474
 20
3.551132464657162
 30
0.0
 11
15.04048376715253
 21
3.596587010111707
 31
0.0
  0
LINE
  5
575
330
2
100
AcDbEntity
  8
0
100
AcDbLine
 10
15.04048376715253
 20
3.414768828293525
 30
0.0
 11
15.11921334931474
 21
3.46022337374807
 31
0.0
  0
LINE
  5
576
330
2
100
AcDbEntity
  8
0
100
AcDbLine
 10
15.11921334931474
 20
3.46022337374807
 30
0.0
 11
15.04048376715253
 21
3.505677919202617
 31
0.0
  0
LINE
  5
577
330
2
100
AcDbEntity
  8
0
100
AcDbLine
 10
15.04048376715253
 20
3.505677919202617
 30
0.0
 11
15.11921334931474
 21
3.55113246465716
 31
0.0
  0
LINE
  5
578
330
2
100
AcDbEntity
  8
0
100
AcDbLine
 10
15.04048376715253
 20
3.596587010111707
 30
0.0
 11
15.11921334931474
 21
3.642041555566252
 31
0.0
  0
LINE
  5
579
330
2
100
AcDbEntity
  8
0
100
AcDbLine
 10
15.11921334931474
 20
3.642041555566253
 30
0.0
 11
15.04048376715253
 21
3.687496101020797
 31
0.0
  0
LINE
  5
57A
330
2
100
AcDbEntity
  8
0
100
AcDbLine
 10
15.04048376715253
 20
3.687496101020797
 30
0.0
 11
15.11921334931474
 21
3.732950646475343
 31
0.0
  0
LINE
  5
57B
330
2
100
AcDbEntity
  8
0
100
AcDbLine
 10
14.57294293147697
 20
3.823864282838979
 30
0.0
 11
15.04048376715253
 21
3.86931428283898
 31
0.0
  0
LINE
  5
57C
330
2
100
AcDbEntity
  8
0
100
AcDbLine
 10
14.57294293147697
 20
3.914773373748071
 30
0.0
 11
15.04048376715253
 21
3.96022337374807
 31
0.0
  0
LINE
  5
57D
330
2
100
AcDbEntity
  8
0
100
AcDbLine
 10
14.57294293147697
 20
4.005682464657161
 30
0.0
 11
15.04048376715253
 21
4.051132464657162
 31
0.0
  0
LINE
  5
57E
330
2
100
AcDbEntity
  8
0
100
AcDbLine
 10
14.57294293147697
 20
4.096591555566253
 30
0.0
 11
15.04048376715253
 21
4.142041555566252
 31
0.0
  0
LINE
  5
57F
330
2
100
AcDbEntity
  8
0
100
AcDbLine
 10
15.11921334931474
 20
3.823859737384435
 30
0.0
 11
14.49421334931474
 21
3.778409737384434
 31
0.0
  0
LINE
  5
580
330
2
100
AcDbEntity
  8
0
100
AcDbLine
 10
15.11921334931474
 20
3.914768828293525
 30
0.0
 11
14.49421334931474
 21
3.869318828293524
 31
0.0
  0
LINE
  5
581
330
2
100
AcDbEntity
  8
0
100
AcDbLine
 10
15.11921334931474
 20
4.005677919202617
 30
0.0
 11
14.49421334931474
 21
3.960227919202616
 31
0.0
  0
LINE
  5
582
330
2
100
AcDbEntity
  8
0
100
AcDbLine
 10
15.11921334931474
 20
4.096587010111707
 30
0.0
 11
14.49421334931474
 21
4.051137010111706
 31
0.0
  0
LINE
  5
583
330
2
100
AcDbEntity
  8
0
100
AcDbLine
 10
14.49421334931474
 20
3.778409737384434
 30
0.0
 11
14.57294293147697
 21
3.823864282838979
 31
0.0
  0
LINE
  5
584
330
2
100
AcDbEntity
  8
0
100
AcDbLine
 10
14.49421334931474
 20
3.960227919202616
 30
0.0
 11
14.57294293147697
 21
4.005682464657161
 31
0.0
  0
LINE
  5
585
330
2
100
AcDbEntity
  8
0
100
AcDbLine
 10
14.57294293147697
 20
3.823864282838979
 30
0.0
 11
14.49421334931474
 21
3.869318828293524
 31
0.0
  0
LINE
  5
586
330
2
100
AcDbEntity
  8
0
100
AcDbLine
 10
14.49421334931474
 20
3.869318828293526
 30
0.0
 11
14.57294293147697
 21
3.914773373748071
 31
0.0
  0
LINE
  5
587
330
2
100
AcDbEntity
  8
0
100
AcDbLine
 10
14.57294293147697
 20
3.914773373748071
 30
0.0
 11
14.49421334931474
 21
3.960227919202616
 31
0.0
  0
LINE
  5
588
330
2
100
AcDbEntity
  8
0
100
AcDbLine
 10
14.57294293147697
 20
4.005682464657161
 30
0.0
 11
14.49421334931474
 21
4.051137010111706
 31
0.0
  0
LINE
  5
589
330
2
100
AcDbEntity
  8
0
100
AcDbLine
 10
14.49421334931474
 20
4.051137010111708
 30
0.0
 11
14.57294293147697
 21
4.096591555566253
 31
0.0
  0
LINE
  5
58A
330
2
100
AcDbEntity
  8
0
100
AcDbLine
 10
14.57294293147697
 20
4.096591555566253
 30
0.0
 11
14.49421334931474
 21
4.142046101020798
 31
0.0
  0
LINE
  5
58B
330
2
100
AcDbEntity
  8
0
100
AcDbLine
 10
15.04048376715253
 20
3.778405191929888
 30
0.0
 11
15.11921334931474
 21
3.823859737384433
 31
0.0
  0
LINE
  5
58C
330
2
100
AcDbEntity
  8
0
100
AcDbLine
 10
15.04048376715253
 20
3.96022337374807
 30
0.0
 11
15.11921334931474
 21
4.005677919202615
 31
0.0
  0
LINE
  5
58D
330
2
100
AcDbEntity
  8
0
100
AcDbLine
 10
15.11921334931474
 20
3.823859737384435
 30
0.0
 11
15.04048376715253
 21
3.86931428283898
 31
0.0
  0
LINE
  5
58E
330
2
100
AcDbEntity
  8
0
100
AcDbLine
 10
15.04048376715253
 20
3.86931428283898
 30
0.0
 11
15.11921334931474
 21
3.914768828293525
 31
0.0
  0
LINE
  5
58F
330
2
100
AcDbEntity
  8
0
100
AcDbLine
 10
15.11921334931474
 20
3.914768828293525
 30
0.0
 11
15.04048376715253
 21
3.96022337374807
 31
0.0
  0
LINE
  5
590
330
2
100
AcDbEntity
  8
0
100
AcDbLine
 10
15.11921334931474
 20
4.005677919202617
 30
0.0
 11
15.04048376715253
 21
4.051132464657162
 31
0.0
  0
LINE
  5
591
330
2
100
AcDbEntity
  8
0
100
AcDbLine
 10
15.04048376715253
 20
4.051132464657162
 30
0.0
 11
15.11921334931474
 21
4.096587010111707
 31
0.0
  0
LINE
  5
592
330
2
100
AcDbEntity
  8
0
100
AcDbLine
 10
15.11921334931474
 20
4.096587010111707
 30
0.0
 11
15.04048376715253
 21
4.142041555566252
 31
0.0
  0
LINE
  5
593
330
2
100
AcDbEntity
  8
0
100
AcDbLine
 10
14.49421334931474
 20
4.505682464657163
 30
0.0
 11
14.57294293147697
 21
4.551137010111708
 31
0.0
  0
LINE
  5
594
330
2
100
AcDbEntity
  8
0
100
AcDbLine
 10
15.11921334931474
 20
4.551132464657162
 30
0.0
 11
14.49421334931474
 21
4.505682464657161
 31
0.0
  0
LINE
  5
595
330
2
100
AcDbEntity
  8
0
100
AcDbLine
 10
15.04048376715253
 20
4.505677919202615
 30
0.0
 11
15.11921334931474
 21
4.55113246465716
 31
0.0
  0
LINE
  5
596
330
2
100
AcDbEntity
  8
0
100
AcDbLine
 10
14.57294293147697
 20
4.187500646475343
 30
0.0
 11
15.04048376715253
 21
4.232950646475343
 31
0.0
  0
LINE
  5
597
330
2
100
AcDbEntity
  8
0
100
AcDbLine
 10
14.57294293147697
 20
4.278409737384434
 30
0.0
 11
15.04048376715253
 21
4.323859737384433
 31
0.0
  0
LINE
  5
598
330
2
100
AcDbEntity
  8
0
100
AcDbLine
 10
14.57294293147697
 20
4.369318828293524
 30
0.0
 11
15.04048376715253
 21
4.414768828293525
 31
0.0
  0
LINE
  5
599
330
2
100
AcDbEntity
  8
0
100
AcDbLine
 10
14.57294293147697
 20
4.460227919202616
 30
0.0
 11
15.04048376715253
 21
4.505677919202615
 31
0.0
  0
LINE
  5
59A
330
2
100
AcDbEntity
  8
0
100
AcDbLine
 10
15.11921334931474
 20
4.278405191929888
 30
0.0
 11
14.49421334931474
 21
4.232955191929888
 31
0.0
  0
LINE
  5
59B
330
2
100
AcDbEntity
  8
0
100
AcDbLine
 10
15.11921334931474
 20
4.36931428283898
 30
0.0
 11
14.49421334931474
 21
4.323864282838979
 31
0.0
  0
LINE
  5
59C
330
2
100
AcDbEntity
  8
0
100
AcDbLine
 10
15.11921334931474
 20
4.46022337374807
 30
0.0
 11
14.49421334931474
 21
4.414773373748069
 31
0.0
  0
LINE
  5
59D
330
2
100
AcDbEntity
  8
0
100
AcDbLine
 10
14.57294293147697
 20
4.187500646475343
 30
0.0
 11
14.49421334931474
 21
4.232955191929888
 31
0.0
  0
LINE
  5
59E
330
2
100
AcDbEntity
  8
0
100
AcDbLine
 10
14.57294293147697
 20
4.369318828293524
 30
0.0
 11
14.49421334931474
 21
4.414773373748069
 31
0.0
  0
LINE
  5
59F
330
2
100
AcDbEntity
  8
0
100
AcDbLine
 10
14.49421334931474
 20
4.232955191929889
 30
0.0
 11
14.57294293147697
 21
4.278409737384434
 31
0.0
  0
LINE
  5
5A0
330
2
100
AcDbEntity
  8
0
100
AcDbLine
 10
14.57294293147697
 20
4.278409737384434
 30
0.0
 11
14.49421334931474
 21
4.323864282838979
 31
0.0
  0
LINE
  5
5A1
330
2
100
AcDbEntity
  8
0
100
AcDbLine
 10
14.49421334931474
 20
4.323864282838979
 30
0.0
 11
14.57294293147697
 21
4.369318828293524
 31
0.0
  0
LINE
  5
5A2
330
2
100
AcDbEntity
  8
0
100
AcDbLine
 10
14.49421334931474
 20
4.414773373748071
 30
0.0
 11
14.57294293147697
 21
4.460227919202616
 31
0.0
  0
LINE
  5
5A3
330
2
100
AcDbEntity
  8
0
100
AcDbLine
 10
14.57294293147697
 20
4.460227919202616
 30
0.0
 11
14.49421334931474
 21
4.505682464657161
 31
0.0
  0
LINE
  5
5A4
330
2
100
AcDbEntity
  8
0
100
AcDbLine
 10
15.11921334931474
 20
4.187496101020798
 30
0.0
 11
15.04048376715253
 21
4.232950646475343
 31
0.0
  0
LINE
  5
5A5
330
2
100
AcDbEntity
  8
0
100
AcDbLine
 10
15.11921334931474
 20
4.36931428283898
 30
0.0
 11
15.04048376715253
 21
4.414768828293525
 31
0.0
  0
LINE
  5
5A6
330
2
100
AcDbEntity
  8
0
100
AcDbLine
 10
15.04048376715253
 20
4.232950646475343
 30
0.0
 11
15.11921334931474
 21
4.278405191929888
 31
0.0
  0
LINE
  5
5A7
330
2
100
AcDbEntity
  8
0
100
AcDbLine
 10
15.11921334931474
 20
4.278405191929888
 30
0.0
 11
15.04048376715253
 21
4.323859737384433
 31
0.0
  0
LINE
  5
5A8
330
2
100
AcDbEntity
  8
0
100
AcDbLine
 10
15.04048376715253
 20
4.323859737384433
 30
0.0
 11
15.11921334931474
 21
4.369314282838978
 31
0.0
  0
LINE
  5
5A9
330
2
100
AcDbEntity
  8
0
100
AcDbLine
 10
15.04048376715253
 20
4.414768828293525
 30
0.0
 11
15.11921334931474
 21
4.46022337374807
 31
0.0
  0
LINE
  5
5AA
330
2
100
AcDbEntity
  8
0
100
AcDbLine
 10
15.11921334931474
 20
4.46022337374807
 30
0.0
 11
15.04048376715253
 21
4.505677919202615
 31
0.0
  0
LINE
  5
5AB
330
2
100
AcDbEntity
  8
0
100
AcDbLine
 10
14.57294293147697
 20
4.551137010111708
 30
0.0
 11
15.04048376715253
 21
4.596587010111707
 31
0.0
  0
LINE
  5
5AC
330
2
100
AcDbEntity
  8
0
100
AcDbLine
 10
14.57294293147697
 20
4.642046101020798
 30
0.0
 11
15.04048376715253
 21
4.687496101020798
 31
0.0
  0
LINE
  5
5AD
330
2
100
AcDbEntity
  8
0
100
AcDbLine
 10
15.11921334931474
 20
4.642041555566253
 30
0.0
 11
14.49421334931474
 21
4.596591555566253
 31
0.0
  0
LINE
  5
5AE
330
2
100
AcDbEntity
  8
0
100
AcDbLine
 10
15.11921334931474
 20
4.732950646475343
 30
0.0
 11
14.49421334931474
 21
4.687500646475343
 31
0.0
  0
LINE
  5
5AF
330
2
100
AcDbEntity
  8
0
100
AcDbLine
 10
15.11921334931472
 20
4.7499961010208
 30
0.0
 11
14.49421334931472
 21
4.7499961010208
 31
0.0
  0
LINE
  5
5B0
330
2
100
AcDbEntity
  8
0
100
AcDbLine
 10
14.49421334931472
 20
4.749996101020798
 30
0.0
 11
14.44208834931473
 21
4.906246101020798
 31
0.0
  0
LINE
  5
5B1
330
2
100
AcDbEntity
  8
0
100
AcDbLine
 10
14.49421334931474
 20
4.596591555566253
 30
0.0
 11
14.57294293147697
 21
4.642046101020798
 31
0.0
  0
LINE
  5
5B2
330
2
100
AcDbEntity
  8
0
100
AcDbLine
 10
14.57294293147697
 20
4.551137010111708
 30
0.0
 11
14.49421334931474
 21
4.596591555566253
 31
0.0
  0
LINE
  5
5B3
330
2
100
AcDbEntity
  8
0
100
AcDbLine
 10
14.57294293147697
 20
4.642046101020798
 30
0.0
 11
14.49421334931474
 21
4.687500646475343
 31
0.0
  0
LINE
  5
5B4
330
2
100
AcDbEntity
  8
0
100
AcDbLine
 10
14.49421334931474
 20
4.687500646475344
 30
0.0
 11
14.57294293147697
 21
4.732955191929889
 31
0.0
  0
LINE
  5
5B5
330
2
100
AcDbEntity
  8
0
100
AcDbLine
 10
14.57294293147697
 20
4.732955191929889
 30
0.0
 11
14.54342721112435
 21
4.7499961010208
 31
0.0
  0
LINE
  5
5B6
330
2
100
AcDbEntity
  8
0
100
AcDbLine
 10
14.57294293147697
 20
4.732955191929889
 30
0.0
 11
14.74824152063067
 21
4.7499961010208
 31
0.0
  0
LINE
  5
5B7
330
2
100
AcDbEntity
  8
0
100
AcDbLine
 10
15.04048376715253
 20
4.596587010111707
 30
0.0
 11
15.11921334931474
 21
4.642041555566252
 31
0.0
  0
LINE
  5
5B8
330
2
100
AcDbEntity
  8
0
100
AcDbLine
 10
15.11921334931474
 20
4.551132464657162
 30
0.0
 11
15.04048376715253
 21
4.596587010111707
 31
0.0
  0
LINE
  5
5B9
330
2
100
AcDbEntity
  8
0
100
AcDbLine
 10
15.11921334931474
 20
4.642041555566253
 30
0.0
 11
15.04048376715253
 21
4.687496101020798
 31
0.0
  0
LINE
  5
5BA
330
2
100
AcDbEntity
  8
0
100
AcDbLine
 10
15.04048376715253
 20
4.687496101020798
 30
0.0
 11
15.11921334931474
 21
4.732950646475343
 31
0.0
  0
LINE
  5
5BB
330
2
100
AcDbEntity
  8
0
100
AcDbLine
 10
15.11921334931474
 20
4.732950646475343
 30
0.0
 11
15.08968975600391
 21
4.7499961010208
 31
0.0
  0
LINE
  5
5BC
330
2
100
AcDbEntity
  8
0
100
AcDbLine
 10
16.24421334931472
 20
5.1874961010208
 30
0.0
 11
16.24421334931472
 21
7.005246101020799
 31
0.0
  0
CIRCLE
  5
5BD
330
2
100
AcDbEntity
  8
0
100
AcDbCircle
 10
14.40041334931472
 20
6.442746101020799
 30
0.0
 40
0.0855
  0
ARC
  5
5BE
330
2
100
AcDbEntity
  8
0
100
AcDbCircle
 10
14.31708834931473
 20
5.062496101020798
 30
0.0
 40
0.125
100
AcDbArc
 50
0.0
 51
90.0
  0
CIRCLE
  5
5BF
330
2
100
AcDbEntity
  8
0
100
AcDbCircle
 10
14.80671334931472
 20
6.255246101020799
 30
0.0
 40
0.1875
  0
ARC
  5
5C0
330
2
100
AcDbEntity
  8
0
100
AcDbCircle
 10
15.29633834931473
 20
5.062496101020798
 30
0.0
 40
0.125
100
AcDbArc
 50
90.0
 51
180.0
  0
CIRCLE
  5
5C1
330
2
100
AcDbEntity
  8
0
100
AcDbCircle
 10
14.05671334931472
 20
6.942746101020799
 30
0.0
 40
0.0855
  0
CIRCLE
  5
5C2
330
2
100
AcDbEntity
  8
0
100
AcDbCircle
 10
15.80671334931472
 20
6.942746101020799
 30
0.0
 40
0.0855
  0
LINE
  5
5C3
330
2
100
AcDbEntity
  8
0
100
AcDbLine
 10
15.99421334931472
 20
7.255246101020799
 30
0.0
 11
16.24421334931472
 21
7.005246101020799
 31
0.0
  0
LINE
  5
5C4
330
2
100
AcDbEntity
  8
0
100
AcDbLine
 10
8.413097091705259
 20
12.46359176916995
 30
0.0
 11
7.915788892496762
 21
11.96628356996145
 31
0.0
  0
ARC
  5
5C5
330
2
100
AcDbEntity
  8
0
100
AcDbCircle
 10
8.545679613177736
 20
12.33100924769747
 30
0.0
 40
0.1875
100
AcDbArc
 50
314.9999999999999
 51
135.0000000000001
  0
ARC
  5
5C6
330
2
100
AcDbEntity
  8
0
100
AcDbCircle
 10
8.545679613177736
 20
12.33100924769747
 30
0.0
 40
0.0718500000000001
100
AcDbArc
 50
314.9999999999999
 51
135.0000000000001
  0
LINE
  5
5C7
330
2
100
AcDbEntity
  8
0
100
AcDbLine
 10
8.49487399094949
 20
12.38181486992573
 30
0.0
 11
7.975182086086001
 21
11.86212296506224
 31
0.0
  0
LINE
  5
5C8
330
2
100
AcDbEntity
  8
0
100
AcDbLine
 10
8.678262134650215
 20
12.19842672622499
 30
0.0
 11
8.180953935441716
 21
11.70111852701649
 31
0.0
  0
LINE
  5
5C9
330
2
100
AcDbEntity
  8
0
100
AcDbLine
 10
8.596485235405995
 20
12.28020362546923
 30
0.0
 11
8.076793330542508
 21
11.76051172060573
 31
0.0
  0
ARC
  5
5CA
330
2
100
AcDbEntity
  8
0
100
AcDbCircle
 10
6.345707172261433
 20
12.33100924769747
 30
0.0
 40
0.1875
100
AcDbArc
 50
44.99999999999993
 51
225.0
  0
LINE
  5
5CB
330
2
100
AcDbEntity
  8
0
100
AcDbLine
 10
6.47828969373391
 20
12.46359176916995
 30
0.0
 11
6.975597892942409
 21
11.96628356996145
 31
0.0
  0
ARC
  5
5CC
330
2
100
AcDbEntity
  8
0
100
AcDbCircle
 10
6.345707172261433
 20
12.33100924769747
 30
0.0
 40
0.0718500000000001
100
AcDbArc
 50
44.99999999999993
 51
225.0
  0
LINE
  5
5CD
330
2
100
AcDbEntity
  8
0
100
AcDbLine
 10
6.396512794489691
 20
12.38181486992573
 30
0.0
 11
6.916204699353179
 21
11.86212296506224
 31
0.0
  0
LINE
  5
5CE
330
2
100
AcDbEntity
  8
0
100
AcDbLine
 10
6.213124650788954
 20
12.198426726225
 30
0.0
 11
6.710432849997451
 21
11.7011185270165
 31
0.0
  0
LINE
  5
5CF
330
2
100
AcDbEntity
  8
0
100
AcDbLine
 10
6.294901550033185
 20
12.28020362546923
 30
0.0
 11
6.814593454896672
 21
11.76051172060574
 31
0.0
  0
LINE
  5
5D0
330
2
100
AcDbEntity
  8
0
100
AcDbLine
 10
6.47828969373391
 20
9.998454285308696
 30
0.0
 11
6.975597892942409
 21
10.4957624845172
 31
0.0
  0
LINE
  5
5D1
330
2
100
AcDbEntity
  8
0
100
AcDbLine
 10
6.213124650788954
 20
10.26361932825365
 30
0.0
 11
6.710432849997451
 21
10.76092752746215
 31
0.0
  0
LINE
  5
5D2
330
2
100
AcDbEntity
  8
0
100
AcDbLine
 10
6.294901550033192
 20
10.18184242900943
 30
0.0
 11
6.814593454896672
 21
10.70153433387291
 31
0.0
  0
LINE
  5
5D3
330
2
100
AcDbEntity
  8
0
100
AcDbLine
 10
6.396512794489697
 20
10.08023118455292
 30
0.0
 11
6.916204699353182
 21
10.59992308941641
 31
0.0
  0
ARC
  5
5D4
330
2
100
AcDbEntity
  8
0
100
AcDbCircle
 10
6.345707172261433
 20
10.13103680678118
 30
0.0
 40
0.1875
100
AcDbArc
 50
135.0000000000001
 51
314.9999999999999
  0
ARC
  5
5D5
330
2
100
AcDbEntity
  8
0
100
AcDbCircle
 10
6.345707172261433
 20
10.13103680678118
 30
0.0
 40
0.0718500000000001
100
AcDbArc
 50
135.0000000000001
 51
314.9999999999999
  0
LINE
  5
5D6
330
2
100
AcDbEntity
  8
0
100
AcDbLine
 10
8.413097091705261
 20
9.998454285308698
 30
0.0
 11
7.915788892496762
 21
10.4957624845172
 31
0.0
  0
LINE
  5
5D7
330
2
100
AcDbEntity
  8
0
100
AcDbLine
 10
8.678262134650217
 20
10.26361932825365
 30
0.0
 11
8.180953935441719
 21
10.76092752746215
 31
0.0
  0
LINE
  5
5D8
330
2
100
AcDbEntity
  8
0
100
AcDbLine
 10
8.494873990949488
 20
10.08023118455292
 30
0.0
 11
7.975182086085999
 21
10.59992308941641
 31
0.0
  0
LINE
  5
5D9
330
2
100
AcDbEntity
  8
0
100
AcDbLine
 10
8.596485235405995
 20
10.18184242900943
 30
0.0
 11
8.076793330542506
 21
10.70153433387291
 31
0.0
  0
ARC
  5
5DA
330
2
100
AcDbEntity
  8
0
100
AcDbCircle
 10
8.545679613177738
 20
10.13103680678118
 30
0.0
 40
0.1875
100
AcDbArc
 50
225.0
 51
44.99999999999993
  0
ARC
  5
5DB
330
2
100
AcDbEntity
  8
0
100
AcDbCircle
 10
8.545679613177738
 20
10.13103680678118
 30
0.0
 40
0.0718500000000001
100
AcDbArc
 50
225.0
 51
44.99999999999993
  0
CIRCLE
  5
5DC
330
2
100
AcDbEntity
  8
0
100
AcDbCircle
 10
7.99321708503669
 20
11.77854671955642
 30
0.0
 40
0.0855
  0
CIRCLE
  5
5DD
330
2
100
AcDbEntity
  8
0
100
AcDbCircle
 10
6.898169700402489
 20
11.77854671955643
 30
0.0
 40
0.0855
  0
CIRCLE
  5
5DE
330
2
100
AcDbEntity
  8
0
100
AcDbCircle
 10
6.898169700402491
 20
10.68349933492222
 30
0.0
 40
0.0855
  0
CIRCLE
  5
5DF
330
2
100
AcDbEntity
  8
0
100
AcDbCircle
 10
7.993217085036688
 20
10.68349933492222
 30
0.0
 40
0.0855
  0
LINE
  5
5E0
330
2
100
AcDbEntity
  8
0
100
AcDbLine
 10
6.843015371469948
 20
5.088496101020793
 30
0.0
 11
6.927509332087567
 21
5.187496101020793
 31
0.0
  0
LINE
  5
5E1
330
2
100
AcDbEntity
  8
0
100
AcDbLine
 10
6.258746646418944
 20
5.134410893762547
 30
0.0
 11
6.843015371469948
 21
5.088496101020793
 31
0.0
  0
LINE
  5
5E2
330
2
100
AcDbEntity
  8
0
100
AcDbLine
 10
8.048371413969242
 20
5.088496101020798
 30
0.0
 11
7.963877453351621
 21
5.187496101020798
 31
0.0
  0
LINE
  5
5E3
330
2
100
AcDbEntity
  8
0
100
AcDbLine
 10
8.632640139020245
 20
5.134410893762558
 30
0.0
 11
8.048371413969242
 21
5.088496101020798
 31
0.0
  0
ARC
  5
5E4
330
2
100
AcDbEntity
  8
0
100
AcDbCircle
 10
6.262624650788984
 20
5.183758751690789
 30
0.0
 40
0.0495
100
AcDbArc
 50
180.0000000000006
 51
265.5066422966914
  0
LINE
  5
5E5
330
2
100
AcDbEntity
  8
0
100
AcDbLine
 10
6.213124650788982
 20
5.187496101020786
 30
0.0
 11
6.213124650788982
 21
5.183758751690787
 31
0.0
  0
ARC
  5
5E6
330
2
100
AcDbEntity
  8
0
100
AcDbCircle
 10
8.628762134650204
 20
5.183758751690801
 30
0.0
 40
0.0495
100
AcDbArc
 50
274.4933577033092
 51
0.0
  0
LINE
  5
5E7
330
2
100
AcDbEntity
  8
0
100
AcDbLine
 10
8.678262134650206
 20
5.187496101020798
 30
0.0
 11
8.678262134650206
 21
5.183758751690801
 31
0.0
  0
LINE
  5
5E8
330
2
100
AcDbEntity
  8
0
100
AcDbLine
 10
14.20403532806508
 20
5.088496101020791
 30
0.0
 11
14.2885292886827
 21
5.187496101020791
 31
0.0
  0
LINE
  5
5E9
330
2
100
AcDbEntity
  8
0
100
AcDbLine
 10
13.61976660301407
 20
5.134410893762544
 30
0.0
 11
14.20403532806508
 21
5.088496101020791
 31
0.0
  0
LINE
  5
5EA
330
2
100
AcDbEntity
  8
0
100
AcDbLine
 10
15.40939137056437
 20
5.088496101020796
 30
0.0
 11
15.32489740994675
 21
5.187496101020797
 31
0.0
  0
LINE
  5
5EB
330
2
100
AcDbEntity
  8
0
100
AcDbLine
 10
15.99366009561538
 20
5.134410893762556
 30
0.0
 11
15.40939137056437
 21
5.088496101020796
 31
0.0
  0
ARC
  5
5EC
330
2
100
AcDbEntity
  8
0
100
AcDbCircle
 10
13.62364460738411
 20
5.183758751690787
 30
0.0
 40
0.0495
100
AcDbArc
 50
180.0000000000006
 51
265.5066422966913
  0
LINE
  5
5ED
330
2
100
AcDbEntity
  8
0
100
AcDbLine
 10
13.57414460738412
 20
5.187496101020784
 30
0.0
 11
13.57414460738412
 21
5.183758751690787
 31
0.0
  0
ARC
  5
5EE
330
2
100
AcDbEntity
  8
0
100
AcDbCircle
 10
15.98978209124533
 20
5.183758751690798
 30
0.0
 40
0.0495
100
AcDbArc
 50
274.4933577033091
 51
0.0
  0
LINE
  5
5EF
330
2
100
AcDbEntity
  8
0
100
AcDbLine
 10
16.03928209124533
 20
5.187496101020797
 30
0.0
 11
16.03928209124533
 21
5.183758751690798
 31
0.0
  0
LINE
  5
5FC
330
2
100
AcDbEntity
  8
0
100
AcDbLine
 10
-1.102826563875535
 20
7.255246101020799
 30
0.0
 11
1.272173436124465
 21
7.255246101020799
 31
0.0
  0
LINE
  5
5FD
330
2
100
AcDbEntity
  8
0
  6
HIDDEN
100
AcDbLine
 10
-1.352826563875535
 20
5.286496101020797
 30
0.0
 11
1.522173436124465
 21
5.286496101020797
 31
0.0
  0
LINE
  5
5FE
330
2
100
AcDbEntity
  8
0
100
AcDbLine
 10
-1.352826563875535
 20
5.187496101020798
 30
0.0
 11
1.522173436124465
 21
5.1874961010208
 31
0.0
  0
LINE
  5
5FF
330
2
100
AcDbEntity
  8
0
100
AcDbLine
 10
1.522173436124465
 20
7.005246101020799
 30
0.0
 11
1.522173436124465
 21
5.1874961010208
 31
0.0
  0
LINE
  5
600
330
2
100
AcDbEntity
  8
0
100
AcDbLine
 10
1.272173436124465
 20
7.255246101020799
 30
0.0
 11
1.522173436124465
 21
7.005246101020799
 31
0.0
  0
LINE
  5
601
330
2
100
AcDbEntity
  8
0
100
AcDbLine
 10
-0.2799515638755423
 20
4.906246101020798
 30
0.0
 11
-0.2799515638755388
 21
5.062496101020798
 31
0.0
  0
LINE
  5
602
330
2
100
AcDbEntity
  8
0
100
AcDbLine
 10
0.4492984361244581
 20
4.906246101020795
 30
0.0
 11
0.4492984361244616
 21
5.062496101020798
 31
0.0
  0
LINE
  5
603
330
2
100
AcDbEntity
  8
0
100
AcDbLine
 10
0.3971734361244437
 20
1.778409737384436
 30
0.0
 11
0.3184438539622221
 21
1.823864282838981
 31
0.0
  0
LINE
  5
604
330
2
100
AcDbEntity
  8
0
100
AcDbLine
 10
-0.2278265638755563
 20
1.823859737384435
 30
0.0
 11
0.3971734361244437
 21
1.778409737384434
 31
0.0
  0
LINE
  5
605
330
2
100
AcDbEntity
  8
0
100
AcDbLine
 10
-0.1490969817133383
 20
1.778405191929888
 30
0.0
 11
-0.2278265638755563
 21
1.823859737384435
 31
0.0
  0
LINE
  5
606
330
2
100
AcDbEntity
  8
0
100
AcDbLine
 10
0.3760757986108381
 20
0.2451359186276321
 30
0.0
 11
0.3184438539622221
 21
0.2784097373844343
 31
0.0
  0
LINE
  5
607
330
2
100
AcDbEntity
  8
0
100
AcDbLine
 10
-0.2278265638755563
 20
0.2784051919298882
 30
0.0
 11
0.3760757986108381
 21
0.2451359186276321
 31
0.0
  0
LINE
  5
608
330
2
100
AcDbEntity
  8
0
100
AcDbLine
 10
-0.1490969817133383
 20
0.2329506464753433
 30
0.0
 11
-0.2278265638755563
 21
0.2784051919298882
 31
0.0
  0
LINE
  5
609
330
2
100
AcDbEntity
  8
0
100
AcDbLine
 10
0.3184359810040043
 20
0.1874961010207983
 30
0.0
 11
-0.1490969817133383
 21
0.1874961010207983
 31
0.0
  0
LINE
  5
60A
330
2
100
AcDbEntity
  8
0
100
AcDbLine
 10
0.3184438539622221
 20
0.1875006464753426
 30
0.0
 11
-0.1490969817133383
 21
0.2329506464753433
 31
0.0
  0
LINE
  5
60B
330
2
100
AcDbEntity
  8
0
100
AcDbLine
 10
0.3760757986108381
 20
0.2451359186276321
 30
0.0
 11
0.3184359810040043
 21
0.1874961010207983
 31
0.0
  0
LINE
  5
60C
330
2
100
AcDbEntity
  8
0
100
AcDbLine
 10
-0.1490969817133383
 20
0.1874961010207983
 30
0.0
 11
-0.1779140088140458
 21
0.2163131281215041
 31
0.0
  0
LINE
  5
60D
330
2
100
AcDbEntity
  8
0
100
AcDbLine
 10
-0.1779140088140458
 20
0.2163131281215041
 30
0.0
 11
-0.1490969817133383
 21
0.2329506464753433
 31
0.0
  0
LINE
  5
60E
330
2
100
AcDbEntity
  8
0
100
AcDbLine
 10
0.3184438539622221
 20
1.005682464657163
 30
0.0
 11
-0.1490969817133383
 21
1.051132464657162
 31
0.0
  0
LINE
  5
60F
330
2
100
AcDbEntity
  8
0
100
AcDbLine
 10
0.3184438539622221
 20
1.005682464657163
 30
0.0
 11
0.3971734361244437
 21
1.051137010111706
 31
0.0
  0
LINE
  5
610
330
2
100
AcDbEntity
  8
0
100
AcDbLine
 10
-0.2278265638755563
 20
1.005677919202615
 30
0.0
 11
-0.1490969817133383
 21
1.051132464657162
 31
0.0
  0
LINE
  5
611
330
2
100
AcDbEntity
  8
0
100
AcDbLine
 10
0.3184438539622221
 20
0.6420461010207976
 30
0.0
 11
-0.1490969817133383
 21
0.6874961010207965
 31
0.0
  0
LINE
  5
612
330
2
100
AcDbEntity
  8
0
100
AcDbLine
 10
0.3184438539622221
 20
0.6420461010207976
 30
0.0
 11
0.3971734361244437
 21
0.6875006464753426
 31
0.0
  0
LINE
  5
613
330
2
100
AcDbEntity
  8
0
100
AcDbLine
 10
-0.2278265638755563
 20
0.6420415555662515
 30
0.0
 11
-0.1490969817133383
 21
0.6874961010207965
 31
0.0
  0
LINE
  5
614
330
2
100
AcDbEntity
  8
0
100
AcDbLine
 10
0.3184438539622221
 20
0.2784097373844343
 30
0.0
 11
-0.1490969817133383
 21
0.3238597373844332
 31
0.0
  0
LINE
  5
615
330
2
100
AcDbEntity
  8
0
100
AcDbLine
 10
0.3184438539622221
 20
0.3693188282935243
 30
0.0
 11
-0.1490969817133383
 21
0.4147688282935249
 31
0.0
  0
LINE
  5
616
330
2
100
AcDbEntity
  8
0
100
AcDbLine
 10
0.3184438539622221
 20
0.460227919202616
 30
0.0
 11
-0.1490969817133383
 21
0.5056779192026149
 31
0.0
  0
LINE
  5
617
330
2
100
AcDbEntity
  8
0
100
AcDbLine
 10
0.3184438539622221
 20
0.5511370101117059
 30
0.0
 11
-0.1490969817133383
 21
0.5965870101117066
 31
0.0
  0
LINE
  5
618
330
2
100
AcDbEntity
  8
0
100
AcDbLine
 10
-0.2278265638755563
 20
0.3693142828389799
 30
0.0
 11
0.3971734361244437
 21
0.3238642828389793
 31
0.0
  0
LINE
  5
619
330
2
100
AcDbEntity
  8
0
100
AcDbLine
 10
-0.2278265638755563
 20
0.4602233737480699
 30
0.0
 11
0.3971734361244437
 21
0.4147733737480692
 31
0.0
  0
LINE
  5
61A
330
2
100
AcDbEntity
  8
0
100
AcDbLine
 10
-0.2278265638755563
 20
0.5511324646571616
 30
0.0
 11
0.3971734361244437
 21
0.5056824646571609
 31
0.0
  0
LINE
  5
61B
330
2
100
AcDbEntity
  8
0
100
AcDbLine
 10
-0.2278265638755563
 20
0.6420415555662515
 30
0.0
 11
0.3971734361244437
 21
0.5965915555662509
 31
0.0
  0
LINE
  5
61C
330
2
100
AcDbEntity
  8
0
100
AcDbLine
 10
0.3971734361244437
 20
0.5056824646571609
 30
0.0
 11
0.3184438539622221
 21
0.5511370101117059
 31
0.0
  0
LINE
  5
61D
330
2
100
AcDbEntity
  8
0
100
AcDbLine
 10
0.3184438539622221
 20
0.2784097373844343
 30
0.0
 11
0.3971734361244437
 21
0.3238642828389793
 31
0.0
  0
LINE
  5
61E
330
2
100
AcDbEntity
  8
0
100
AcDbLine
 10
0.3971734361244437
 20
0.3238642828389793
 30
0.0
 11
0.3184438539622221
 21
0.3693188282935243
 31
0.0
  0
LINE
  5
61F
330
2
100
AcDbEntity
  8
0
100
AcDbLine
 10
0.3184438539622221
 20
0.3693188282935243
 30
0.0
 11
0.3971734361244437
 21
0.4147733737480692
 31
0.0
  0
LINE
  5
620
330
2
100
AcDbEntity
  8
0
100
AcDbLine
 10
0.3971734361244437
 20
0.414773373748071
 30
0.0
 11
0.3184438539622221
 21
0.460227919202616
 31
0.0
  0
LINE
  5
621
330
2
100
AcDbEntity
  8
0
100
AcDbLine
 10
0.3184438539622221
 20
0.460227919202616
 30
0.0
 11
0.3971734361244437
 21
0.5056824646571609
 31
0.0
  0
LINE
  5
622
330
2
100
AcDbEntity
  8
0
100
AcDbLine
 10
0.3184438539622221
 20
0.5511370101117059
 30
0.0
 11
0.3971734361244437
 21
0.5965915555662509
 31
0.0
  0
LINE
  5
623
330
2
100
AcDbEntity
  8
0
100
AcDbLine
 10
0.3971734361244437
 20
0.5965915555662527
 30
0.0
 11
0.3184438539622221
 21
0.6420461010207976
 31
0.0
  0
LINE
  5
624
330
2
100
AcDbEntity
  8
0
100
AcDbLine
 10
-0.1490969817133383
 20
0.5056779192026149
 30
0.0
 11
-0.2278265638755563
 21
0.5511324646571598
 31
0.0
  0
LINE
  5
625
330
2
100
AcDbEntity
  8
0
100
AcDbLine
 10
-0.2278265638755563
 20
0.2784051919298882
 30
0.0
 11
-0.1490969817133383
 21
0.3238597373844332
 31
0.0
  0
LINE
  5
626
330
2
100
AcDbEntity
  8
0
100
AcDbLine
 10
-0.1490969817133383
 20
0.3238597373844332
 30
0.0
 11
-0.2278265638755563
 21
0.3693142828389782
 31
0.0
  0
LINE
  5
627
330
2
100
AcDbEntity
  8
0
100
AcDbLine
 10
-0.2278265638755563
 20
0.3693142828389799
 30
0.0
 11
-0.1490969817133383
 21
0.4147688282935249
 31
0.0
  0
LINE
  5
628
330
2
100
AcDbEntity
  8
0
100
AcDbLine
 10
-0.1490969817133383
 20
0.4147688282935249
 30
0.0
 11
-0.2278265638755563
 21
0.4602233737480699
 31
0.0
  0
LINE
  5
629
330
2
100
AcDbEntity
  8
0
100
AcDbLine
 10
-0.2278265638755563
 20
0.4602233737480699
 30
0.0
 11
-0.1490969817133383
 21
0.5056779192026149
 31
0.0
  0
LINE
  5
62A
330
2
100
AcDbEntity
  8
0
100
AcDbLine
 10
-0.2278265638755563
 20
0.5511324646571616
 30
0.0
 11
-0.1490969817133383
 21
0.5965870101117066
 31
0.0
  0
LINE
  5
62B
330
2
100
AcDbEntity
  8
0
100
AcDbLine
 10
-0.1490969817133383
 20
0.5965870101117066
 30
0.0
 11
-0.2278265638755563
 21
0.6420415555662515
 31
0.0
  0
LINE
  5
62C
330
2
100
AcDbEntity
  8
0
100
AcDbLine
 10
0.3184438539622221
 20
0.7329551919298893
 30
0.0
 11
-0.1490969817133383
 21
0.7784051919298882
 31
0.0
  0
LINE
  5
62D
330
2
100
AcDbEntity
  8
0
100
AcDbLine
 10
0.3184438539622221
 20
0.8238642828389793
 30
0.0
 11
-0.1490969817133383
 21
0.8693142828389799
 31
0.0
  0
LINE
  5
62E
330
2
100
AcDbEntity
  8
0
100
AcDbLine
 10
0.3184438539622221
 20
0.9147733737480692
 30
0.0
 11
-0.1490969817133383
 21
0.9602233737480717
 31
0.0
  0
LINE
  5
62F
330
2
100
AcDbEntity
  8
0
100
AcDbLine
 10
-0.2278265638755563
 20
0.7329506464753433
 30
0.0
 11
0.3971734361244437
 21
0.6875006464753426
 31
0.0
  0
LINE
  5
630
330
2
100
AcDbEntity
  8
0
100
AcDbLine
 10
-0.2278265638755563
 20
0.823859737384435
 30
0.0
 11
0.3971734361244437
 21
0.7784097373844343
 31
0.0
  0
LINE
  5
631
330
2
100
AcDbEntity
  8
0
100
AcDbLine
 10
-0.2278265638755563
 20
0.9147688282935249
 30
0.0
 11
0.3971734361244437
 21
0.8693188282935243
 31
0.0
  0
LINE
  5
632
330
2
100
AcDbEntity
  8
0
100
AcDbLine
 10
-0.2278265638755563
 20
1.005677919202615
 30
0.0
 11
0.3971734361244437
 21
0.960227919202616
 31
0.0
  0
LINE
  5
633
330
2
100
AcDbEntity
  8
0
100
AcDbLine
 10
0.3184438539622221
 20
0.9147733737480692
 30
0.0
 11
0.3971734361244437
 21
0.960227919202616
 31
0.0
  0
LINE
  5
634
330
2
100
AcDbEntity
  8
0
100
AcDbLine
 10
0.3971734361244437
 20
0.6875006464753444
 30
0.0
 11
0.3184438539622221
 21
0.7329551919298893
 31
0.0
  0
LINE
  5
635
330
2
100
AcDbEntity
  8
0
100
AcDbLine
 10
0.3184438539622221
 20
0.7329551919298893
 30
0.0
 11
0.3971734361244437
 21
0.7784097373844343
 31
0.0
  0
LINE
  5
636
330
2
100
AcDbEntity
  8
0
100
AcDbLine
 10
0.3971734361244437
 20
0.7784097373844343
 30
0.0
 11
0.3184438539622221
 21
0.8238642828389793
 31
0.0
  0
LINE
  5
637
330
2
100
AcDbEntity
  8
0
100
AcDbLine
 10
0.3184438539622221
 20
0.8238642828389793
 30
0.0
 11
0.3971734361244437
 21
0.8693188282935243
 31
0.0
  0
LINE
  5
638
330
2
100
AcDbEntity
  8
0
100
AcDbLine
 10
0.3971734361244437
 20
0.869318828293526
 30
0.0
 11
0.3184438539622221
 21
0.9147733737480692
 31
0.0
  0
LINE
  5
639
330
2
100
AcDbEntity
  8
0
100
AcDbLine
 10
0.3971734361244437
 20
0.960227919202616
 30
0.0
 11
0.3184438539622221
 21
1.005682464657163
 31
0.0
  0
LINE
  5
63A
330
2
100
AcDbEntity
  8
0
100
AcDbLine
 10
-0.2278265638755563
 20
0.9147688282935249
 30
0.0
 11
-0.1490969817133383
 21
0.9602233737480717
 31
0.0
  0
LINE
  5
63B
330
2
100
AcDbEntity
  8
0
100
AcDbLine
 10
-0.1490969817133383
 20
0.6874961010207965
 30
0.0
 11
-0.2278265638755563
 21
0.7329506464753415
 31
0.0
  0
LINE
  5
63C
330
2
100
AcDbEntity
  8
0
100
AcDbLine
 10
-0.2278265638755563
 20
0.7329506464753433
 30
0.0
 11
-0.1490969817133383
 21
0.7784051919298882
 31
0.0
  0
LINE
  5
63D
330
2
100
AcDbEntity
  8
0
100
AcDbLine
 10
-0.1490969817133383
 20
0.7784051919298882
 30
0.0
 11
-0.2278265638755563
 21
0.8238597373844332
 31
0.0
  0
LINE
  5
63E
330
2
100
AcDbEntity
  8
0
100
AcDbLine
 10
-0.2278265638755563
 20
0.823859737384435
 30
0.0
 11
-0.1490969817133383
 21
0.8693142828389799
 31
0.0
  0
LINE
  5
63F
330
2
100
AcDbEntity
  8
0
100
AcDbLine
 10
-0.1490969817133383
 20
0.8693142828389799
 30
0.0
 11
-0.2278265638755563
 21
0.9147688282935249
 31
0.0
  0
LINE
  5
640
330
2
100
AcDbEntity
  8
0
100
AcDbLine
 10
-0.1490969817133383
 20
0.9602233737480717
 30
0.0
 11
-0.2278265638755563
 21
1.005677919202615
 31
0.0
  0
LINE
  5
641
330
2
100
AcDbEntity
  8
0
100
AcDbLine
 10
0.3971734361244437
 20
1.414773373748073
 30
0.0
 11
0.3184438539622221
 21
1.460227919202618
 31
0.0
  0
LINE
  5
642
330
2
100
AcDbEntity
  8
0
100
AcDbLine
 10
-0.2278265638755563
 20
1.460223373748072
 30
0.0
 11
0.3971734361244437
 21
1.414773373748071
 31
0.0
  0
LINE
  5
643
330
2
100
AcDbEntity
  8
0
100
AcDbLine
 10
-0.1490969817133383
 20
1.414768828293525
 30
0.0
 11
-0.2278265638755563
 21
1.460223373748072
 31
0.0
  0
LINE
  5
644
330
2
100
AcDbEntity
  8
0
100
AcDbLine
 10
0.3184438539622221
 20
1.187500646475346
 30
0.0
 11
-0.1490969817133383
 21
1.232950646475345
 31
0.0
  0
LINE
  5
645
330
2
100
AcDbEntity
  8
0
100
AcDbLine
 10
0.3184438539622221
 20
1.278409737384436
 30
0.0
 11
-0.1490969817133383
 21
1.323859737384435
 31
0.0
  0
LINE
  5
646
330
2
100
AcDbEntity
  8
0
100
AcDbLine
 10
0.3184438539622221
 20
1.369318828293526
 30
0.0
 11
-0.1490969817133383
 21
1.414768828293525
 31
0.0
  0
LINE
  5
647
330
2
100
AcDbEntity
  8
0
100
AcDbLine
 10
0.3184438539622221
 20
1.096591555566253
 30
0.0
 11
-0.1490969817133383
 21
1.142041555566252
 31
0.0
  0
LINE
  5
648
330
2
100
AcDbEntity
  8
0
100
AcDbLine
 10
-0.2278265638755563
 20
1.27840519192989
 30
0.0
 11
0.3971734361244437
 21
1.232955191929889
 31
0.0
  0
LINE
  5
649
330
2
100
AcDbEntity
  8
0
100
AcDbLine
 10
-0.2278265638755563
 20
1.369314282838982
 30
0.0
 11
0.3971734361244437
 21
1.323864282838979
 31
0.0
  0
LINE
  5
64A
330
2
100
AcDbEntity
  8
0
100
AcDbLine
 10
-0.2278265638755563
 20
1.096587010111708
 30
0.0
 11
0.3971734361244437
 21
1.051137010111706
 31
0.0
  0
LINE
  5
64B
330
2
100
AcDbEntity
  8
0
100
AcDbLine
 10
-0.2278265638755563
 20
1.187496101020798
 30
0.0
 11
0.3971734361244437
 21
1.142046101020796
 31
0.0
  0
LINE
  5
64C
330
2
100
AcDbEntity
  8
0
100
AcDbLine
 10
0.3971734361244437
 20
1.323864282838983
 30
0.0
 11
0.3184438539622221
 21
1.369318828293526
 31
0.0
  0
LINE
  5
64D
330
2
100
AcDbEntity
  8
0
100
AcDbLine
 10
0.3184438539622221
 20
1.096591555566253
 30
0.0
 11
0.3971734361244437
 21
1.142046101020796
 31
0.0
  0
LINE
  5
64E
330
2
100
AcDbEntity
  8
0
100
AcDbLine
 10
0.3971734361244437
 20
1.051137010111706
 30
0.0
 11
0.3184438539622221
 21
1.096591555566253
 31
0.0
  0
LINE
  5
64F
330
2
100
AcDbEntity
  8
0
100
AcDbLine
 10
0.3971734361244437
 20
1.142046101020799
 30
0.0
 11
0.3184438539622221
 21
1.187500646475346
 31
0.0
  0
LINE
  5
650
330
2
100
AcDbEntity
  8
0
100
AcDbLine
 10
0.3184438539622221
 20
1.187500646475346
 30
0.0
 11
0.3971734361244437
 21
1.232955191929889
 31
0.0
  0
LINE
  5
651
330
2
100
AcDbEntity
  8
0
100
AcDbLine
 10
0.3184438539622221
 20
1.278409737384436
 30
0.0
 11
0.3971734361244437
 21
1.323864282838981
 31
0.0
  0
LINE
  5
652
330
2
100
AcDbEntity
  8
0
100
AcDbLine
 10
0.3971734361244437
 20
1.232955191929891
 30
0.0
 11
0.3184438539622221
 21
1.278409737384436
 31
0.0
  0
LINE
  5
653
330
2
100
AcDbEntity
  8
0
100
AcDbLine
 10
0.3184438539622221
 20
1.369318828293526
 30
0.0
 11
0.3971734361244437
 21
1.414773373748073
 31
0.0
  0
LINE
  5
654
330
2
100
AcDbEntity
  8
0
100
AcDbLine
 10
-0.1490969817133383
 20
1.323859737384435
 30
0.0
 11
-0.2278265638755563
 21
1.36931428283898
 31
0.0
  0
LINE
  5
655
330
2
100
AcDbEntity
  8
0
100
AcDbLine
 10
-0.2278265638755563
 20
1.096587010111708
 30
0.0
 11
-0.1490969817133383
 21
1.142041555566252
 31
0.0
  0
LINE
  5
656
330
2
100
AcDbEntity
  8
0
100
AcDbLine
 10
-0.1490969817133383
 20
1.051132464657162
 30
0.0
 11
-0.2278265638755563
 21
1.096587010111705
 31
0.0
  0
LINE
  5
657
330
2
100
AcDbEntity
  8
0
100
AcDbLine
 10
-0.2278265638755563
 20
1.187496101020798
 30
0.0
 11
-0.1490969817133383
 21
1.232950646475345
 31
0.0
  0
LINE
  5
658
330
2
100
AcDbEntity
  8
0
100
AcDbLine
 10
-0.1490969817133383
 20
1.232950646475345
 30
0.0
 11
-0.2278265638755563
 21
1.278405191929888
 31
0.0
  0
LINE
  5
659
330
2
100
AcDbEntity
  8
0
100
AcDbLine
 10
-0.2278265638755563
 20
1.27840519192989
 30
0.0
 11
-0.1490969817133383
 21
1.323859737384435
 31
0.0
  0
LINE
  5
65A
330
2
100
AcDbEntity
  8
0
100
AcDbLine
 10
-0.1490969817133383
 20
1.142041555566252
 30
0.0
 11
-0.2278265638755563
 21
1.187496101020798
 31
0.0
  0
LINE
  5
65B
330
2
100
AcDbEntity
  8
0
100
AcDbLine
 10
-0.2278265638755563
 20
1.369314282838982
 30
0.0
 11
-0.1490969817133383
 21
1.414768828293525
 31
0.0
  0
LINE
  5
65C
330
2
100
AcDbEntity
  8
0
100
AcDbLine
 10
0.3184438539622221
 20
1.460227919202618
 30
0.0
 11
-0.1490969817133383
 21
1.505677919202617
 31
0.0
  0
LINE
  5
65D
330
2
100
AcDbEntity
  8
0
100
AcDbLine
 10
0.3184438539622221
 20
1.55113701011171
 30
0.0
 11
-0.1490969817133383
 21
1.596587010111708
 31
0.0
  0
LINE
  5
65E
330
2
100
AcDbEntity
  8
0
100
AcDbLine
 10
0.3184438539622221
 20
1.642046101020799
 30
0.0
 11
-0.1490969817133383
 21
1.687496101020798
 31
0.0
  0
LINE
  5
65F
330
2
100
AcDbEntity
  8
0
100
AcDbLine
 10
0.3184438539622221
 20
1.732955191929889
 30
0.0
 11
-0.1490969817133383
 21
1.778405191929888
 31
0.0
  0
LINE
  5
660
330
2
100
AcDbEntity
  8
0
100
AcDbLine
 10
-0.2278265638755563
 20
1.551132464657162
 30
0.0
 11
0.3971734361244437
 21
1.505682464657163
 31
0.0
  0
LINE
  5
661
330
2
100
AcDbEntity
  8
0
100
AcDbLine
 10
-0.2278265638755563
 20
1.642041555566252
 30
0.0
 11
0.3971734361244437
 21
1.596591555566253
 31
0.0
  0
LINE
  5
662
330
2
100
AcDbEntity
  8
0
100
AcDbLine
 10
-0.2278265638755563
 20
1.732950646475345
 30
0.0
 11
0.3971734361244437
 21
1.687500646475343
 31
0.0
  0
LINE
  5
663
330
2
100
AcDbEntity
  8
0
100
AcDbLine
 10
0.3184438539622221
 20
1.732955191929889
 30
0.0
 11
0.3971734361244437
 21
1.778409737384436
 31
0.0
  0
LINE
  5
664
330
2
100
AcDbEntity
  8
0
100
AcDbLine
 10
0.3971734361244437
 20
1.505682464657163
 30
0.0
 11
0.3184438539622221
 21
1.55113701011171
 31
0.0
  0
LINE
  5
665
330
2
100
AcDbEntity
  8
0
100
AcDbLine
 10
0.3184438539622221
 20
1.460227919202618
 30
0.0
 11
0.3971734361244437
 21
1.505682464657163
 31
0.0
  0
LINE
  5
666
330
2
100
AcDbEntity
  8
0
100
AcDbLine
 10
0.3184438539622221
 20
1.55113701011171
 30
0.0
 11
0.3971734361244437
 21
1.596591555566253
 31
0.0
  0
LINE
  5
667
330
2
100
AcDbEntity
  8
0
100
AcDbLine
 10
0.3184438539622221
 20
1.642046101020799
 30
0.0
 11
0.3971734361244437
 21
1.687500646475343
 31
0.0
  0
LINE
  5
668
330
2
100
AcDbEntity
  8
0
100
AcDbLine
 10
0.3971734361244437
 20
1.596591555566253
 30
0.0
 11
0.3184438539622221
 21
1.642046101020799
 31
0.0
  0
LINE
  5
669
330
2
100
AcDbEntity
  8
0
100
AcDbLine
 10
0.3971734361244437
 20
1.687500646475346
 30
0.0
 11
0.3184438539622221
 21
1.732955191929889
 31
0.0
  0
LINE
  5
66A
330
2
100
AcDbEntity
  8
0
100
AcDbLine
 10
-0.2278265638755563
 20
1.732950646475345
 30
0.0
 11
-0.1490969817133383
 21
1.778405191929888
 31
0.0
  0
LINE
  5
66B
330
2
100
AcDbEntity
  8
0
100
AcDbLine
 10
-0.1490969817133383
 20
1.505677919202617
 30
0.0
 11
-0.2278265638755563
 21
1.551132464657162
 31
0.0
  0
LINE
  5
66C
330
2
100
AcDbEntity
  8
0
100
AcDbLine
 10
-0.2278265638755563
 20
1.460223373748072
 30
0.0
 11
-0.1490969817133383
 21
1.505677919202617
 31
0.0
  0
LINE
  5
66D
330
2
100
AcDbEntity
  8
0
100
AcDbLine
 10
-0.2278265638755563
 20
1.551132464657162
 30
0.0
 11
-0.1490969817133383
 21
1.596587010111708
 31
0.0
  0
LINE
  5
66E
330
2
100
AcDbEntity
  8
0
100
AcDbLine
 10
-0.1490969817133383
 20
1.596587010111708
 30
0.0
 11
-0.2278265638755563
 21
1.642041555566252
 31
0.0
  0
LINE
  5
66F
330
2
100
AcDbEntity
  8
0
100
AcDbLine
 10
-0.2278265638755563
 20
1.642041555566252
 30
0.0
 11
-0.1490969817133383
 21
1.687496101020798
 31
0.0
  0
LINE
  5
670
330
2
100
AcDbEntity
  8
0
100
AcDbLine
 10
-0.1490969817133383
 20
1.687496101020798
 30
0.0
 11
-0.2278265638755563
 21
1.732950646475342
 31
0.0
  0
LINE
  5
671
330
2
100
AcDbEntity
  8
0
100
AcDbLine
 10
0.3184438539622221
 20
3.369318828293526
 30
0.0
 11
-0.1490969817133383
 21
3.414768828293525
 31
0.0
  0
LINE
  5
672
330
2
100
AcDbEntity
  8
0
100
AcDbLine
 10
0.3184438539622221
 20
3.369318828293526
 30
0.0
 11
0.3971734361244437
 21
3.414773373748071
 31
0.0
  0
LINE
  5
673
330
2
100
AcDbEntity
  8
0
100
AcDbLine
 10
-0.2278265638755563
 20
3.36931428283898
 30
0.0
 11
-0.1490969817133383
 21
3.414768828293525
 31
0.0
  0
LINE
  5
674
330
2
100
AcDbEntity
  8
0
100
AcDbLine
 10
0.3184438539622221
 20
2.551137010111708
 30
0.0
 11
-0.1490969817133383
 21
2.596587010111707
 31
0.0
  0
LINE
  5
675
330
2
100
AcDbEntity
  8
0
100
AcDbLine
 10
0.3184438539622221
 20
2.551137010111708
 30
0.0
 11
0.3971734361244437
 21
2.596591555566253
 31
0.0
  0
LINE
  5
676
330
2
100
AcDbEntity
  8
0
100
AcDbLine
 10
-0.2278265638755563
 20
2.551132464657162
 30
0.0
 11
-0.1490969817133383
 21
2.596587010111707
 31
0.0
  0
LINE
  5
677
330
2
100
AcDbEntity
  8
0
100
AcDbLine
 10
0.3184438539622221
 20
2.187500646475344
 30
0.0
 11
-0.1490969817133383
 21
2.232950646475343
 31
0.0
  0
LINE
  5
678
330
2
100
AcDbEntity
  8
0
100
AcDbLine
 10
0.3184438539622221
 20
2.187500646475344
 30
0.0
 11
0.3971734361244437
 21
2.232955191929889
 31
0.0
  0
LINE
  5
679
330
2
100
AcDbEntity
  8
0
100
AcDbLine
 10
-0.2278265638755563
 20
2.187496101020798
 30
0.0
 11
-0.1490969817133383
 21
2.232950646475343
 31
0.0
  0
LINE
  5
67A
330
2
100
AcDbEntity
  8
0
100
AcDbLine
 10
0.3184438539622221
 20
1.823864282838981
 30
0.0
 11
-0.1490969817133383
 21
1.86931428283898
 31
0.0
  0
LINE
  5
67B
330
2
100
AcDbEntity
  8
0
100
AcDbLine
 10
0.3184438539622221
 20
1.914773373748073
 30
0.0
 11
-0.1490969817133383
 21
1.960223373748072
 31
0.0
  0
LINE
  5
67C
330
2
100
AcDbEntity
  8
0
100
AcDbLine
 10
0.3184438539622221
 20
2.005682464657163
 30
0.0
 11
-0.1490969817133383
 21
2.051132464657162
 31
0.0
  0
LINE
  5
67D
330
2
100
AcDbEntity
  8
0
100
AcDbLine
 10
0.3184438539622221
 20
2.096591555566253
 30
0.0
 11
-0.1490969817133383
 21
2.142041555566252
 31
0.0
  0
LINE
  5
67E
330
2
100
AcDbEntity
  8
0
100
AcDbLine
 10
-0.2278265638755563
 20
2.187496101020798
 30
0.0
 11
0.3971734361244437
 21
2.142046101020798
 31
0.0
  0
LINE
  5
67F
330
2
100
AcDbEntity
  8
0
100
AcDbLine
 10
-0.2278265638755563
 20
1.914768828293525
 30
0.0
 11
0.3971734361244437
 21
1.869318828293526
 31
0.0
  0
LINE
  5
680
330
2
100
AcDbEntity
  8
0
100
AcDbLine
 10
-0.2278265638755563
 20
2.005677919202617
 30
0.0
 11
0.3971734361244437
 21
1.960227919202616
 31
0.0
  0
LINE
  5
681
330
2
100
AcDbEntity
  8
0
100
AcDbLine
 10
-0.2278265638755563
 20
2.096587010111708
 30
0.0
 11
0.3971734361244437
 21
2.051137010111706
 31
0.0
  0
LINE
  5
682
330
2
100
AcDbEntity
  8
0
100
AcDbLine
 10
0.3971734361244437
 20
2.142046101020799
 30
0.0
 11
0.3184438539622221
 21
2.187500646475344
 31
0.0
  0
LINE
  5
683
330
2
100
AcDbEntity
  8
0
100
AcDbLine
 10
0.3184438539622221
 20
1.914773373748073
 30
0.0
 11
0.3971734361244437
 21
1.960227919202616
 31
0.0
  0
LINE
  5
684
330
2
100
AcDbEntity
  8
0
100
AcDbLine
 10
0.3184438539622221
 20
1.823864282838981
 30
0.0
 11
0.3971734361244437
 21
1.869318828293526
 31
0.0
  0
LINE
  5
685
330
2
100
AcDbEntity
  8
0
100
AcDbLine
 10
0.3971734361244437
 20
1.869318828293526
 30
0.0
 11
0.3184438539622221
 21
1.914773373748073
 31
0.0
  0
LINE
  5
686
330
2
100
AcDbEntity
  8
0
100
AcDbLine
 10
0.3184438539622221
 20
2.005682464657163
 30
0.0
 11
0.3971734361244437
 21
2.051137010111708
 31
0.0
  0
LINE
  5
687
330
2
100
AcDbEntity
  8
0
100
AcDbLine
 10
0.3971734361244437
 20
1.960227919202618
 30
0.0
 11
0.3184438539622221
 21
2.005682464657163
 31
0.0
  0
LINE
  5
688
330
2
100
AcDbEntity
  8
0
100
AcDbLine
 10
0.3184438539622221
 20
2.096591555566253
 30
0.0
 11
0.3971734361244437
 21
2.142046101020799
 31
0.0
  0
LINE
  5
689
330
2
100
AcDbEntity
  8
0
100
AcDbLine
 10
0.3971734361244437
 20
2.05113701011171
 30
0.0
 11
0.3184438539622221
 21
2.096591555566253
 31
0.0
  0
LINE
  5
68A
330
2
100
AcDbEntity
  8
0
100
AcDbLine
 10
-0.1490969817133383
 20
2.142041555566252
 30
0.0
 11
-0.2278265638755563
 21
2.187496101020798
 31
0.0
  0
LINE
  5
68B
330
2
100
AcDbEntity
  8
0
100
AcDbLine
 10
-0.2278265638755563
 20
1.914768828293525
 30
0.0
 11
-0.1490969817133383
 21
1.960223373748072
 31
0.0
  0
LINE
  5
68C
330
2
100
AcDbEntity
  8
0
100
AcDbLine
 10
-0.2278265638755563
 20
1.823859737384435
 30
0.0
 11
-0.1490969817133383
 21
1.86931428283898
 31
0.0
  0
LINE
  5
68D
330
2
100
AcDbEntity
  8
0
100
AcDbLine
 10
-0.1490969817133383
 20
1.86931428283898
 30
0.0
 11
-0.2278265638755563
 21
1.914768828293525
 31
0.0
  0
LINE
  5
68E
330
2
100
AcDbEntity
  8
0
100
AcDbLine
 10
-0.1490969817133383
 20
1.960223373748072
 30
0.0
 11
-0.2278265638755563
 21
2.005677919202615
 31
0.0
  0
LINE
  5
68F
330
2
100
AcDbEntity
  8
0
100
AcDbLine
 10
-0.2278265638755563
 20
2.005677919202617
 30
0.0
 11
-0.1490969817133383
 21
2.051132464657162
 31
0.0
  0
LINE
  5
690
330
2
100
AcDbEntity
  8
0
100
AcDbLine
 10
-0.1490969817133383
 20
2.051132464657162
 30
0.0
 11
-0.2278265638755563
 21
2.096587010111707
 31
0.0
  0
LINE
  5
691
330
2
100
AcDbEntity
  8
0
100
AcDbLine
 10
-0.2278265638755563
 20
2.096587010111708
 30
0.0
 11
-0.1490969817133383
 21
2.142041555566252
 31
0.0
  0
LINE
  5
692
330
2
100
AcDbEntity
  8
0
100
AcDbLine
 10
0.3184438539622221
 20
2.278409737384436
 30
0.0
 11
-0.1490969817133383
 21
2.323859737384435
 31
0.0
  0
LINE
  5
693
330
2
100
AcDbEntity
  8
0
100
AcDbLine
 10
0.3184438539622221
 20
2.369318828293526
 30
0.0
 11
-0.1490969817133383
 21
2.414768828293525
 31
0.0
  0
LINE
  5
694
330
2
100
AcDbEntity
  8
0
100
AcDbLine
 10
0.3184438539622221
 20
2.460227919202616
 30
0.0
 11
-0.1490969817133383
 21
2.505677919202615
 31
0.0
  0
LINE
  5
695
330
2
100
AcDbEntity
  8
0
100
AcDbLine
 10
-0.2278265638755563
 20
2.278405191929888
 30
0.0
 11
0.3971734361244437
 21
2.232955191929889
 31
0.0
  0
LINE
  5
696
330
2
100
AcDbEntity
  8
0
100
AcDbLine
 10
-0.2278265638755563
 20
2.36931428283898
 30
0.0
 11
0.3971734361244437
 21
2.323864282838979
 31
0.0
  0
LINE
  5
697
330
2
100
AcDbEntity
  8
0
100
AcDbLine
 10
-0.2278265638755563
 20
2.460223373748072
 30
0.0
 11
0.3971734361244437
 21
2.414773373748069
 31
0.0
  0
LINE
  5
698
330
2
100
AcDbEntity
  8
0
100
AcDbLine
 10
-0.2278265638755563
 20
2.551132464657162
 30
0.0
 11
0.3971734361244437
 21
2.505682464657161
 31
0.0
  0
LINE
  5
699
330
2
100
AcDbEntity
  8
0
100
AcDbLine
 10
0.3971734361244437
 20
2.323864282838981
 30
0.0
 11
0.3184438539622221
 21
2.369318828293526
 31
0.0
  0
LINE
  5
69A
330
2
100
AcDbEntity
  8
0
100
AcDbLine
 10
0.3184438539622221
 20
2.278409737384436
 30
0.0
 11
0.3971734361244437
 21
2.323864282838979
 31
0.0
  0
LINE
  5
69B
330
2
100
AcDbEntity
  8
0
100
AcDbLine
 10
0.3971734361244437
 20
2.232955191929889
 30
0.0
 11
0.3184438539622221
 21
2.278409737384436
 31
0.0
  0
LINE
  5
69C
330
2
100
AcDbEntity
  8
0
100
AcDbLine
 10
0.3184438539622221
 20
2.369318828293526
 30
0.0
 11
0.3971734361244437
 21
2.414773373748071
 31
0.0
  0
LINE
  5
69D
330
2
100
AcDbEntity
  8
0
100
AcDbLine
 10
0.3184438539622221
 20
2.460227919202616
 30
0.0
 11
0.3971734361244437
 21
2.505682464657163
 31
0.0
  0
LINE
  5
69E
330
2
100
AcDbEntity
  8
0
100
AcDbLine
 10
0.3971734361244437
 20
2.414773373748073
 30
0.0
 11
0.3184438539622221
 21
2.460227919202616
 31
0.0
  0
LINE
  5
69F
330
2
100
AcDbEntity
  8
0
100
AcDbLine
 10
0.3971734361244437
 20
2.505682464657163
 30
0.0
 11
0.3184438539622221
 21
2.551137010111708
 31
0.0
  0
LINE
  5
6A0
330
2
100
AcDbEntity
  8
0
100
AcDbLine
 10
-0.1490969817133383
 20
2.323859737384435
 30
0.0
 11
-0.2278265638755563
 21
2.369314282838978
 31
0.0
  0
LINE
  5
6A1
330
2
100
AcDbEntity
  8
0
100
AcDbLine
 10
-0.1490969817133383
 20
2.232950646475343
 30
0.0
 11
-0.2278265638755563
 21
2.278405191929888
 31
0.0
  0
LINE
  5
6A2
330
2
100
AcDbEntity
  8
0
100
AcDbLine
 10
-0.2278265638755563
 20
2.278405191929888
 30
0.0
 11
-0.1490969817133383
 21
2.323859737384435
 31
0.0
  0
LINE
  5
6A3
330
2
100
AcDbEntity
  8
0
100
AcDbLine
 10
-0.2278265638755563
 20
2.36931428283898
 30
0.0
 11
-0.1490969817133383
 21
2.414768828293525
 31
0.0
  0
LINE
  5
6A4
330
2
100
AcDbEntity
  8
0
100
AcDbLine
 10
-0.1490969817133383
 20
2.414768828293525
 30
0.0
 11
-0.2278265638755563
 21
2.46022337374807
 31
0.0
  0
LINE
  5
6A5
330
2
100
AcDbEntity
  8
0
100
AcDbLine
 10
-0.2278265638755563
 20
2.460223373748072
 30
0.0
 11
-0.1490969817133383
 21
2.505677919202615
 31
0.0
  0
LINE
  5
6A6
330
2
100
AcDbEntity
  8
0
100
AcDbLine
 10
-0.1490969817133383
 20
2.505677919202615
 30
0.0
 11
-0.2278265638755563
 21
2.551132464657162
 31
0.0
  0
LINE
  5
6A7
330
2
100
AcDbEntity
  8
0
100
AcDbLine
 10
0.3971734361244437
 20
2.960227919202618
 30
0.0
 11
0.3184438539622221
 21
3.005682464657161
 31
0.0
  0
LINE
  5
6A8
330
2
100
AcDbEntity
  8
0
100
AcDbLine
 10
-0.2278265638755563
 20
3.005677919202617
 30
0.0
 11
0.3971734361244437
 21
2.960227919202614
 31
0.0
  0
LINE
  5
6A9
330
2
100
AcDbEntity
  8
0
100
AcDbLine
 10
-0.1490969817133383
 20
2.96022337374807
 30
0.0
 11
-0.2278265638755563
 21
3.005677919202615
 31
0.0
  0
LINE
  5
6AA
330
2
100
AcDbEntity
  8
0
100
AcDbLine
 10
0.3184438539622221
 20
2.642046101020799
 30
0.0
 11
-0.1490969817133383
 21
2.687496101020798
 31
0.0
  0
LINE
  5
6AB
330
2
100
AcDbEntity
  8
0
100
AcDbLine
 10
0.3184438539622221
 20
2.732955191929889
 30
0.0
 11
-0.1490969817133383
 21
2.778405191929888
 31
0.0
  0
LINE
  5
6AC
330
2
100
AcDbEntity
  8
0
100
AcDbLine
 10
0.3184438539622221
 20
2.823864282838979
 30
0.0
 11
-0.1490969817133383
 21
2.869314282838978
 31
0.0
  0
LINE
  5
6AD
330
2
100
AcDbEntity
  8
0
100
AcDbLine
 10
0.3184438539622221
 20
2.914773373748071
 30
0.0
 11
-0.1490969817133383
 21
2.96022337374807
 31
0.0
  0
LINE
  5
6AE
330
2
100
AcDbEntity
  8
0
100
AcDbLine
 10
-0.2278265638755563
 20
2.642041555566252
 30
0.0
 11
0.3971734361244437
 21
2.596591555566253
 31
0.0
  0
LINE
  5
6AF
330
2
100
AcDbEntity
  8
0
100
AcDbLine
 10
-0.2278265638755563
 20
2.732950646475343
 30
0.0
 11
0.3971734361244437
 21
2.687500646475343
 31
0.0
  0
LINE
  5
6B0
330
2
100
AcDbEntity
  8
0
100
AcDbLine
 10
-0.2278265638755563
 20
2.823859737384435
 30
0.0
 11
0.3971734361244437
 21
2.778409737384433
 31
0.0
  0
LINE
  5
6B1
330
2
100
AcDbEntity
  8
0
100
AcDbLine
 10
-0.2278265638755563
 20
2.914768828293525
 30
0.0
 11
0.3971734361244437
 21
2.869318828293524
 31
0.0
  0
LINE
  5
6B2
330
2
100
AcDbEntity
  8
0
100
AcDbLine
 10
0.3184438539622221
 20
2.732955191929889
 30
0.0
 11
0.3971734361244437
 21
2.778409737384434
 31
0.0
  0
LINE
  5
6B3
330
2
100
AcDbEntity
  8
0
100
AcDbLine
 10
0.3184438539622221
 20
2.642046101020799
 30
0.0
 11
0.3971734361244437
 21
2.687500646475343
 31
0.0
  0
LINE
  5
6B4
330
2
100
AcDbEntity
  8
0
100
AcDbLine
 10
0.3971734361244437
 20
2.596591555566253
 30
0.0
 11
0.3184438539622221
 21
2.642046101020799
 31
0.0
  0
LINE
  5
6B5
330
2
100
AcDbEntity
  8
0
100
AcDbLine
 10
0.3971734361244437
 20
2.687500646475344
 30
0.0
 11
0.3184438539622221
 21
2.732955191929889
 31
0.0
  0
LINE
  5
6B6
330
2
100
AcDbEntity
  8
0
100
AcDbLine
 10
0.3184438539622221
 20
2.823864282838979
 30
0.0
 11
0.3971734361244437
 21
2.869318828293526
 31
0.0
  0
LINE
  5
6B7
330
2
100
AcDbEntity
  8
0
100
AcDbLine
 10
0.3971734361244437
 20
2.778409737384436
 30
0.0
 11
0.3184438539622221
 21
2.823864282838979
 31
0.0
  0
LINE
  5
6B8
330
2
100
AcDbEntity
  8
0
100
AcDbLine
 10
0.3184438539622221
 20
2.914773373748071
 30
0.0
 11
0.3971734361244437
 21
2.960227919202616
 31
0.0
  0
LINE
  5
6B9
330
2
100
AcDbEntity
  8
0
100
AcDbLine
 10
0.3971734361244437
 20
2.869318828293526
 30
0.0
 11
0.3184438539622221
 21
2.914773373748071
 31
0.0
  0
LINE
  5
6BA
330
2
100
AcDbEntity
  8
0
100
AcDbLine
 10
-0.2278265638755563
 20
2.732950646475343
 30
0.0
 11
-0.1490969817133383
 21
2.778405191929888
 31
0.0
  0
LINE
  5
6BB
330
2
100
AcDbEntity
  8
0
100
AcDbLine
 10
-0.1490969817133383
 20
2.596587010111707
 30
0.0
 11
-0.2278265638755563
 21
2.642041555566252
 31
0.0
  0
LINE
  5
6BC
330
2
100
AcDbEntity
  8
0
100
AcDbLine
 10
-0.2278265638755563
 20
2.642041555566252
 30
0.0
 11
-0.1490969817133383
 21
2.687496101020798
 31
0.0
  0
LINE
  5
6BD
330
2
100
AcDbEntity
  8
0
100
AcDbLine
 10
-0.1490969817133383
 20
2.687496101020798
 30
0.0
 11
-0.2278265638755563
 21
2.732950646475342
 31
0.0
  0
LINE
  5
6BE
330
2
100
AcDbEntity
  8
0
100
AcDbLine
 10
-0.1490969817133383
 20
2.778405191929888
 30
0.0
 11
-0.2278265638755563
 21
2.823859737384433
 31
0.0
  0
LINE
  5
6BF
330
2
100
AcDbEntity
  8
0
100
AcDbLine
 10
-0.2278265638755563
 20
2.823859737384435
 30
0.0
 11
-0.1490969817133383
 21
2.869314282838978
 31
0.0
  0
LINE
  5
6C0
330
2
100
AcDbEntity
  8
0
100
AcDbLine
 10
-0.1490969817133383
 20
2.869314282838978
 30
0.0
 11
-0.2278265638755563
 21
2.914768828293525
 31
0.0
  0
LINE
  5
6C1
330
2
100
AcDbEntity
  8
0
100
AcDbLine
 10
-0.2278265638755563
 20
2.914768828293525
 30
0.0
 11
-0.1490969817133383
 21
2.96022337374807
 31
0.0
  0
LINE
  5
6C2
330
2
100
AcDbEntity
  8
0
100
AcDbLine
 10
0.3184438539622221
 20
3.005682464657161
 30
0.0
 11
-0.1490969817133383
 21
3.05113246465716
 31
0.0
  0
LINE
  5
6C3
330
2
100
AcDbEntity
  8
0
100
AcDbLine
 10
0.3184438539622221
 20
3.096591555566253
 30
0.0
 11
-0.1490969817133383
 21
3.142041555566252
 31
0.0
  0
LINE
  5
6C4
330
2
100
AcDbEntity
  8
0
100
AcDbLine
 10
0.3184438539622221
 20
3.187500646475344
 30
0.0
 11
-0.1490969817133383
 21
3.232950646475343
 31
0.0
  0
LINE
  5
6C5
330
2
100
AcDbEntity
  8
0
100
AcDbLine
 10
0.3184438539622221
 20
3.278409737384434
 30
0.0
 11
-0.1490969817133383
 21
3.323859737384433
 31
0.0
  0
LINE
  5
6C6
330
2
100
AcDbEntity
  8
0
100
AcDbLine
 10
-0.2278265638755563
 20
3.096587010111707
 30
0.0
 11
0.3971734361244437
 21
3.051137010111706
 31
0.0
  0
LINE
  5
6C7
330
2
100
AcDbEntity
  8
0
100
AcDbLine
 10
-0.2278265638755563
 20
3.187496101020797
 30
0.0
 11
0.3971734361244437
 21
3.142046101020798
 31
0.0
  0
LINE
  5
6C8
330
2
100
AcDbEntity
  8
0
100
AcDbLine
 10
-0.2278265638755563
 20
3.27840519192989
 30
0.0
 11
0.3971734361244437
 21
3.232955191929888
 31
0.0
  0
LINE
  5
6C9
330
2
100
AcDbEntity
  8
0
100
AcDbLine
 10
-0.2278265638755563
 20
3.36931428283898
 30
0.0
 11
0.3971734361244437
 21
3.323864282838979
 31
0.0
  0
LINE
  5
6CA
330
2
100
AcDbEntity
  8
0
100
AcDbLine
 10
0.3971734361244437
 20
3.142046101020798
 30
0.0
 11
0.3184438539622221
 21
3.187500646475344
 31
0.0
  0
LINE
  5
6CB
330
2
100
AcDbEntity
  8
0
100
AcDbLine
 10
0.3184438539622221
 20
3.005682464657161
 30
0.0
 11
0.3971734361244437
 21
3.051137010111708
 31
0.0
  0
LINE
  5
6CC
330
2
100
AcDbEntity
  8
0
100
AcDbLine
 10
0.3184438539622221
 20
3.096591555566253
 30
0.0
 11
0.3971734361244437
 21
3.142046101020798
 31
0.0
  0
LINE
  5
6CD
330
2
100
AcDbEntity
  8
0
100
AcDbLine
 10
0.3971734361244437
 20
3.051137010111708
 30
0.0
 11
0.3184438539622221
 21
3.096591555566253
 31
0.0
  0
LINE
  5
6CE
330
2
100
AcDbEntity
  8
0
100
AcDbLine
 10
0.3184438539622221
 20
3.187500646475344
 30
0.0
 11
0.3971734361244437
 21
3.232955191929888
 31
0.0
  0
LINE
  5
6CF
330
2
100
AcDbEntity
  8
0
100
AcDbLine
 10
0.3184438539622221
 20
3.278409737384434
 30
0.0
 11
0.3971734361244437
 21
3.323864282838981
 31
0.0
  0
LINE
  5
6D0
330
2
100
AcDbEntity
  8
0
100
AcDbLine
 10
0.3971734361244437
 20
3.232955191929891
 30
0.0
 11
0.3184438539622221
 21
3.278409737384434
 31
0.0
  0
LINE
  5
6D1
330
2
100
AcDbEntity
  8
0
100
AcDbLine
 10
0.3971734361244437
 20
3.323864282838981
 30
0.0
 11
0.3184438539622221
 21
3.369318828293526
 31
0.0
  0
LINE
  5
6D2
330
2
100
AcDbEntity
  8
0
100
AcDbLine
 10
-0.1490969817133383
 20
3.142041555566252
 30
0.0
 11
-0.2278265638755563
 21
3.187496101020797
 31
0.0
  0
LINE
  5
6D3
330
2
100
AcDbEntity
  8
0
100
AcDbLine
 10
-0.2278265638755563
 20
3.005677919202617
 30
0.0
 11
-0.1490969817133383
 21
3.05113246465716
 31
0.0
  0
LINE
  5
6D4
330
2
100
AcDbEntity
  8
0
100
AcDbLine
 10
-0.1490969817133383
 20
3.05113246465716
 30
0.0
 11
-0.2278265638755563
 21
3.096587010111707
 31
0.0
  0
LINE
  5
6D5
330
2
100
AcDbEntity
  8
0
100
AcDbLine
 10
-0.2278265638755563
 20
3.096587010111707
 30
0.0
 11
-0.1490969817133383
 21
3.142041555566252
 31
0.0
  0
LINE
  5
6D6
330
2
100
AcDbEntity
  8
0
100
AcDbLine
 10
-0.2278265638755563
 20
3.187496101020797
 30
0.0
 11
-0.1490969817133383
 21
3.232950646475343
 31
0.0
  0
LINE
  5
6D7
330
2
100
AcDbEntity
  8
0
100
AcDbLine
 10
-0.1490969817133383
 20
3.232950646475343
 30
0.0
 11
-0.2278265638755563
 21
3.278405191929886
 31
0.0
  0
LINE
  5
6D8
330
2
100
AcDbEntity
  8
0
100
AcDbLine
 10
-0.2278265638755563
 20
3.27840519192989
 30
0.0
 11
-0.1490969817133383
 21
3.323859737384433
 31
0.0
  0
LINE
  5
6D9
330
2
100
AcDbEntity
  8
0
100
AcDbLine
 10
-0.1490969817133383
 20
3.323859737384433
 30
0.0
 11
-0.2278265638755563
 21
3.36931428283898
 31
0.0
  0
LINE
  5
6DA
330
2
100
AcDbEntity
  8
0
100
AcDbLine
 10
0.4349681345954863
 20
4.906246101020798
 30
0.0
 11
-0.2654469487323219
 21
4.906246101020798
 31
0.0
  0
LINE
  5
6DB
330
2
100
AcDbEntity
  8
0
100
AcDbLine
 10
-0.2799515638755388
 20
4.906246101020798
 30
0.0
 11
-0.227826563875535
 21
4.749996101020798
 31
0.0
  0
LINE
  5
6DC
330
2
100
AcDbEntity
  8
0
100
AcDbLine
 10
0.3971734361244437
 20
4.142046101020798
 30
0.0
 11
0.3184438539622221
 21
4.187500646475343
 31
0.0
  0
LINE
  5
6DD
330
2
100
AcDbEntity
  8
0
100
AcDbLine
 10
-0.2278265638755563
 20
4.187496101020798
 30
0.0
 11
0.3971734361244437
 21
4.142046101020798
 31
0.0
  0
LINE
  5
6DE
330
2
100
AcDbEntity
  8
0
100
AcDbLine
 10
-0.1490969817133383
 20
4.142041555566252
 30
0.0
 11
-0.2278265638755563
 21
4.187496101020797
 31
0.0
  0
LINE
  5
6DF
330
2
100
AcDbEntity
  8
0
100
AcDbLine
 10
0.3184438539622221
 20
3.732955191929889
 30
0.0
 11
-0.1490969817133383
 21
3.778405191929888
 31
0.0
  0
LINE
  5
6E0
330
2
100
AcDbEntity
  8
0
100
AcDbLine
 10
0.3184438539622221
 20
3.732955191929889
 30
0.0
 11
0.3971734361244437
 21
3.778409737384434
 31
0.0
  0
LINE
  5
6E1
330
2
100
AcDbEntity
  8
0
100
AcDbLine
 10
-0.2278265638755563
 20
3.732950646475343
 30
0.0
 11
-0.1490969817133383
 21
3.778405191929888
 31
0.0
  0
LINE
  5
6E2
330
2
100
AcDbEntity
  8
0
100
AcDbLine
 10
0.3184438539622221
 20
3.460227919202618
 30
0.0
 11
-0.1490969817133383
 21
3.505677919202617
 31
0.0
  0
LINE
  5
6E3
330
2
100
AcDbEntity
  8
0
100
AcDbLine
 10
0.3184438539622221
 20
3.551137010111708
 30
0.0
 11
-0.1490969817133383
 21
3.596587010111707
 31
0.0
  0
LINE
  5
6E4
330
2
100
AcDbEntity
  8
0
100
AcDbLine
 10
0.3184438539622221
 20
3.642046101020798
 30
0.0
 11
-0.1490969817133383
 21
3.687496101020797
 31
0.0
  0
LINE
  5
6E5
330
2
100
AcDbEntity
  8
0
100
AcDbLine
 10
-0.2278265638755563
 20
3.46022337374807
 30
0.0
 11
0.3971734361244437
 21
3.414773373748071
 31
0.0
  0
LINE
  5
6E6
330
2
100
AcDbEntity
  8
0
100
AcDbLine
 10
-0.2278265638755563
 20
3.551132464657162
 30
0.0
 11
0.3971734361244437
 21
3.505682464657161
 31
0.0
  0
LINE
  5
6E7
330
2
100
AcDbEntity
  8
0
100
AcDbLine
 10
-0.2278265638755563
 20
3.642041555566253
 30
0.0
 11
0.3971734361244437
 21
3.596591555566251
 31
0.0
  0
LINE
  5
6E8
330
2
100
AcDbEntity
  8
0
100
AcDbLine
 10
-0.2278265638755563
 20
3.732950646475343
 30
0.0
 11
0.3971734361244437
 21
3.687500646475343
 31
0.0
  0
LINE
  5
6E9
330
2
100
AcDbEntity
  8
0
100
AcDbLine
 10
0.3184438539622221
 20
3.551137010111708
 30
0.0
 11
0.3971734361244437
 21
3.596591555566253
 31
0.0
  0
LINE
  5
6EA
330
2
100
AcDbEntity
  8
0
100
AcDbLine
 10
0.3184438539622221
 20
3.460227919202618
 30
0.0
 11
0.3971734361244437
 21
3.505682464657161
 31
0.0
  0
LINE
  5
6EB
330
2
100
AcDbEntity
  8
0
100
AcDbLine
 10
0.3971734361244437
 20
3.414773373748071
 30
0.0
 11
0.3184438539622221
 21
3.460227919202618
 31
0.0
  0
LINE
  5
6EC
330
2
100
AcDbEntity
  8
0
100
AcDbLine
 10
0.3971734361244437
 20
3.505682464657163
 30
0.0
 11
0.3184438539622221
 21
3.551137010111708
 31
0.0
  0
LINE
  5
6ED
330
2
100
AcDbEntity
  8
0
100
AcDbLine
 10
0.3184438539622221
 20
3.642046101020798
 30
0.0
 11
0.3971734361244437
 21
3.687500646475344
 31
0.0
  0
LINE
  5
6EE
330
2
100
AcDbEntity
  8
0
100
AcDbLine
 10
0.3971734361244437
 20
3.596591555566254
 30
0.0
 11
0.3184438539622221
 21
3.642046101020798
 31
0.0
  0
LINE
  5
6EF
330
2
100
AcDbEntity
  8
0
100
AcDbLine
 10
0.3971734361244437
 20
3.687500646475344
 30
0.0
 11
0.3184438539622221
 21
3.732955191929889
 31
0.0
  0
LINE
  5
6F0
330
2
100
AcDbEntity
  8
0
100
AcDbLine
 10
-0.2278265638755563
 20
3.551132464657162
 30
0.0
 11
-0.1490969817133383
 21
3.596587010111707
 31
0.0
  0
LINE
  5
6F1
330
2
100
AcDbEntity
  8
0
100
AcDbLine
 10
-0.1490969817133383
 20
3.414768828293525
 30
0.0
 11
-0.2278265638755563
 21
3.46022337374807
 31
0.0
  0
LINE
  5
6F2
330
2
100
AcDbEntity
  8
0
100
AcDbLine
 10
-0.2278265638755563
 20
3.46022337374807
 30
0.0
 11
-0.1490969817133383
 21
3.505677919202617
 31
0.0
  0
LINE
  5
6F3
330
2
100
AcDbEntity
  8
0
100
AcDbLine
 10
-0.1490969817133383
 20
3.505677919202617
 30
0.0
 11
-0.2278265638755563
 21
3.55113246465716
 31
0.0
  0
LINE
  5
6F4
330
2
100
AcDbEntity
  8
0
100
AcDbLine
 10
-0.1490969817133383
 20
3.596587010111707
 30
0.0
 11
-0.2278265638755563
 21
3.642041555566252
 31
0.0
  0
LINE
  5
6F5
330
2
100
AcDbEntity
  8
0
100
AcDbLine
 10
-0.2278265638755563
 20
3.642041555566253
 30
0.0
 11
-0.1490969817133383
 21
3.687496101020797
 31
0.0
  0
LINE
  5
6F6
330
2
100
AcDbEntity
  8
0
100
AcDbLine
 10
-0.1490969817133383
 20
3.687496101020797
 30
0.0
 11
-0.2278265638755563
 21
3.732950646475343
 31
0.0
  0
LINE
  5
6F7
330
2
100
AcDbEntity
  8
0
100
AcDbLine
 10
0.3184438539622221
 20
3.823864282838979
 30
0.0
 11
-0.1490969817133383
 21
3.86931428283898
 31
0.0
  0
LINE
  5
6F8
330
2
100
AcDbEntity
  8
0
100
AcDbLine
 10
0.3184438539622221
 20
3.914773373748071
 30
0.0
 11
-0.1490969817133383
 21
3.96022337374807
 31
0.0
  0
LINE
  5
6F9
330
2
100
AcDbEntity
  8
0
100
AcDbLine
 10
0.3184438539622221
 20
4.005682464657161
 30
0.0
 11
-0.1490969817133383
 21
4.051132464657162
 31
0.0
  0
LINE
  5
6FA
330
2
100
AcDbEntity
  8
0
100
AcDbLine
 10
0.3184438539622221
 20
4.096591555566253
 30
0.0
 11
-0.1490969817133383
 21
4.142041555566252
 31
0.0
  0
LINE
  5
6FB
330
2
100
AcDbEntity
  8
0
100
AcDbLine
 10
-0.2278265638755563
 20
3.823859737384435
 30
0.0
 11
0.3971734361244437
 21
3.778409737384434
 31
0.0
  0
LINE
  5
6FC
330
2
100
AcDbEntity
  8
0
100
AcDbLine
 10
-0.2278265638755563
 20
3.914768828293525
 30
0.0
 11
0.3971734361244437
 21
3.869318828293524
 31
0.0
  0
LINE
  5
6FD
330
2
100
AcDbEntity
  8
0
100
AcDbLine
 10
-0.2278265638755563
 20
4.005677919202617
 30
0.0
 11
0.3971734361244437
 21
3.960227919202616
 31
0.0
  0
LINE
  5
6FE
330
2
100
AcDbEntity
  8
0
100
AcDbLine
 10
-0.2278265638755563
 20
4.096587010111707
 30
0.0
 11
0.3971734361244437
 21
4.051137010111706
 31
0.0
  0
LINE
  5
6FF
330
2
100
AcDbEntity
  8
0
100
AcDbLine
 10
0.3971734361244437
 20
3.778409737384434
 30
0.0
 11
0.3184438539622221
 21
3.823864282838979
 31
0.0
  0
LINE
  5
700
330
2
100
AcDbEntity
  8
0
100
AcDbLine
 10
0.3971734361244437
 20
3.960227919202616
 30
0.0
 11
0.3184438539622221
 21
4.005682464657161
 31
0.0
  0
LINE
  5
701
330
2
100
AcDbEntity
  8
0
100
AcDbLine
 10
0.3184438539622221
 20
3.823864282838979
 30
0.0
 11
0.3971734361244437
 21
3.869318828293524
 31
0.0
  0
LINE
  5
702
330
2
100
AcDbEntity
  8
0
100
AcDbLine
 10
0.3971734361244437
 20
3.869318828293526
 30
0.0
 11
0.3184438539622221
 21
3.914773373748071
 31
0.0
  0
LINE
  5
703
330
2
100
AcDbEntity
  8
0
100
AcDbLine
 10
0.3184438539622221
 20
3.914773373748071
 30
0.0
 11
0.3971734361244437
 21
3.960227919202616
 31
0.0
  0
LINE
  5
704
330
2
100
AcDbEntity
  8
0
100
AcDbLine
 10
0.3184438539622221
 20
4.005682464657161
 30
0.0
 11
0.3971734361244437
 21
4.051137010111706
 31
0.0
  0
LINE
  5
705
330
2
100
AcDbEntity
  8
0
100
AcDbLine
 10
0.3971734361244437
 20
4.051137010111708
 30
0.0
 11
0.3184438539622221
 21
4.096591555566253
 31
0.0
  0
LINE
  5
706
330
2
100
AcDbEntity
  8
0
100
AcDbLine
 10
0.3184438539622221
 20
4.096591555566253
 30
0.0
 11
0.3971734361244437
 21
4.142046101020798
 31
0.0
  0
LINE
  5
707
330
2
100
AcDbEntity
  8
0
100
AcDbLine
 10
-0.1490969817133383
 20
3.778405191929888
 30
0.0
 11
-0.2278265638755563
 21
3.823859737384433
 31
0.0
  0
LINE
  5
708
330
2
100
AcDbEntity
  8
0
100
AcDbLine
 10
-0.1490969817133383
 20
3.96022337374807
 30
0.0
 11
-0.2278265638755563
 21
4.005677919202615
 31
0.0
  0
LINE
  5
709
330
2
100
AcDbEntity
  8
0
100
AcDbLine
 10
-0.2278265638755563
 20
3.823859737384435
 30
0.0
 11
-0.1490969817133383
 21
3.86931428283898
 31
0.0
  0
LINE
  5
70A
330
2
100
AcDbEntity
  8
0
100
AcDbLine
 10
-0.1490969817133383
 20
3.86931428283898
 30
0.0
 11
-0.2278265638755563
 21
3.914768828293525
 31
0.0
  0
LINE
  5
70B
330
2
100
AcDbEntity
  8
0
100
AcDbLine
 10
-0.2278265638755563
 20
3.914768828293525
 30
0.0
 11
-0.1490969817133383
 21
3.96022337374807
 31
0.0
  0
LINE
  5
70C
330
2
100
AcDbEntity
  8
0
100
AcDbLine
 10
-0.2278265638755563
 20
4.005677919202617
 30
0.0
 11
-0.1490969817133383
 21
4.051132464657162
 31
0.0
  0
LINE
  5
70D
330
2
100
AcDbEntity
  8
0
100
AcDbLine
 10
-0.1490969817133383
 20
4.051132464657162
 30
0.0
 11
-0.2278265638755563
 21
4.096587010111707
 31
0.0
  0
LINE
  5
70E
330
2
100
AcDbEntity
  8
0
100
AcDbLine
 10
-0.2278265638755563
 20
4.096587010111707
 30
0.0
 11
-0.1490969817133383
 21
4.142041555566252
 31
0.0
  0
LINE
  5
70F
330
2
100
AcDbEntity
  8
0
100
AcDbLine
 10
0.3971734361244437
 20
4.505682464657163
 30
0.0
 11
0.3184438539622221
 21
4.551137010111708
 31
0.0
  0
LINE
  5
710
330
2
100
AcDbEntity
  8
0
100
AcDbLine
 10
-0.2278265638755563
 20
4.551132464657162
 30
0.0
 11
0.3971734361244437
 21
4.505682464657161
 31
0.0
  0
LINE
  5
711
330
2
100
AcDbEntity
  8
0
100
AcDbLine
 10
-0.1490969817133383
 20
4.505677919202615
 30
0.0
 11
-0.2278265638755563
 21
4.55113246465716
 31
0.0
  0
LINE
  5
712
330
2
100
AcDbEntity
  8
0
100
AcDbLine
 10
0.3184438539622221
 20
4.187500646475343
 30
0.0
 11
-0.1490969817133383
 21
4.232950646475343
 31
0.0
  0
LINE
  5
713
330
2
100
AcDbEntity
  8
0
100
AcDbLine
 10
0.3184438539622221
 20
4.278409737384434
 30
0.0
 11
-0.1490969817133383
 21
4.323859737384433
 31
0.0
  0
LINE
  5
714
330
2
100
AcDbEntity
  8
0
100
AcDbLine
 10
0.3184438539622221
 20
4.369318828293524
 30
0.0
 11
-0.1490969817133383
 21
4.414768828293525
 31
0.0
  0
LINE
  5
715
330
2
100
AcDbEntity
  8
0
100
AcDbLine
 10
0.3184438539622221
 20
4.460227919202616
 30
0.0
 11
-0.1490969817133383
 21
4.505677919202615
 31
0.0
  0
LINE
  5
716
330
2
100
AcDbEntity
  8
0
100
AcDbLine
 10
-0.2278265638755563
 20
4.278405191929888
 30
0.0
 11
0.3971734361244437
 21
4.232955191929888
 31
0.0
  0
LINE
  5
717
330
2
100
AcDbEntity
  8
0
100
AcDbLine
 10
-0.2278265638755563
 20
4.36931428283898
 30
0.0
 11
0.3971734361244437
 21
4.323864282838979
 31
0.0
  0
LINE
  5
718
330
2
100
AcDbEntity
  8
0
100
AcDbLine
 10
-0.2278265638755563
 20
4.46022337374807
 30
0.0
 11
0.3971734361244437
 21
4.414773373748069
 31
0.0
  0
LINE
  5
719
330
2
100
AcDbEntity
  8
0
100
AcDbLine
 10
0.3184438539622221
 20
4.187500646475343
 30
0.0
 11
0.3971734361244437
 21
4.232955191929888
 31
0.0
  0
LINE
  5
71A
330
2
100
AcDbEntity
  8
0
100
AcDbLine
 10
0.3184438539622221
 20
4.369318828293524
 30
0.0
 11
0.3971734361244437
 21
4.414773373748069
 31
0.0
  0
LINE
  5
71B
330
2
100
AcDbEntity
  8
0
100
AcDbLine
 10
0.3971734361244437
 20
4.232955191929889
 30
0.0
 11
0.3184438539622221
 21
4.278409737384434
 31
0.0
  0
LINE
  5
71C
330
2
100
AcDbEntity
  8
0
100
AcDbLine
 10
0.3184438539622221
 20
4.278409737384434
 30
0.0
 11
0.3971734361244437
 21
4.323864282838979
 31
0.0
  0
LINE
  5
71D
330
2
100
AcDbEntity
  8
0
100
AcDbLine
 10
0.3971734361244437
 20
4.323864282838979
 30
0.0
 11
0.3184438539622221
 21
4.369318828293524
 31
0.0
  0
LINE
  5
71E
330
2
100
AcDbEntity
  8
0
100
AcDbLine
 10
0.3971734361244437
 20
4.414773373748071
 30
0.0
 11
0.3184438539622221
 21
4.460227919202616
 31
0.0
  0
LINE
  5
71F
330
2
100
AcDbEntity
  8
0
100
AcDbLine
 10
0.3184438539622221
 20
4.460227919202616
 30
0.0
 11
0.3971734361244437
 21
4.505682464657161
 31
0.0
  0
LINE
  5
720
330
2
100
AcDbEntity
  8
0
100
AcDbLine
 10
-0.2278265638755563
 20
4.187496101020798
 30
0.0
 11
-0.1490969817133383
 21
4.232950646475343
 31
0.0
  0
LINE
  5
721
330
2
100
AcDbEntity
  8
0
100
AcDbLine
 10
-0.2278265638755563
 20
4.36931428283898
 30
0.0
 11
-0.1490969817133383
 21
4.414768828293525
 31
0.0
  0
LINE
  5
722
330
2
100
AcDbEntity
  8
0
100
AcDbLine
 10
-0.1490969817133383
 20
4.232950646475343
 30
0.0
 11
-0.2278265638755563
 21
4.278405191929888
 31
0.0
  0
LINE
  5
723
330
2
100
AcDbEntity
  8
0
100
AcDbLine
 10
-0.2278265638755563
 20
4.278405191929888
 30
0.0
 11
-0.1490969817133383
 21
4.323859737384433
 31
0.0
  0
LINE
  5
724
330
2
100
AcDbEntity
  8
0
100
AcDbLine
 10
-0.1490969817133383
 20
4.323859737384433
 30
0.0
 11
-0.2278265638755563
 21
4.369314282838978
 31
0.0
  0
LINE
  5
725
330
2
100
AcDbEntity
  8
0
100
AcDbLine
 10
-0.1490969817133383
 20
4.414768828293525
 30
0.0
 11
-0.2278265638755563
 21
4.46022337374807
 31
0.0
  0
LINE
  5
726
330
2
100
AcDbEntity
  8
0
100
AcDbLine
 10
-0.2278265638755563
 20
4.46022337374807
 30
0.0
 11
-0.1490969817133383
 21
4.505677919202615
 31
0.0
  0
LINE
  5
727
330
2
100
AcDbEntity
  8
0
100
AcDbLine
 10
0.3184438539622221
 20
4.551137010111708
 30
0.0
 11
-0.1490969817133383
 21
4.596587010111707
 31
0.0
  0
LINE
  5
728
330
2
100
AcDbEntity
  8
0
100
AcDbLine
 10
0.3184438539622221
 20
4.642046101020798
 30
0.0
 11
-0.1490969817133383
 21
4.687496101020798
 31
0.0
  0
LINE
  5
729
330
2
100
AcDbEntity
  8
0
100
AcDbLine
 10
-0.2278265638755563
 20
4.642041555566253
 30
0.0
 11
0.3971734361244437
 21
4.596591555566253
 31
0.0
  0
LINE
  5
72A
330
2
100
AcDbEntity
  8
0
100
AcDbLine
 10
-0.2278265638755563
 20
4.732950646475343
 30
0.0
 11
0.3971734361244437
 21
4.687500646475343
 31
0.0
  0
LINE
  5
72B
330
2
100
AcDbEntity
  8
0
100
AcDbLine
 10
-0.227826563875535
 20
4.7499961010208
 30
0.0
 11
0.397173436124465
 21
4.7499961010208
 31
0.0
  0
LINE
  5
72C
330
2
100
AcDbEntity
  8
0
100
AcDbLine
 10
0.397173436124465
 20
4.749996101020798
 30
0.0
 11
0.4492984361244616
 21
4.906246101020798
 31
0.0
  0
LINE
  5
72D
330
2
100
AcDbEntity
  8
0
100
AcDbLine
 10
0.3971734361244437
 20
4.596591555566253
 30
0.0
 11
0.3184438539622221
 21
4.642046101020798
 31
0.0
  0
LINE
  5
72E
330
2
100
AcDbEntity
  8
0
100
AcDbLine
 10
0.3184438539622221
 20
4.551137010111708
 30
0.0
 11
0.3971734361244437
 21
4.596591555566253
 31
0.0
  0
LINE
  5
72F
330
2
100
AcDbEntity
  8
0
100
AcDbLine
 10
0.3184438539622221
 20
4.642046101020798
 30
0.0
 11
0.3971734361244437
 21
4.687500646475343
 31
0.0
  0
LINE
  5
730
330
2
100
AcDbEntity
  8
0
100
AcDbLine
 10
0.3971734361244437
 20
4.687500646475344
 30
0.0
 11
0.3184438539622221
 21
4.732955191929889
 31
0.0
  0
LINE
  5
731
330
2
100
AcDbEntity
  8
0
100
AcDbLine
 10
0.3184438539622221
 20
4.732955191929889
 30
0.0
 11
0.3479595743148387
 21
4.7499961010208
 31
0.0
  0
LINE
  5
732
330
2
100
AcDbEntity
  8
0
100
AcDbLine
 10
0.3184438539622221
 20
4.732955191929889
 30
0.0
 11
0.1431452648085134
 21
4.7499961010208
 31
0.0
  0
LINE
  5
733
330
2
100
AcDbEntity
  8
0
100
AcDbLine
 10
-0.1490969817133383
 20
4.596587010111707
 30
0.0
 11
-0.2278265638755563
 21
4.642041555566252
 31
0.0
  0
LINE
  5
734
330
2
100
AcDbEntity
  8
0
100
AcDbLine
 10
-0.2278265638755563
 20
4.551132464657162
 30
0.0
 11
-0.1490969817133383
 21
4.596587010111707
 31
0.0
  0
LINE
  5
735
330
2
100
AcDbEntity
  8
0
100
AcDbLine
 10
-0.2278265638755563
 20
4.642041555566253
 30
0.0
 11
-0.1490969817133383
 21
4.687496101020798
 31
0.0
  0
LINE
  5
736
330
2
100
AcDbEntity
  8
0
100
AcDbLine
 10
-0.1490969817133383
 20
4.687496101020798
 30
0.0
 11
-0.2278265638755563
 21
4.732950646475343
 31
0.0
  0
LINE
  5
737
330
2
100
AcDbEntity
  8
0
100
AcDbLine
 10
-0.2278265638755563
 20
4.732950646475343
 30
0.0
 11
-0.1983029705647184
 21
4.7499961010208
 31
0.0
  0
LINE
  5
738
330
2
100
AcDbEntity
  8
0
100
AcDbLine
 10
-1.352826563875535
 20
5.1874961010208
 30
0.0
 11
-1.352826563875535
 21
7.005246101020799
 31
0.0
  0
CIRCLE
  5
739
330
2
100
AcDbEntity
  8
0
100
AcDbCircle
 10
0.4909734361244666
 20
6.442746101020799
 30
0.0
 40
0.0855
  0
ARC
  5
73A
330
2
100
AcDbEntity
  8
0
100
AcDbCircle
 10
0.5742984361244616
 20
5.062496101020798
 30
0.0
 40
0.125
100
AcDbArc
 50
90.0
 51
180.0
  0
CIRCLE
  5
73B
330
2
100
AcDbEntity
  8
0
100
AcDbCircle
 10
0.084673436124465
 20
6.255246101020799
 30
0.0
 40
0.1875
  0
ARC
  5
73C
330
2
100
AcDbEntity
  8
0
100
AcDbCircle
 10
-0.4049515638755388
 20
5.062496101020798
 30
0.0
 40
0.125
100
AcDbArc
 50
0.000000000000007
 51
90.0
  0
CIRCLE
  5
73D
330
2
100
AcDbEntity
  8
0
100
AcDbCircle
 10
0.834673436124465
 20
6.942746101020799
 30
0.0
 40
0.0855
  0
CIRCLE
  5
73E
330
2
100
AcDbEntity
  8
0
100
AcDbCircle
 10
-0.915326563875535
 20
6.942746101020799
 30
0.0
 40
0.0855
  0
LINE
  5
73F
330
2
100
AcDbEntity
  8
0
100
AcDbLine
 10
-1.102826563875535
 20
7.255246101020799
 30
0.0
 11
-1.352826563875535
 21
7.005246101020799
 31
0.0
  0
LINE
  5
740
330
2
100
AcDbEntity
  8
0
100
AcDbLine
 10
0.6873514573741097
 20
5.088496101020791
 30
0.0
 11
0.6028574967564921
 21
5.187496101020791
 31
0.0
  0
LINE
  5
741
330
2
100
AcDbEntity
  8
0
100
AcDbLine
 10
1.271620182425114
 20
5.134410893762544
 30
0.0
 11
0.6873514573741097
 21
5.088496101020791
 31
0.0
  0
LINE
  5
742
330
2
100
AcDbEntity
  8
0
100
AcDbLine
 10
-0.5180045851251833
 20
5.088496101020796
 30
0.0
 11
-0.4335106245075622
 21
5.187496101020797
 31
0.0
  0
LINE
  5
743
330
2
100
AcDbEntity
  8
0
100
AcDbLine
 10
-1.102273310176187
 20
5.134410893762556
 30
0.0
 11
-0.5180045851251833
 21
5.088496101020796
 31
0.0
  0
ARC
  5
744
330
2
100
AcDbEntity
  8
0
100
AcDbCircle
 10
1.267742178055077
 20
5.183758751690787
 30
0.0
 40
0.0495
100
AcDbArc
 50
274.4933577033087
 51
359.9999999999994
  0
LINE
  5
745
330
2
100
AcDbEntity
  8
0
100
AcDbLine
 10
1.317242178055075
 20
5.187496101020784
 30
0.0
 11
1.317242178055075
 21
5.183758751690787
 31
0.0
  0
ARC
  5
746
330
2
100
AcDbEntity
  8
0
100
AcDbCircle
 10
-1.098395305806147
 20
5.183758751690798
 30
0.0
 40
0.0495
100
AcDbArc
 50
180.0
 51
265.5066422966909
  0
LINE
  5
747
330
2
100
AcDbEntity
  8
0
100
AcDbLine
 10
-1.147895305806149
 20
5.187496101020797
 30
0.0
 11
-1.147895305806149
 21
5.183758751690798
 31
0.0
  0
ARC
  5
755
330
2
100
AcDbEntity
  8
0
  6
HIDDEN
100
AcDbCircle
 10
7.935318392719596
 20
5.062496101020798
 30
0.0
 40
0.224
100
AcDbArc
 50
90.0
 51
146.0799371439038
  0
ARC
  5
756
330
2
100
AcDbEntity
  8
0
  6
HIDDEN
100
AcDbCircle
 10
6.956068392719594
 20
5.062496101020798
 30
0.0
 40
0.224
100
AcDbArc
 50
33.92006285609616
 51
90.0
  0
ENDSEC
  0
SECTION
  2
OBJECTS
  0
DICTIONARY
  5
9
330
0
100
AcDbDictionary
281
     1
  3
ACAD_COLOR
350
5F7
  3
ACAD_GROUP
350
23
  3
ACAD_LAYOUT
350
D
  3
ACAD_MATERIAL
350
5F6
  3
ACAD_MLINESTYLE
350
24
  3
ACAD_PLOTSETTINGS
350
25
  3
ACAD_PLOTSTYLENAME
350
8
  3
ACAD_TABLESTYLE
350
5F8
  3
ACDBHEADERROUNDTRIPXREC
350
768
  3
AcDbVariableDictionary
350
316
  0
DICTIONARY
  5
5F7
102
{ACAD_REACTORS
330
9
102
}
330
9
100
AcDbDictionary
281
     1
  0
DICTIONARY
  5
23
102
{ACAD_REACTORS
330
9
102
}
330
9
100
AcDbDictionary
281
     1
  0
DICTIONARY
  5
D
102
{ACAD_REACTORS
330
9
102
}
330
9
100
AcDbDictionary
281
     1
  3
Layout1
350
13
  3
Model
350
C
  0
DICTIONARY
  5
5F6
102
{ACAD_REACTORS
330
9
102
}
330
9
100
AcDbDictionary
281
     1
  0
DICTIONARY
  5
24
102
{ACAD_REACTORS
330
9
102
}
330
9
100
AcDbDictionary
281
     1
  3
STANDARD
350
27
  0
DICTIONARY
  5
25
102
{ACAD_REACTORS
330
9
102
}
330
9
100
AcDbDictionary
281
     1
  0
ACDBDICTIONARYWDFLT
  5
8
102
{ACAD_REACTORS
330
9
102
}
330
9
100
AcDbDictionary
281
     1
  3
Normal
350
7
100
AcDbDictionaryWithDefault
340
7
  0
DICTIONARY
  5
5F8
102
{ACAD_REACTORS
330
9
102
}
330
9
100
AcDbDictionary
281
     1
  3
Standard
350
5F9
  0
DICTIONARY
  5
768
102
{ACAD_REACTORS
330
9
102
}
330
9
100
AcDbDictionary
281
     1
  3
COLORDICT
350
769
  3
MATERIALDICT
350
76A
  0
DICTIONARY
  5
316
102
{ACAD_REACTORS
330
9
102
}
330
9
100
AcDbDictionary
281
     1
  3
CTABLESTYLE
350
765
  3
HIDETEXT
350
767
  0
LAYOUT
  5
13
102
{ACAD_REACTORS
330
D
102
}
102
{ACAD_XDICTIONARY
360
76B
102
}
330
D
100
AcDbPlotSettings
  1

  2
HP LaserJet 2100 Series PS
  4

  6

 40
0.0
 41
0.0
 42
0.0
 43
0.0
 44
0.0
 45
0.0
 46
0.0
 47
0.0
 48
0.0
 49
0.0
140
0.0
141
0.0
142
1.0
143
1.0
 70
   688
 72
     0
 73
     0
 74
     5
  7

 75
    16
147
1.0
148
0.0
149
0.0
100
AcDbLayout
  1
Layout1
 70
     0
 71
     1
 10
0.0
 20
0.0
 11
12.0
 21
9.0
 12
0.0
 22
0.0
 32
0.0
 14
1.000000000000000E+20
 24
1.000000000000000E+20
 34
1.000000000000000E+20
 15
-1.000000000000000E+20
 25
-1.000000000000000E+20
 35
-1.000000000000000E+20
146
0.0
 13
0.0
 23
0.0
 33
0.0
 16
1.0
 26
0.0
 36
0.0
 17
0.0
 27
1.0
 37
0.0
 76
     0
330
E
  0
LAYOUT
  5
C
102
{ACAD_REACTORS
330
D
102
}
102
{ACAD_XDICTIONARY
360
76D
102
}
330
D
100
AcDbPlotSettings
  1

  2
HP LaserJet 4.pc3
  4
Letter
  6

 40
7.143749713897705
 41
6.127734661102295
 42
7.14373779296875
 43
7.14373779296875
 44
215.8999938964844
 45
279.3999938964844
 46
0.0
 47
0.0
 48
0.0
 49
0.0
140
0.0
141
0.0
142
1.0
143
2.519684959514791
 70
 11952
 72
     0
 73
     1
 74
     2
  7

 75
     0
147
0.396875012577988
148
0.0
149
0.0
100
AcDbLayout
  1
Model
 70
     1
 71
     0
 10
0.0
 20
0.0
 11
12.0
 21
9.0
 12
0.0
 22
0.0
 32
0.0
 14
0.0
 24
0.0
 34
0.0
 15
0.0
 25
0.0
 35
0.0
146
0.0
 13
0.0
 23
0.0
 33
0.0
 16
1.0
 26
0.0
 36
0.0
 17
0.0
 27
1.0
 37
0.0
 76
     0
330
2
  0
MLINESTYLE
  5
27
102
{ACAD_REACTORS
330
24
102
}
330
24
100
AcDbMlineStyle
  2
STANDARD
 70
     0
  3

 62
   256
 51
90.0
 52
90.0
 71
     2
 49
0.5
 62
   256
  6
BYLAYER
 49
-0.5
 62
   256
  6
BYLAYER
  0
ACDBPLACEHOLDER
  5
7
102
{ACAD_REACTORS
330
8
102
}
330
8
  0
ACAD_PROXY_OBJECT
  5
5F9
102
{ACAD_REACTORS
330
5F8
102
}
330
5F8
100
AcDbProxyObject
 90
      499
 91
      525
 95
   983063
 70
     0
 93
     1841
310
4214DD185B99185C9928B81E85EB51B8AE3F2E07A17AD46E2B8FC02B5E8DC0F42B1CFD028000000C1008070000C3001FDFF8000000C1003FBFF000000182007F7FE00000030400FEFFC00000060801FDFF8000000C1003FBFF00000018200000000000000681FA0B0000001820100E000186003FBFF000000182007F7FE000
310
00030400FEFFC00000060801FDFF8000000C1003FBFF000000182007F7FE000000304000AD7A3703D0AC73F4160000003040201C00030C007F7FE00000030400FEFFC00000060801FDFF8000000C1003FBFF000000182007F7FE00000030400FEFFC000000608000
340
16
340
16
340
16
 94
        0
  0
XRECORD
  5
769
102
{ACAD_REACTORS
330
768
102
}
330
768
100
AcDbXrecord
340
5F7
  0
XRECORD
  5
76A
102
{ACAD_REACTORS
330
768
102
}
330
768
100
AcDbXrecord
340
5F6
  0
DICTIONARYVAR
  5
765
102
{ACAD_REACTORS
330
316
102
}
330
316
100
DictionaryVariables
280
     0
  1
STANDARD
  0
DICTIONARYVAR
  5
767
102
{ACAD_REACTORS
330
316
102
}
330
316
100
DictionaryVariables
280
     0
  1
0
  0
DICTIONARY
  5
76B
330
13
100
AcDbDictionary
280
     1
281
     1
  3
ACAD_XREC_ROUNDTRIP
360
76C
  0
DICTIONARY
  5
76D
330
C
100
AcDbDictionary
280
     1
281
     1
  3
ACAD_XREC_ROUNDTRIP
360
76E
  0
XRECORD
  5
76C
102
{ACAD_REACTORS
330
76B
102
}
330
76B
100
AcDbXrecord
102
SHADEPLOT
 70
     0
102
SHADEPLOTRESLEVEL
 70
     2
102
SHADEPLOTCUSTOMDPI
 70
   300
  0
XRECORD
  5
76E
102
{ACAD_REACTORS
330
76D
102
}
330
76D
100
AcDbXrecord
102
SHADEPLOT
 70
     0
102
SHADEPLOTRESLEVEL
 70
     2
102
SHADEPLOTCUSTOMDPI
 70
   300
  0
ENDSEC
  0
EOF
