  0
SECTION
  2
HEADER
  9
$ACADVER
  1
AC1015
  9
$ACADMAINTVER
 70
     6
  9
$DWGCODEPAGE
  3
ANSI_1252
  9
$INSBASE
 10
0.0
 20
0.0
 30
0.0
  9
$EXTMIN
 10
0.0750733354071542
 20
0.0384522707183521
 30
-0.0000000349181948
  9
$EXTMAX
 10
28.88061531456287
 20
18.33927162787811
 30
0.0000000814935746
  9
$LIMMIN
 10
0.0
 20
0.0
  9
$LIMMAX
 10
40.00000000000039
 20
52.50000000000051
  9
$ORTHOMODE
 70
     1
  9
$REGENMODE
 70
     1
  9
$FILLMODE
 70
     1
  9
$QTEXTMODE
 70
     0
  9
$MIRRTEXT
 70
     0
  9
$LTSCALE
 40
1.0
  9
$ATTMODE
 70
     1
  9
$TEXTSIZE
 40
0.450000000000004
  9
$TRACEWID
 40
0.05
  9
$TEXTSTYLE
  7
STANDARD
  9
$CLAYER
  8
0
  9
$CELTYPE
  6
BYLAYER
  9
$CECOLOR
 62
   256
  9
$CELTSCALE
 40
1.0
  9
$DISPSILH
 70
     0
  9
$DIMSCALE
 40
1.0
  9
$DIMASZ
 40
0.625000000000004
  9
$DIMEXO
 40
0.1
  9
$DIMDLI
 40
0.375
  9
$DIMRND
 40
0.0
  9
$DIMDLE
 40
0.0
  9
$DIMEXE
 40
0.400000000000004
  9
$DIMTP
 40
0.0
  9
$DIMTM
 40
0.0
  9
$DIMTXT
 40
0.450000000000004
  9
$DIMCEN
 40
-0.06
  9
$DIMTSZ
 40
0.0
  9
$DIMTOL
 70
     0
  9
$DIMLIM
 70
     0
  9
$DIMTIH
 70
     1
  9
$DIMTOH
 70
     1
  9
$DIMSE1
 70
     0
  9
$DIMSE2
 70
     0
  9
$DIMTAD
 70
     0
  9
$DIMZIN
 70
     0
  9
$DIMBLK
  1

  9
$DIMASO
 70
     0
  9
$DIMSHO
 70
     0
  9
$DIMPOST
  1

  9
$DIMAPOST
  1

  9
$DIMALT
 70
     0
  9
$DIMALTD
 70
     2
  9
$DIMALTF
 40
25.4
  9
$DIMLFAC
 40
1.0
  9
$DIMTOFL
 70
     0
  9
$DIMTVP
 40
0.0
  9
$DIMTIX
 70
     0
  9
$DIMSOXD
 70
     0
  9
$DIMSAH
 70
     0
  9
$DIMBLK1
  1

  9
$DIMBLK2
  1

  9
$DIMSTYLE
  2
STANDARD
  9
$DIMCLRD
 70
     0
  9
$DIMCLRE
 70
     0
  9
$DIMCLRT
 70
     0
  9
$DIMTFAC
 40
1.0
  9
$DIMGAP
 40
0.09
  9
$DIMJUST
 70
     0
  9
$DIMSD1
 70
     0
  9
$DIMSD2
 70
     0
  9
$DIMTOLJ
 70
     1
  9
$DIMTZIN
 70
     0
  9
$DIMALTZ
 70
     0
  9
$DIMALTTZ
 70
     0
  9
$DIMUPT
 70
     0
  9
$DIMDEC
 70
     3
  9
$DIMTDEC
 70
     3
  9
$DIMALTU
 70
     2
  9
$DIMALTTD
 70
     2
  9
$DIMTXSTY
  7
STANDARD
  9
$DIMAUNIT
 70
     0
  9
$DIMADEC
 70
     0
  9
$DIMALTRND
 40
0.0
  9
$DIMAZIN
 70
     0
  9
$DIMDSEP
 70
    46
  9
$DIMATFIT
 70
     3
  9
$DIMFRAC
 70
     0
  9
$DIMLDRBLK
  1

  9
$DIMLUNIT
 70
     2
  9
$DIMLWD
 70
    -2
  9
$DIMLWE
 70
    -2
  9
$DIMTMOVE
 70
     2
  9
$LUNITS
 70
     2
  9
$LUPREC
 70
     3
  9
$SKETCHINC
 40
0.1
  9
$FILLETRAD
 40
0.0
  9
$AUNITS
 70
     0
  9
$AUPREC
 70
     0
  9
$MENU
  1
acad
  9
$ELEVATION
 40
0.0
  9
$PELEVATION
 40
0.0
  9
$THICKNESS
 40
0.0
  9
$LIMCHECK
 70
     0
  9
$CHAMFERA
 40
0.0
  9
$CHAMFERB
 40
0.0
  9
$CHAMFERC
 40
0.0
  9
$CHAMFERD
 40
0.0
  9
$SKPOLY
 70
     0
  9
$TDCREATE
 40
2449185.993173033
  9
$TDUCREATE
 40
2449186.326506366
  9
$TDUPDATE
 40
2454162.91970066
  9
$TDUUPDATE
 40
2454163.253033993
  9
$TDINDWG
 40
0.0670390278
  9
$TDUSRTIMER
 40
0.0670390278
  9
$USRTIMER
 70
     1
  9
$ANGBASE
 50
0.0
  9
$ANGDIR
 70
     0
  9
$PDMODE
 70
     0
  9
$PDSIZE
 40
0.0
  9
$PLINEWID
 40
0.0
  9
$SPLFRAME
 70
     0
  9
$SPLINETYPE
 70
     6
  9
$SPLINESEGS
 70
     8
  9
$HANDSEED
  5
19D
  9
$SURFTAB1
 70
     6
  9
$SURFTAB2
 70
     6
  9
$SURFTYPE
 70
     6
  9
$SURFU
 70
     6
  9
$SURFV
 70
     6
  9
$UCSBASE
  2

  9
$UCSNAME
  2

  9
$UCSORG
 10
0.0
 20
0.0
 30
0.0
  9
$UCSXDIR
 10
1.0
 20
0.0
 30
0.0
  9
$UCSYDIR
 10
0.0
 20
1.0
 30
0.0
  9
$UCSORTHOREF
  2

  9
$UCSORTHOVIEW
 70
     0
  9
$UCSORGTOP
 10
0.0
 20
0.0
 30
0.0
  9
$UCSORGBOTTOM
 10
0.0
 20
0.0
 30
0.0
  9
$UCSORGLEFT
 10
0.0
 20
0.0
 30
0.0
  9
$UCSORGRIGHT
 10
0.0
 20
0.0
 30
0.0
  9
$UCSORGFRONT
 10
0.0
 20
0.0
 30
0.0
  9
$UCSORGBACK
 10
0.0
 20
0.0
 30
0.0
  9
$PUCSBASE
  2

  9
$PUCSNAME
  2

  9
$PUCSORG
 10
0.0
 20
0.0
 30
0.0
  9
$PUCSXDIR
 10
1.0
 20
0.0
 30
0.0
  9
$PUCSYDIR
 10
0.0
 20
1.0
 30
0.0
  9
$PUCSORTHOREF
  2

  9
$PUCSORTHOVIEW
 70
     0
  9
$PUCSORGTOP
 10
0.0
 20
0.0
 30
0.0
  9
$PUCSORGBOTTOM
 10
0.0
 20
0.0
 30
0.0
  9
$PUCSORGLEFT
 10
0.0
 20
0.0
 30
0.0
  9
$PUCSORGRIGHT
 10
0.0
 20
0.0
 30
0.0
  9
$PUCSORGFRONT
 10
0.0
 20
0.0
 30
0.0
  9
$PUCSORGBACK
 10
0.0
 20
0.0
 30
0.0
  9
$USERI1
 70
     0
  9
$USERI2
 70
     0
  9
$USERI3
 70
     0
  9
$USERI4
 70
     0
  9
$USERI5
 70
     0
  9
$USERR1
 40
0.0
  9
$USERR2
 40
0.0
  9
$USERR3
 40
0.0
  9
$USERR4
 40
0.0
  9
$USERR5
 40
0.0
  9
$WORLDVIEW
 70
     1
  9
$SHADEDGE
 70
     3
  9
$SHADEDIF
 70
    70
  9
$TILEMODE
 70
     1
  9
$MAXACTVP
 70
    16
  9
$PINSBASE
 10
0.0
 20
0.0
 30
0.0
  9
$PLIMCHECK
 70
     0
  9
$PEXTMIN
 10
1.000000000000000E+20
 20
1.000000000000000E+20
 30
1.000000000000000E+20
  9
$PEXTMAX
 10
-1.000000000000000E+20
 20
-1.000000000000000E+20
 30
-1.000000000000000E+20
  9
$PLIMMIN
 10
0.0
 20
0.0
  9
$PLIMMAX
 10
12.0
 20
9.0
  9
$UNITMODE
 70
     0
  9
$VISRETAIN
 70
     0
  9
$PLINEGEN
 70
     0
  9
$PSLTSCALE
 70
     0
  9
$TREEDEPTH
 70
  3020
  9
$CMLSTYLE
  2
STANDARD
  9
$CMLJUST
 70
     0
  9
$CMLSCALE
 40
1.0
  9
$PROXYGRAPHICS
 70
     1
  9
$MEASUREMENT
 70
     0
  9
$CELWEIGHT
370
    -1
  9
$ENDCAPS
280
     0
  9
$JOINSTYLE
280
     0
  9
$LWDISPLAY
290
     0
  9
$INSUNITS
 70
     0
  9
$HYPERLINKBASE
  1

  9
$STYLESHEET
  1

  9
$XEDIT
290
     1
  9
$CEPSNTYPE
380
     0
  9
$PSTYLEMODE
290
     1
  9
$FINGERPRINTGUID
  2
{0591E988-0666-4BB9-BA9E-397D81F31967}
  9
$VERSIONGUID
  2
{2FFA07A1-6175-4C18-BC50-21AE7AC45FEF}
  9
$EXTNAMES
290
     1
  9
$PSVPSCALE
 40
0.0
  9
$OLESTARTUP
290
     0
  0
ENDSEC
  0
SECTION
  2
CLASSES
  0
CLASS
  1
DICTIONARYVAR
  2
AcDbDictionaryVar
  3
AutoCAD 2000
 90
        0
280
     0
281
     0
  0
CLASS
  1
LWPOLYLINE
  2
AcDbPolyline
  3
AutoCAD 2000
 90
        0
280
     0
281
     1
  0
CLASS
  1
ACDBDICTIONARYWDFLT
  2
AcDbDictionaryWithDefault
  3
AutoCAD 2000
 90
        0
280
     0
281
     0
  0
CLASS
  1
ACDBPLACEHOLDER
  2
AcDbPlaceHolder
  3
ObjectDBX Classes
 90
        0
280
     0
281
     0
  0
CLASS
  1
LAYOUT
  2
AcDbLayout
  3
ObjectDBX Classes
 90
        0
280
     0
281
     0
  0
CLASS
  1
TABLESTYLE
  2
AcDbTableStyle
  3
ObjectDBX Classes
 90
     2047
280
     1
281
     0
  0
ENDSEC
  0
SECTION
  2
TABLES
  0
TABLE
  2
VPORT
  5
19
330
0
100
AcDbSymbolTable
 70
     2
  0
VPORT
  5
18F
330
19
100
AcDbSymbolTableRecord
100
AcDbViewportTableRecord
  2
*Active
 70
     0
 10
0.0
 20
0.0
 11
1.0
 21
1.0
 12
20.0000000000002
 22
26.25000000000026
 13
0.0
 23
0.0
 14
0.0625
 24
0.0625
 15
0.25
 25
0.25
 16
0.0
 26
0.0
 36
1.0
 17
0.0
 27
0.0
 37
0.0
 40
53.15488565488617
 41
1.814583333333333
 42
50.0
 43
0.0
 44
0.0
 50
0.0
 51
0.0
 71
     0
 72
   100
 73
     1
 74
     0
 75
     0
 76
     0
 77
     0
 78
     0
281
     0
 65
     1
110
0.0
120
0.0
130
0.0
111
1.0
121
0.0
131
0.0
112
0.0
122
1.0
132
0.0
 79
     0
146
0.0
  0
ENDTAB
  0
TABLE
  2
LTYPE
  5
14
330
0
100
AcDbSymbolTable
 70
     2
  0
LTYPE
  5
15
330
14
100
AcDbSymbolTableRecord
100
AcDbLinetypeTableRecord
  2
BYBLOCK
 70
     0
  3

 72
    65
 73
     0
 40
0.0
  0
LTYPE
  5
16
330
14
100
AcDbSymbolTableRecord
100
AcDbLinetypeTableRecord
  2
BYLAYER
 70
     0
  3

 72
    65
 73
     0
 40
0.0
  0
LTYPE
  5
8
330
14
100
AcDbSymbolTableRecord
100
AcDbLinetypeTableRecord
  2
CONTINUOUS
 70
     0
  3
Solid line
 72
    65
 73
     0
 40
0.0
  0
LTYPE
  5
183
330
14
100
AcDbSymbolTableRecord
100
AcDbLinetypeTableRecord
  2
HIDDEN
 70
     0
  3
Hidden __ __ __ __ __ __ __ __ __ __ __ __ __ _
 72
    65
 73
     2
 40
0.375
 49
0.25
 74
     0
 49
-0.125
 74
     0
  0
ENDTAB
  0
TABLE
  2
LAYER
  5
10
330
0
100
AcDbSymbolTable
 70
     1
  0
LAYER
  5
4
330
10
100
AcDbSymbolTableRecord
100
AcDbLayerTableRecord
  2
0
 70
     0
 62
     7
  6
CONTINUOUS
370
    -3
390
5
  0
ENDTAB
  0
TABLE
  2
STYLE
  5
11
330
0
100
AcDbSymbolTable
 70
     1
  0
STYLE
  5
12
330
11
100
AcDbSymbolTableRecord
100
AcDbTextStyleTableRecord
  2
STANDARD
 70
     0
 40
0.0
 41
1.0
 50
0.0
 71
     0
 42
0.450000000000004
  3
TXT
  4

  0
ENDTAB
  0
TABLE
  2
VIEW
  5
17
330
0
100
AcDbSymbolTable
 70
     0
  0
ENDTAB
  0
TABLE
  2
UCS
  5
18
330
0
100
AcDbSymbolTable
 70
     0
  0
ENDTAB
  0
TABLE
  2
APPID
  5
1B
330
0
100
AcDbSymbolTable
 70
     1
  0
APPID
  5
1C
330
1B
100
AcDbSymbolTableRecord
100
AcDbRegAppTableRecord
  2
ACAD
 70
     0
  0
ENDTAB
  0
TABLE
  2
DIMSTYLE
  5
1D
330
0
100
AcDbSymbolTable
 70
     1
100
AcDbDimStyleTable
  0
DIMSTYLE
105
24
330
1D
100
AcDbSymbolTableRecord
100
AcDbDimStyleTableRecord
  2
STANDARD
 70
     0
  3

  4

340
12
  0
ENDTAB
  0
TABLE
  2
BLOCK_RECORD
  5
1
330
0
100
AcDbSymbolTable
 70
     0
  0
BLOCK_RECORD
  5
2
330
1
100
AcDbSymbolTableRecord
100
AcDbBlockTableRecord
  2
*MODEL_SPACE
340
A
  0
BLOCK_RECORD
  5
C
330
1
100
AcDbSymbolTableRecord
100
AcDbBlockTableRecord
  2
*PAPER_SPACE
340
F
  0
ENDTAB
  0
ENDSEC
  0
SECTION
  2
BLOCKS
  0
BLOCK
  5
3
330
2
100
AcDbEntity
  8
0
100
AcDbBlockBegin
  2
*MODEL_SPACE
 70
     0
 10
0.0
 20
0.0
 30
0.0
  3
*MODEL_SPACE
  1

  4

  0
ENDBLK
  5
9
330
2
100
AcDbEntity
  8
0
100
AcDbBlockEnd
  0
BLOCK
  5
D
330
C
100
AcDbEntity
 67
     1
  8
0
100
AcDbBlockBegin
  2
*PAPER_SPACE
 70
     0
 10
0.0
 20
0.0
 30
0.0
  3
*PAPER_SPACE
  1

  4

  0
ENDBLK
  5
E
330
C
100
AcDbEntity
 67
     1
  8
0
100
AcDbBlockEnd
  0
ENDSEC
  0
SECTION
  2
ENTITIES
  0
LINE
  5
DF
330
2
100
AcDbEntity
  8
0
100
AcDbLine
 10
0.6211338706528125
 20
3.916088946578345
 30
0.0
 11
3.808633870652812
 21
3.916088946578345
 31
0.0
  0
LINE
  5
E0
330
2
100
AcDbEntity
  8
0
100
AcDbLine
 10
3.808633870652812
 20
3.791088946578345
 30
0.0
 11
3.308633870652812
 21
3.791088946578345
 31
0.0
  0
LINE
  5
E1
330
2
100
AcDbEntity
  8
0
100
AcDbLine
 10
3.496133870652812
 20
3.353588946578345
 30
0.0
 11
3.496133870652809
 21
0.0410889465783484
 31
0.0
  0
LINE
  5
E2
330
2
100
AcDbEntity
  8
0
100
AcDbLine
 10
0.9336338706528125
 20
3.353588946578345
 30
0.0
 11
0.9336338706528125
 21
0.0410889465783484
 31
0.0
  0
LINE
  5
E3
330
2
100
AcDbEntity
  8
0
100
AcDbLine
 10
0.9336338706528125
 20
0.0410889465783484
 30
0.0
 11
2.721813786970802
 21
0.0410889465783448
 31
0.0
  0
CIRCLE
  5
E4
330
2
100
AcDbEntity
  8
0
100
AcDbCircle
 10
1.246133870652812
 20
0.4160889465783448
 30
0.0
 40
0.0855000000000025
  0
CIRCLE
  5
E5
330
2
100
AcDbEntity
  8
0
100
AcDbCircle
 10
3.183633870652812
 20
0.4160889465783448
 30
0.0
 40
0.0855000000000025
  0
LINE
  5
E6
330
2
100
AcDbEntity
  8
0
100
AcDbLine
 10
3.496133870652809
 20
0.0410889465783484
 30
0.0
 11
2.479135962703023
 21
0.0410889465783448
 31
0.0
  0
CIRCLE
  5
E7
330
2
100
AcDbEntity
  8
0
100
AcDbCircle
 10
2.21513387065281
 20
1.416088946578345
 30
0.0
 40
0.2810000000000025
  0
LINE
  5
E8
330
2
100
AcDbEntity
  8
0
100
AcDbLine
 10
0.2015075761409371
 20
7.414140520481443
 30
0.0
 11
0.4961338706528125
 21
4.041088946578345
 31
0.0
  0
LINE
  5
E9
330
2
100
AcDbEntity
  8
0
100
AcDbLine
 10
0.3711338706528125
 20
4.041088946578345
 30
0.0
 11
0.0769832388794676
 21
7.403246052637986
 31
0.0
  0
LINE
  5
EA
330
2
100
AcDbEntity
  8
0
  6
HIDDEN
100
AcDbLine
 10
1.121133870652812
 20
3.791088946578345
 30
0.0
 11
3.308633870652812
 21
3.791088946578345
 31
0.0
  0
CIRCLE
  5
EB
330
2
100
AcDbEntity
  8
0
100
AcDbCircle
 10
1.246133870652812
 20
2.541088946578345
 30
0.0
 40
0.0855000000000025
  0
ARC
  5
EC
330
2
100
AcDbEntity
  8
0
100
AcDbCircle
 10
0.9341338706528148
 20
3.541088279910497
 30
0.0
 40
0.1875000000000025
100
AcDbArc
 50
269.6944210605799
 51
4.185222519629921
  0
LINE
  5
ED
330
2
100
AcDbEntity
  8
0
100
AcDbLine
 10
0.6211338706528125
 20
3.791088946578345
 30
0.0
 11
1.121133870652812
 21
3.791088946578345
 31
0.0
  0
ARC
  5
EE
330
2
100
AcDbEntity
  8
0
100
AcDbCircle
 10
0.6211338706528125
 20
4.041088946578345
 30
0.0
 40
0.125
100
AcDbArc
 50
180.0
 51
269.9999999999999
  0
ARC
  5
EF
330
2
100
AcDbEntity
  8
0
100
AcDbCircle
 10
0.6211338706528125
 20
4.041088946578345
 30
0.0
 40
0.25
100
AcDbArc
 50
180.0
 51
269.9999999999999
  0
LINE
  5
F0
330
2
100
AcDbEntity
  8
0
100
AcDbLine
 10
0.7471338706528208
 20
3.916088946578348
 30
0.0
 11
0.7471338706528208
 21
3.791088946578345
 31
0.0
  0
LINE
  5
F1
330
2
100
AcDbEntity
  8
0
100
AcDbLine
 10
1.121133870652812
 20
3.916088946578348
 30
0.0
 11
1.121133870652812
 21
3.554772212094008
 31
0.0
  0
ARC
  5
F2
330
2
100
AcDbEntity
  8
0
100
AcDbCircle
 10
3.49563387065281
 20
3.541088279910497
 30
0.0
 40
0.1875000000000025
100
AcDbArc
 50
175.8147774803701
 51
270.3055789394201
  0
CIRCLE
  5
F3
330
2
100
AcDbEntity
  8
0
100
AcDbCircle
 10
3.183633870652812
 20
2.541088946578345
 30
0.0
 40
0.0855000000000025
  0
LINE
  5
F4
330
2
100
AcDbEntity
  8
0
100
AcDbLine
 10
3.308633870652812
 20
3.916088946578348
 30
0.0
 11
3.308633870652812
 21
3.554772212094008
 31
0.0
  0
LINE
  5
F5
330
2
100
AcDbEntity
  8
0
100
AcDbLine
 10
0.0769832388794676
 20
7.403246052637986
 30
0.0
 11
0.2015075761409371
 21
7.414140520481443
 31
0.0
  0
LINE
  5
F6
330
2
100
AcDbEntity
  8
0
100
AcDbLine
 10
4.352308839687627
 20
7.392351584794529
 30
0.0
 11
4.058158207914282
 21
4.030194478734888
 31
0.0
  0
LINE
  5
F7
330
2
100
AcDbEntity
  8
0
100
AcDbLine
 10
3.933633870652812
 20
4.041088946578345
 30
0.0
 11
4.227784502426161
 21
7.403246052637986
 31
0.0
  0
LINE
  5
F8
330
2
100
AcDbEntity
  8
0
100
AcDbLine
 10
3.682633870652804
 20
3.916088946578348
 30
0.0
 11
3.682633870652804
 21
3.791088946578345
 31
0.0
  0
ARC
  5
F9
330
2
100
AcDbEntity
  8
0
100
AcDbCircle
 10
3.808633870652812
 20
4.041088946578345
 30
0.0
 40
0.125
100
AcDbArc
 50
270.0
 51
0.0
  0
ARC
  5
FA
330
2
100
AcDbEntity
  8
0
100
AcDbCircle
 10
3.808633870652812
 20
4.041088946578345
 30
0.0
 40
0.25
100
AcDbArc
 50
270.0
 51
0.0
  0
LINE
  5
FB
330
2
100
AcDbEntity
  8
0
100
AcDbLine
 10
4.227784502426161
 20
7.403246052637986
 30
0.0
 11
4.352308839687627
 21
7.392351584794529
 31
0.0
  0
LINE
  5
FC
330
2
100
AcDbEntity
  8
0
100
AcDbLine
 10
18.07160574307838
 20
17.89789240817515
 30
0.0
 11
14.7591037430606
 21
17.89789240817515
 31
0.0
  0
LINE
  5
FD
330
2
100
AcDbEntity
  8
0
100
AcDbLine
 10
18.07160574307838
 20
18.21039240817515
 30
0.0
 11
10.75910574307838
 21
18.21039240817515
 31
0.0
  0
LINE
  5
FE
330
2
100
AcDbEntity
  8
0
100
AcDbLine
 10
10.75910574307838
 20
18.33539240817515
 30
0.0
 11
18.07160574307838
 21
18.33539240817515
 31
0.0
  0
LINE
  5
FF
330
2
100
AcDbEntity
  8
0
100
AcDbLine
 10
18.07160574307838
 20
14.96039240817517
 30
0.0
 11
10.75910574307838
 21
14.96039240817517
 31
0.0
  0
LINE
  5
100
330
2
100
AcDbEntity
  8
0
100
AcDbLine
 10
10.75910574307838
 20
14.83539240817517
 30
0.0
 11
18.07160574307838
 21
14.83539240817517
 31
0.0
  0
LINE
  5
101
330
2
100
AcDbEntity
  8
0
100
AcDbLine
 10
14.7591037430606
 20
15.27289240817517
 30
0.0
 11
18.07160574307838
 21
15.27289240817517
 31
0.0
  0
LINE
  5
102
330
2
100
AcDbEntity
  8
0
  6
HIDDEN
100
AcDbLine
 10
10.75910574307838
 20
17.71089240817515
 30
0.0
 11
10.75910574307838
 21
15.45989240817517
 31
0.0
  0
LINE
  5
103
330
2
100
AcDbEntity
  8
0
100
AcDbLine
 10
10.66010574307838
 20
17.89839240817516
 30
0.0
 11
10.66010574307838
 21
15.27239240817516
 31
0.0
  0
LINE
  5
104
330
2
100
AcDbEntity
  8
0
100
AcDbLine
 10
10.66010574307838
 20
15.45989240817517
 30
0.0
 11
10.75910574307837
 21
15.45989240817517
 31
0.0
  0
LINE
  5
105
330
2
100
AcDbEntity
  8
0
100
AcDbLine
 10
10.75910574307838
 20
15.27239240817517
 30
0.0
 11
10.75910574307838
 21
15.45989240817517
 31
0.0
  0
LINE
  5
106
330
2
100
AcDbEntity
  8
0
100
AcDbLine
 10
10.75910574307839
 20
15.27239240817517
 30
0.0
 11
10.66010574307838
 21
15.27239240817516
 31
0.0
  0
LINE
  5
107
330
2
100
AcDbEntity
  8
0
100
AcDbLine
 10
10.75910574307838
 20
14.83539240817517
 30
0.0
 11
10.75910574307838
 21
15.08489240817517
 31
0.0
  0
ARC
  5
108
330
2
100
AcDbEntity
  8
0
100
AcDbCircle
 10
10.75910574307838
 20
15.27239240817517
 30
0.0
 40
0.1875000000000025
100
AcDbArc
 50
270.0
 51
90.0
  0
LINE
  5
109
330
2
100
AcDbEntity
  8
0
100
AcDbLine
 10
10.75910574307838
 20
17.89839240817515
 30
0.0
 11
10.75910574307838
 21
17.71089240817515
 31
0.0
  0
ARC
  5
10A
330
2
100
AcDbEntity
  8
0
100
AcDbCircle
 10
10.75910574307838
 20
17.89839240817515
 30
0.0
 40
0.1875
100
AcDbArc
 50
270.0
 51
90.0
  0
LINE
  5
10B
330
2
100
AcDbEntity
  8
0
100
AcDbLine
 10
10.75910574307838
 20
17.71089240817515
 30
0.0
 11
10.66010574307838
 21
17.71089240817516
 31
0.0
  0
LINE
  5
10C
330
2
100
AcDbEntity
  8
0
100
AcDbLine
 10
10.75910574307839
 20
17.89839240817515
 30
0.0
 11
10.66010574307838
 21
17.89839240817516
 31
0.0
  0
LINE
  5
10D
330
2
100
AcDbEntity
  8
0
100
AcDbLine
 10
10.75910574307838
 20
18.33539240817515
 30
0.0
 11
10.75910574307838
 21
18.08589240817515
 31
0.0
  0
LINE
  5
116
330
2
100
AcDbEntity
  8
0
  6
HIDDEN
100
AcDbLine
 10
14.32160574307838
 20
17.71089240817515
 30
0.0
 11
14.32160574307838
 21
15.45989240817517
 31
0.0
  0
LINE
  5
117
330
2
100
AcDbEntity
  8
0
100
AcDbLine
 10
14.42060574307838
 20
17.89839240817514
 30
0.0
 11
14.42060574307838
 21
15.27239240817517
 31
0.0
  0
ARC
  5
118
330
2
100
AcDbEntity
  8
0
100
AcDbCircle
 10
14.57160640974622
 20
15.27189240817516
 30
0.0
 40
0.1875000000000025
100
AcDbArc
 50
265.81477748037
 51
0.3055789394200826
  0
ARC
  5
119
330
2
100
AcDbEntity
  8
0
100
AcDbCircle
 10
14.32160574307838
 20
15.27239240817517
 30
0.0
 40
0.1875000000000025
100
AcDbArc
 50
90.0
 51
270.0
  0
LINE
  5
11A
330
2
100
AcDbEntity
  8
0
100
AcDbLine
 10
14.32160574307838
 20
15.27239240817517
 30
0.0
 11
14.32160574307838
 21
15.45989240817517
 31
0.0
  0
LINE
  5
11B
330
2
100
AcDbEntity
  8
0
100
AcDbLine
 10
14.32160574307838
 20
15.08489240817517
 30
0.0
 11
14.55792247756275
 21
15.08489240817517
 31
0.0
  0
LINE
  5
11C
330
2
100
AcDbEntity
  8
0
100
AcDbLine
 10
14.42060574307838
 20
15.45989240817517
 30
0.0
 11
14.32160574307838
 21
15.45989240817517
 31
0.0
  0
LINE
  5
11D
330
2
100
AcDbEntity
  8
0
100
AcDbLine
 10
14.32160574307837
 20
15.27239240817517
 30
0.0
 11
14.42060574307838
 21
15.27239240817517
 31
0.0
  0
ARC
  5
11E
330
2
100
AcDbEntity
  8
0
100
AcDbCircle
 10
14.57160640974622
 20
17.89889240817515
 30
0.0
 40
0.1875000000000025
100
AcDbArc
 50
359.6944210605799
 51
94.18522251962995
  0
ARC
  5
11F
330
2
100
AcDbEntity
  8
0
100
AcDbCircle
 10
14.32160574307838
 20
17.89839240817515
 30
0.0
 40
0.1875
100
AcDbArc
 50
90.0
 51
270.0
  0
LINE
  5
120
330
2
100
AcDbEntity
  8
0
100
AcDbLine
 10
14.32160574307838
 20
17.89839240817515
 30
0.0
 11
14.32160574307838
 21
17.71089240817515
 31
0.0
  0
LINE
  5
121
330
2
100
AcDbEntity
  8
0
100
AcDbLine
 10
14.32160574307837
 20
17.71089240817515
 30
0.0
 11
14.42060574307838
 21
17.71089240817514
 31
0.0
  0
LINE
  5
122
330
2
100
AcDbEntity
  8
0
100
AcDbLine
 10
14.32160574307838
 20
18.08589240817515
 30
0.0
 11
14.55792247756271
 21
18.08589240817515
 31
0.0
  0
LINE
  5
123
330
2
100
AcDbEntity
  8
0
100
AcDbLine
 10
14.32160574307837
 20
17.89839240817515
 30
0.0
 11
14.42060574307837
 21
17.89839240817514
 31
0.0
  0
LINE
  5
124
330
2
100
AcDbEntity
  8
0
100
AcDbLine
 10
18.07160574307838
 20
15.27289240817517
 30
0.0
 11
18.07160574307838
 21
14.83539240817517
 31
0.0
  0
LINE
  5
125
330
2
100
AcDbEntity
  8
0
100
AcDbLine
 10
18.07160574307838
 20
18.33539240817515
 30
0.0
 11
18.07160574307838
 21
17.89789240817515
 31
0.0
  0
LINE
  5
126
330
2
100
AcDbEntity
  8
0
100
AcDbLine
 10
10.87364713983056
 20
3.791088946578334
 30
0.0
 11
18.07160574307837
 21
3.791088946578338
 31
0.0
  0
LINE
  5
127
330
2
100
AcDbEntity
  8
0
100
AcDbLine
 10
10.88410574307838
 20
7.416088946578341
 30
0.0
 11
18.07160574307838
 21
7.416088946578341
 31
0.0
  0
CIRCLE
  5
128
330
2
100
AcDbEntity
  8
0
100
AcDbCircle
 10
15.57160574307838
 20
4.916088946578341
 30
0.0
 40
0.0855000000000025
  0
LINE
  5
129
330
2
100
AcDbEntity
  8
0
  6
HIDDEN
100
AcDbLine
 10
18.07160574307838
 20
3.916088946578341
 30
0.0
 11
10.88410574307838
 21
3.916088946578341
 31
0.0
  0
LINE
  5
12A
330
2
100
AcDbEntity
  8
0
100
AcDbLine
 10
14.76206964780011
 20
0.0657776338392218
 30
0.0
 11
14.4465240223049
 21
3.672480637156955
 31
0.0
  0
LINE
  5
12B
330
2
100
AcDbEntity
  8
0
100
AcDbLine
 10
14.32160574307838
 20
3.666088946578341
 30
0.0
 11
14.63754531053864
 21
0.0548831659957649
 31
0.0
  0
LINE
  5
12C
330
2
100
AcDbEntity
  8
0
100
AcDbLine
 10
10.63553454824837
 20
3.687877882265255
 30
0.0
 11
10.31864183835666
 21
0.0657776338392253
 31
0.0
  0
LINE
  5
12D
330
2
100
AcDbEntity
  8
0
100
AcDbLine
 10
10.44316617561812
 20
0.0548831659957685
 30
0.0
 11
10.75910574307838
 21
3.666088946578341
 31
0.0
  0
LINE
  5
12E
330
2
100
AcDbEntity
  8
0
100
AcDbLine
 10
10.31864183835666
 20
0.0657776338392253
 30
0.0
 11
10.44316617561812
 21
0.0548831659957685
 31
0.0
  0
LINE
  5
12F
330
2
100
AcDbEntity
  8
0
100
AcDbLine
 10
14.63754531053864
 20
0.0548831659957649
 30
0.0
 11
14.76206964780011
 21
0.0657776338392218
 31
0.0
  0
LINE
  5
130
330
2
100
AcDbEntity
  8
0
100
AcDbLine
 10
10.88410574307838
 20
7.416088946578345
 30
0.0
 11
10.88410574307838
 21
3.791088946578345
 31
0.0
  0
ARC
  5
131
330
2
100
AcDbEntity
  8
0
100
AcDbCircle
 10
10.8845832227713
 20
3.666088946578341
 30
0.0
 40
0.25
100
AcDbArc
 50
90.0
 51
174.9999999999999
  0
ARC
  5
132
330
2
100
AcDbEntity
  8
0
100
AcDbCircle
 10
10.88410574307838
 20
3.666088946578341
 30
0.0
 40
0.125
100
AcDbArc
 50
89.99999999999999
 51
180.0
  0
CIRCLE
  5
133
330
2
100
AcDbEntity
  8
0
100
AcDbCircle
 10
11.75910574307838
 20
6.416088946578341
 30
0.0
 40
0.0855000000000025
  0
ARC
  5
134
330
2
100
AcDbEntity
  8
0
100
AcDbCircle
 10
14.19660574307838
 20
3.666088946578341
 30
0.0
 40
0.125
100
AcDbArc
 50
0.0
 51
89.99999999999993
  0
ARC
  5
135
330
2
100
AcDbEntity
  8
0
100
AcDbCircle
 10
14.19660574307838
 20
3.666088946578341
 30
0.0
 40
0.25
100
AcDbArc
 50
0.0
 51
29.99999999999832
  0
CIRCLE
  5
136
330
2
100
AcDbEntity
  8
0
100
AcDbCircle
 10
14.07160574307838
 20
6.416088946578341
 30
0.0
 40
0.0855000000000025
  0
CIRCLE
  5
137
330
2
100
AcDbEntity
  8
0
100
AcDbCircle
 10
16.32160574307838
 20
6.291088946578341
 30
0.0
 40
0.2810000000000025
  0
LINE
  5
138
330
2
100
AcDbEntity
  8
0
100
AcDbLine
 10
18.07160574307838
 20
7.416088946578341
 30
0.0
 11
18.07160574307837
 21
3.791088946578338
 31
0.0
  0
CIRCLE
  5
139
330
2
100
AcDbEntity
  8
0
100
AcDbCircle
 10
17.69660574307838
 20
6.416088946578341
 30
0.0
 40
0.0855000000000025
  0
LINE
  5
163
330
2
100
AcDbEntity
  8
0
100
AcDbLine
 10
28.33457761550395
 20
3.916088946578345
 30
0.0
 11
25.14707761550394
 21
3.916088946578345
 31
0.0
  0
LINE
  5
164
330
2
100
AcDbEntity
  8
0
100
AcDbLine
 10
25.14707761550394
 20
3.791088946578345
 30
0.0
 11
25.64707761550394
 21
3.791088946578345
 31
0.0
  0
LINE
  5
165
330
2
100
AcDbEntity
  8
0
100
AcDbLine
 10
25.45957761550394
 20
3.353588946578345
 30
0.0
 11
25.45957761550395
 21
0.0410889465783484
 31
0.0
  0
LINE
  5
166
330
2
100
AcDbEntity
  8
0
100
AcDbLine
 10
28.02207761550395
 20
3.353588946578345
 30
0.0
 11
28.02207761550395
 21
0.0410889465783484
 31
0.0
  0
LINE
  5
167
330
2
100
AcDbEntity
  8
0
100
AcDbLine
 10
28.02207761550395
 20
0.0410889465783484
 30
0.0
 11
26.23389769918595
 21
0.0410889465783448
 31
0.0
  0
CIRCLE
  5
168
330
2
100
AcDbEntity
  8
0
100
AcDbCircle
 10
27.70957761550395
 20
0.4160889465783448
 30
0.0
 40
0.0855000000000025
  0
CIRCLE
  5
169
330
2
100
AcDbEntity
  8
0
100
AcDbCircle
 10
25.77207761550394
 20
0.4160889465783448
 30
0.0
 40
0.0855000000000025
  0
LINE
  5
16A
330
2
100
AcDbEntity
  8
0
100
AcDbLine
 10
25.45957761550395
 20
0.0410889465783484
 30
0.0
 11
26.47657552345373
 21
0.0410889465783448
 31
0.0
  0
CIRCLE
  5
16B
330
2
100
AcDbEntity
  8
0
100
AcDbCircle
 10
26.74057761550395
 20
1.416088946578345
 30
0.0
 40
0.2810000000000025
  0
LINE
  5
16C
330
2
100
AcDbEntity
  8
0
100
AcDbLine
 10
28.75420391001582
 20
7.414140520481443
 30
0.0
 11
28.45957761550395
 21
4.041088946578345
 31
0.0
  0
LINE
  5
16D
330
2
100
AcDbEntity
  8
0
100
AcDbLine
 10
28.58457761550395
 20
4.041088946578345
 30
0.0
 11
28.87872824727729
 21
7.403246052637986
 31
0.0
  0
LINE
  5
16E
330
2
100
AcDbEntity
  8
0
  6
HIDDEN
100
AcDbLine
 10
27.83457761550395
 20
3.791088946578345
 30
0.0
 11
25.64707761550394
 21
3.791088946578345
 31
0.0
  0
CIRCLE
  5
16F
330
2
100
AcDbEntity
  8
0
100
AcDbCircle
 10
27.70957761550395
 20
2.541088946578345
 30
0.0
 40
0.0855000000000025
  0
ARC
  5
170
330
2
100
AcDbEntity
  8
0
100
AcDbCircle
 10
28.02157761550394
 20
3.541088279910497
 30
0.0
 40
0.1875000000000025
100
AcDbArc
 50
175.8147774803701
 51
270.3055789394201
  0
LINE
  5
171
330
2
100
AcDbEntity
  8
0
100
AcDbLine
 10
28.33457761550395
 20
3.791088946578345
 30
0.0
 11
27.83457761550395
 21
3.791088946578345
 31
0.0
  0
ARC
  5
172
330
2
100
AcDbEntity
  8
0
100
AcDbCircle
 10
28.33457761550395
 20
4.041088946578345
 30
0.0
 40
0.125
100
AcDbArc
 50
270.0000000000001
 51
0.0000000000000325
  0
ARC
  5
173
330
2
100
AcDbEntity
  8
0
100
AcDbCircle
 10
28.33457761550395
 20
4.041088946578345
 30
0.0
 40
0.25
100
AcDbArc
 50
270.0000000000001
 51
0.0000000000000325
  0
LINE
  5
174
330
2
100
AcDbEntity
  8
0
100
AcDbLine
 10
28.20857761550393
 20
3.916088946578348
 30
0.0
 11
28.20857761550393
 21
3.791088946578345
 31
0.0
  0
LINE
  5
175
330
2
100
AcDbEntity
  8
0
100
AcDbLine
 10
27.83457761550395
 20
3.916088946578348
 30
0.0
 11
27.83457761550395
 21
3.554772212094008
 31
0.0
  0
ARC
  5
176
330
2
100
AcDbEntity
  8
0
100
AcDbCircle
 10
25.46007761550395
 20
3.541088279910497
 30
0.0
 40
0.1875000000000025
100
AcDbArc
 50
269.6944210605799
 51
4.18522251962993
  0
CIRCLE
  5
177
330
2
100
AcDbEntity
  8
0
100
AcDbCircle
 10
25.77207761550394
 20
2.541088946578345
 30
0.0
 40
0.0855000000000025
  0
LINE
  5
178
330
2
100
AcDbEntity
  8
0
100
AcDbLine
 10
25.64707761550394
 20
3.916088946578348
 30
0.0
 11
25.64707761550394
 21
3.554772212094008
 31
0.0
  0
LINE
  5
179
330
2
100
AcDbEntity
  8
0
100
AcDbLine
 10
28.87872824727729
 20
7.403246052637986
 30
0.0
 11
28.75420391001582
 21
7.414140520481443
 31
0.0
  0
LINE
  5
17A
330
2
100
AcDbEntity
  8
0
100
AcDbLine
 10
24.60340264646913
 20
7.392351584794529
 30
0.0
 11
24.89755327824247
 21
4.030194478734888
 31
0.0
  0
LINE
  5
17B
330
2
100
AcDbEntity
  8
0
100
AcDbLine
 10
25.02207761550394
 20
4.041088946578345
 30
0.0
 11
24.72792698373059
 21
7.403246052637986
 31
0.0
  0
LINE
  5
17C
330
2
100
AcDbEntity
  8
0
100
AcDbLine
 10
25.27307761550395
 20
3.916088946578348
 30
0.0
 11
25.27307761550395
 21
3.791088946578345
 31
0.0
  0
ARC
  5
17D
330
2
100
AcDbEntity
  8
0
100
AcDbCircle
 10
25.14707761550394
 20
4.041088946578345
 30
0.0
 40
0.125
100
AcDbArc
 50
180.0
 51
270.0
  0
ARC
  5
17E
330
2
100
AcDbEntity
  8
0
100
AcDbCircle
 10
25.14707761550394
 20
4.041088946578345
 30
0.0
 40
0.25
100
AcDbArc
 50
180.0
 51
270.0
  0
LINE
  5
17F
330
2
100
AcDbEntity
  8
0
100
AcDbLine
 10
24.72792698373059
 20
7.403246052637986
 30
0.0
 11
24.60340264646913
 21
7.392351584794529
 31
0.0
  0
ENDSEC
  0
SECTION
  2
OBJECTS
  0
DICTIONARY
  5
7
330
0
100
AcDbDictionary
281
     1
  3
ACAD_COLOR
350
15D
  3
ACAD_GROUP
350
1F
  3
ACAD_LAYOUT
350
B
  3
ACAD_MATERIAL
350
15C
  3
ACAD_MLINESTYLE
350
20
  3
ACAD_PLOTSETTINGS
350
21
  3
ACAD_PLOTSTYLENAME
350
6
  3
ACAD_TABLESTYLE
350
15E
  3
ACDBHEADERROUNDTRIPXREC
350
196
  3
AcDbVariableDictionary
350
BD
  0
DICTIONARY
  5
15D
102
{ACAD_REACTORS
330
7
102
}
330
7
100
AcDbDictionary
281
     1
  0
DICTIONARY
  5
1F
102
{ACAD_REACTORS
330
7
102
}
330
7
100
AcDbDictionary
281
     1
  0
DICTIONARY
  5
B
102
{ACAD_REACTORS
330
7
102
}
330
7
100
AcDbDictionary
281
     1
  3
Layout1
350
F
  3
Model
350
A
  0
DICTIONARY
  5
15C
102
{ACAD_REACTORS
330
7
102
}
330
7
100
AcDbDictionary
281
     1
  0
DICTIONARY
  5
20
102
{ACAD_REACTORS
330
7
102
}
330
7
100
AcDbDictionary
281
     1
  3
STANDARD
350
23
  0
DICTIONARY
  5
21
102
{ACAD_REACTORS
330
7
102
}
330
7
100
AcDbDictionary
281
     1
  0
ACDBDICTIONARYWDFLT
  5
6
102
{ACAD_REACTORS
330
7
102
}
330
7
100
AcDbDictionary
281
     1
  3
Normal
350
5
100
AcDbDictionaryWithDefault
340
5
  0
DICTIONARY
  5
15E
102
{ACAD_REACTORS
330
7
102
}
330
7
100
AcDbDictionary
281
     1
  3
Standard
350
15F
  0
DICTIONARY
  5
196
102
{ACAD_REACTORS
330
7
102
}
330
7
100
AcDbDictionary
281
     1
  3
COLORDICT
350
197
  3
MATERIALDICT
350
198
  0
DICTIONARY
  5
BD
102
{ACAD_REACTORS
330
7
102
}
330
7
100
AcDbDictionary
281
     1
  3
CTABLESTYLE
350
18A
  3
HIDETEXT
350
195
  0
LAYOUT
  5
F
102
{ACAD_REACTORS
330
B
102
}
102
{ACAD_XDICTIONARY
360
199
102
}
330
B
100
AcDbPlotSettings
  1

  2
X:\Program Files\AutoCAD2002\plotters\DWF ePlot (optimized for plotting).pc3
  4

  6

 40
0.0
 41
0.0
 42
0.0
 43
0.0
 44
0.0
 45
0.0
 46
0.0
 47
0.0
 48
0.0
 49
0.0
140
0.0
141
0.0
142
1.0
143
1.0
 70
   688
 72
     0
 73
     0
 74
     5
  7

 75
    16
147
1.0
148
0.0
149
0.0
100
AcDbLayout
  1
Layout1
 70
     0
 71
     1
 10
0.0
 20
0.0
 11
12.0
 21
9.0
 12
0.0
 22
0.0
 32
0.0
 14
1.000000000000000E+20
 24
1.000000000000000E+20
 34
1.000000000000000E+20
 15
-1.000000000000000E+20
 25
-1.000000000000000E+20
 35
-1.000000000000000E+20
146
0.0
 13
0.0
 23
0.0
 33
0.0
 16
1.0
 26
0.0
 36
0.0
 17
0.0
 27
1.0
 37
0.0
 76
     0
330
C
  0
LAYOUT
  5
A
102
{ACAD_REACTORS
330
B
102
}
102
{ACAD_XDICTIONARY
360
19B
102
}
330
B
100
AcDbPlotSettings
  1

  2
X:\Program Files\AutoCAD2002\plotters\DWF ePlot (optimized for plotting).pc3
  4

  6

 40
0.0
 41
0.0
 42
0.0
 43
0.0
 44
0.0
 45
0.0
 46
0.0
 47
0.0
 48
0.0
 49
0.0
140
0.0
141
0.0
142
1.0
143
1.0
 70
  1712
 72
     0
 73
     0
 74
     0
  7

 75
     0
147
1.0
148
0.0
149
0.0
100
AcDbLayout
  1
Model
 70
     1
 71
     0
 10
0.0
 20
0.0
 11
12.0
 21
9.0
 12
0.0
 22
0.0
 32
0.0
 14
0.0
 24
0.0
 34
0.0
 15
0.0
 25
0.0
 35
0.0
146
0.0
 13
0.0
 23
0.0
 33
0.0
 16
1.0
 26
0.0
 36
0.0
 17
0.0
 27
1.0
 37
0.0
 76
     0
330
2
  0
MLINESTYLE
  5
23
102
{ACAD_REACTORS
330
20
102
}
330
20
100
AcDbMlineStyle
  2
STANDARD
 70
     0
  3

 62
   256
 51
90.0
 52
90.0
 71
     2
 49
0.5
 62
   256
  6
BYLAYER
 49
-0.5
 62
   256
  6
BYLAYER
  0
ACDBPLACEHOLDER
  5
5
102
{ACAD_REACTORS
330
6
102
}
330
6
  0
ACAD_PROXY_OBJECT
  5
15F
102
{ACAD_REACTORS
330
15E
102
}
330
15E
100
AcDbProxyObject
 90
      499
 91
      505
 95
   983063
 70
     0
 93
     1841
310
4214DD185B99185C9928B81E85EB51B8AE3F2E07A17AD46E2B8FC02B5E8DC0F42B1CFD028000000C1008070000C3001FDFF8000000C1003FBFF000000182007F7FE00000030400FEFFC00000060801FDFF8000000C1003FBFF00000018200000000000000681FA0B0000001820100E000186003FBFF000000182007F7FE000
310
00030400FEFFC00000060801FDFF8000000C1003FBFF000000182007F7FE000000304000AD7A3703D0AC73F4160000003040201C00030C007F7FE00000030400FEFFC00000060801FDFF8000000C1003FBFF000000182007F7FE00000030400FEFFC000000608000
340
12
340
12
340
12
 94
        0
  0
XRECORD
  5
197
102
{ACAD_REACTORS
330
196
102
}
330
196
100
AcDbXrecord
340
15D
  0
XRECORD
  5
198
102
{ACAD_REACTORS
330
196
102
}
330
196
100
AcDbXrecord
340
15C
  0
DICTIONARYVAR
  5
18A
102
{ACAD_REACTORS
330
BD
102
}
330
BD
100
DictionaryVariables
280
     0
  1
STANDARD
  0
DICTIONARYVAR
  5
195
102
{ACAD_REACTORS
330
BD
102
}
330
BD
100
DictionaryVariables
280
     0
  1
0
  0
DICTIONARY
  5
199
330
F
100
AcDbDictionary
280
     1
281
     1
  3
ACAD_XREC_ROUNDTRIP
360
19A
  0
DICTIONARY
  5
19B
330
A
100
AcDbDictionary
280
     1
281
     1
  3
ACAD_XREC_ROUNDTRIP
360
19C
  0
XRECORD
  5
19A
102
{ACAD_REACTORS
330
199
102
}
330
199
100
AcDbXrecord
102
SHADEPLOT
 70
     0
102
SHADEPLOTRESLEVEL
 70
     2
102
SHADEPLOTCUSTOMDPI
 70
   300
  0
XRECORD
  5
19C
102
{ACAD_REACTORS
330
19B
102
}
330
19B
100
AcDbXrecord
102
SHADEPLOT
 70
     0
102
SHADEPLOTRESLEVEL
 70
     2
102
SHADEPLOTCUSTOMDPI
 70
   300
  0
ENDSEC
  0
EOF
