  0
SECTION
  2
HEADER
  9
$ACADVER
  1
AC1015
  9
$ACADMAINTVER
 70
     6
  9
$DWGCODEPAGE
  3
ANSI_1252
  9
$INSBASE
 10
0.0
 20
0.0
 30
0.0
  9
$EXTMIN
 10
0.2703858356345279
 20
0.2707673344653614
 30
-0.0000000000000058
  9
$EXTMAX
 10
31.24877937981981
 20
14.77443702900149
 30
0.0000000000000104
  9
$LIMMIN
 10
0.0
 20
0.0
  9
$LIMMAX
 10
40.00000000000039
 20
52.50000000000051
  9
$ORTHOMODE
 70
     1
  9
$REGENMODE
 70
     1
  9
$FILLMODE
 70
     1
  9
$QTEXTMODE
 70
     0
  9
$MIRRTEXT
 70
     0
  9
$LTSCALE
 40
0.75
  9
$ATTMODE
 70
     1
  9
$TEXTSIZE
 40
0.450000000000004
  9
$TRACEWID
 40
0.05
  9
$TEXTSTYLE
  7
STANDARD
  9
$CLAYER
  8
0
  9
$CELTYPE
  6
ByLayer
  9
$CECOLOR
 62
   256
  9
$CELTSCALE
 40
1.0
  9
$DISPSILH
 70
     0
  9
$DIMSCALE
 40
1.0
  9
$DIMASZ
 40
0.625000000000004
  9
$DIMEXO
 40
0.1
  9
$DIMDLI
 40
0.375
  9
$DIMRND
 40
0.0
  9
$DIMDLE
 40
0.0
  9
$DIMEXE
 40
0.400000000000004
  9
$DIMTP
 40
0.0
  9
$DIMTM
 40
0.0
  9
$DIMTXT
 40
0.450000000000004
  9
$DIMCEN
 40
-0.06
  9
$DIMTSZ
 40
0.0
  9
$DIMTOL
 70
     0
  9
$DIMLIM
 70
     0
  9
$DIMTIH
 70
     1
  9
$DIMTOH
 70
     1
  9
$DIMSE1
 70
     0
  9
$DIMSE2
 70
     0
  9
$DIMTAD
 70
     0
  9
$DIMZIN
 70
     0
  9
$DIMBLK
  1

  9
$DIMASO
 70
     0
  9
$DIMSHO
 70
     0
  9
$DIMPOST
  1

  9
$DIMAPOST
  1

  9
$DIMALT
 70
     0
  9
$DIMALTD
 70
     2
  9
$DIMALTF
 40
25.4
  9
$DIMLFAC
 40
1.0
  9
$DIMTOFL
 70
     0
  9
$DIMTVP
 40
0.0
  9
$DIMTIX
 70
     0
  9
$DIMSOXD
 70
     0
  9
$DIMSAH
 70
     0
  9
$DIMBLK1
  1

  9
$DIMBLK2
  1

  9
$DIMSTYLE
  2
Standard
  9
$DIMCLRD
 70
     0
  9
$DIMCLRE
 70
     0
  9
$DIMCLRT
 70
     0
  9
$DIMTFAC
 40
1.0
  9
$DIMGAP
 40
0.09
  9
$DIMJUST
 70
     0
  9
$DIMSD1
 70
     0
  9
$DIMSD2
 70
     0
  9
$DIMTOLJ
 70
     1
  9
$DIMTZIN
 70
     0
  9
$DIMALTZ
 70
     0
  9
$DIMALTTZ
 70
     0
  9
$DIMUPT
 70
     0
  9
$DIMDEC
 70
     3
  9
$DIMTDEC
 70
     3
  9
$DIMALTU
 70
     2
  9
$DIMALTTD
 70
     2
  9
$DIMTXSTY
  7
STANDARD
  9
$DIMAUNIT
 70
     0
  9
$DIMADEC
 70
     0
  9
$DIMALTRND
 40
0.0
  9
$DIMAZIN
 70
     0
  9
$DIMDSEP
 70
    46
  9
$DIMATFIT
 70
     3
  9
$DIMFRAC
 70
     0
  9
$DIMLDRBLK
  1

  9
$DIMLUNIT
 70
     2
  9
$DIMLWD
 70
    -2
  9
$DIMLWE
 70
    -2
  9
$DIMTMOVE
 70
     2
  9
$LUNITS
 70
     2
  9
$LUPREC
 70
     3
  9
$SKETCHINC
 40
0.1
  9
$FILLETRAD
 40
0.0
  9
$AUNITS
 70
     0
  9
$AUPREC
 70
     0
  9
$MENU
  1
acad
  9
$ELEVATION
 40
0.0
  9
$PELEVATION
 40
0.0
  9
$THICKNESS
 40
0.0
  9
$LIMCHECK
 70
     0
  9
$CHAMFERA
 40
0.0
  9
$CHAMFERB
 40
0.0
  9
$CHAMFERC
 40
0.0
  9
$CHAMFERD
 40
0.0
  9
$SKPOLY
 70
     0
  9
$TDCREATE
 40
2449188.773836806
  9
$TDUCREATE
 40
2449189.107170139
  9
$TDUPDATE
 40
2454162.961588403
  9
$TDUUPDATE
 40
2454163.294921736
  9
$TDINDWG
 40
0.0390770602
  9
$TDUSRTIMER
 40
0.0390770602
  9
$USRTIMER
 70
     1
  9
$ANGBASE
 50
0.0
  9
$ANGDIR
 70
     0
  9
$PDMODE
 70
     0
  9
$PDSIZE
 40
0.0
  9
$PLINEWID
 40
0.0
  9
$SPLFRAME
 70
     0
  9
$SPLINETYPE
 70
     6
  9
$SPLINESEGS
 70
     8
  9
$HANDSEED
  5
181
  9
$SURFTAB1
 70
     6
  9
$SURFTAB2
 70
     6
  9
$SURFTYPE
 70
     6
  9
$SURFU
 70
     6
  9
$SURFV
 70
     6
  9
$UCSBASE
  2

  9
$UCSNAME
  2

  9
$UCSORG
 10
0.0
 20
0.0
 30
0.0
  9
$UCSXDIR
 10
1.0
 20
0.0
 30
0.0
  9
$UCSYDIR
 10
0.0
 20
1.0
 30
0.0
  9
$UCSORTHOREF
  2

  9
$UCSORTHOVIEW
 70
     0
  9
$UCSORGTOP
 10
0.0
 20
0.0
 30
0.0
  9
$UCSORGBOTTOM
 10
0.0
 20
0.0
 30
0.0
  9
$UCSORGLEFT
 10
0.0
 20
0.0
 30
0.0
  9
$UCSORGRIGHT
 10
0.0
 20
0.0
 30
0.0
  9
$UCSORGFRONT
 10
0.0
 20
0.0
 30
0.0
  9
$UCSORGBACK
 10
0.0
 20
0.0
 30
0.0
  9
$PUCSBASE
  2

  9
$PUCSNAME
  2

  9
$PUCSORG
 10
0.0
 20
0.0
 30
0.0
  9
$PUCSXDIR
 10
1.0
 20
0.0
 30
0.0
  9
$PUCSYDIR
 10
0.0
 20
1.0
 30
0.0
  9
$PUCSORTHOREF
  2

  9
$PUCSORTHOVIEW
 70
     0
  9
$PUCSORGTOP
 10
0.0
 20
0.0
 30
0.0
  9
$PUCSORGBOTTOM
 10
0.0
 20
0.0
 30
0.0
  9
$PUCSORGLEFT
 10
0.0
 20
0.0
 30
0.0
  9
$PUCSORGRIGHT
 10
0.0
 20
0.0
 30
0.0
  9
$PUCSORGFRONT
 10
0.0
 20
0.0
 30
0.0
  9
$PUCSORGBACK
 10
0.0
 20
0.0
 30
0.0
  9
$USERI1
 70
     0
  9
$USERI2
 70
     0
  9
$USERI3
 70
     0
  9
$USERI4
 70
     0
  9
$USERI5
 70
     0
  9
$USERR1
 40
0.0
  9
$USERR2
 40
0.0
  9
$USERR3
 40
0.0
  9
$USERR4
 40
0.0
  9
$USERR5
 40
0.0
  9
$WORLDVIEW
 70
     1
  9
$SHADEDGE
 70
     3
  9
$SHADEDIF
 70
    70
  9
$TILEMODE
 70
     1
  9
$MAXACTVP
 70
    16
  9
$PINSBASE
 10
0.0
 20
0.0
 30
0.0
  9
$PLIMCHECK
 70
     0
  9
$PEXTMIN
 10
1.000000000000000E+20
 20
1.000000000000000E+20
 30
1.000000000000000E+20
  9
$PEXTMAX
 10
-1.000000000000000E+20
 20
-1.000000000000000E+20
 30
-1.000000000000000E+20
  9
$PLIMMIN
 10
0.0
 20
0.0
  9
$PLIMMAX
 10
12.0
 20
9.0
  9
$UNITMODE
 70
     0
  9
$VISRETAIN
 70
     0
  9
$PLINEGEN
 70
     0
  9
$PSLTSCALE
 70
     0
  9
$TREEDEPTH
 70
  3020
  9
$CMLSTYLE
  2
Standard
  9
$CMLJUST
 70
     0
  9
$CMLSCALE
 40
1.0
  9
$PROXYGRAPHICS
 70
     1
  9
$MEASUREMENT
 70
     0
  9
$CELWEIGHT
370
    -1
  9
$ENDCAPS
280
     0
  9
$JOINSTYLE
280
     0
  9
$LWDISPLAY
290
     0
  9
$INSUNITS
 70
     0
  9
$HYPERLINKBASE
  1

  9
$STYLESHEET
  1

  9
$XEDIT
290
     1
  9
$CEPSNTYPE
380
     0
  9
$PSTYLEMODE
290
     1
  9
$FINGERPRINTGUID
  2
{70C93802-9E68-4289-B79A-70D0E455C0BF}
  9
$VERSIONGUID
  2
{5DB1457E-D3C4-4DE2-A5F7-13B33B365E62}
  9
$EXTNAMES
290
     1
  9
$PSVPSCALE
 40
0.0
  9
$OLESTARTUP
290
     0
  0
ENDSEC
  0
SECTION
  2
CLASSES
  0
CLASS
  1
ACDBDICTIONARYWDFLT
  2
AcDbDictionaryWithDefault
  3
AutoCAD 2000
 90
        0
280
     0
281
     0
  0
CLASS
  1
ACDBPLACEHOLDER
  2
AcDbPlaceHolder
  3
ObjectDBX Classes
 90
        0
280
     0
281
     0
  0
CLASS
  1
LAYOUT
  2
AcDbLayout
  3
ObjectDBX Classes
 90
        0
280
     0
281
     0
  0
CLASS
  1
DICTIONARYVAR
  2
AcDbDictionaryVar
  3
AutoCAD 2000
 90
        0
280
     0
281
     0
  0
CLASS
  1
TABLESTYLE
  2
AcDbTableStyle
  3
ObjectDBX Classes
 90
     2047
280
     1
281
     0
  0
ENDSEC
  0
SECTION
  2
TABLES
  0
TABLE
  2
VPORT
  5
19
330
0
100
AcDbSymbolTable
 70
     2
  0
VPORT
  5
173
330
19
100
AcDbSymbolTableRecord
100
AcDbViewportTableRecord
  2
*Active
 70
     0
 10
0.0
 20
0.0
 11
1.0
 21
1.0
 12
20.0000000000002
 22
26.25000000000026
 13
0.0
 23
0.0
 14
0.0625
 24
0.0625
 15
0.25
 25
0.25
 16
0.0
 26
0.0
 36
1.0
 17
0.0
 27
0.0
 37
0.0
 40
53.15488565488617
 41
1.814583333333333
 42
50.0
 43
0.0
 44
0.0
 50
0.0
 51
0.0
 71
     0
 72
   100
 73
     1
 74
     0
 75
     0
 76
     0
 77
     0
 78
     0
281
     0
 65
     1
110
0.0
120
0.0
130
0.0
111
1.0
121
0.0
131
0.0
112
0.0
122
1.0
132
0.0
 79
     0
146
0.0
  0
ENDTAB
  0
TABLE
  2
LTYPE
  5
14
330
0
100
AcDbSymbolTable
 70
     2
  0
LTYPE
  5
15
330
14
100
AcDbSymbolTableRecord
100
AcDbLinetypeTableRecord
  2
ByBlock
 70
     0
  3

 72
    65
 73
     0
 40
0.0
  0
LTYPE
  5
16
330
14
100
AcDbSymbolTableRecord
100
AcDbLinetypeTableRecord
  2
ByLayer
 70
     0
  3

 72
    65
 73
     0
 40
0.0
  0
LTYPE
  5
8
330
14
100
AcDbSymbolTableRecord
100
AcDbLinetypeTableRecord
  2
CONTINUOUS
 70
     0
  3
Solid line
 72
    65
 73
     0
 40
0.0
  0
LTYPE
  5
A1
330
14
100
AcDbSymbolTableRecord
100
AcDbLinetypeTableRecord
  2
HIDDEN
 70
     0
  3
_ _ _ _ _ _ _ _ _ _ _ _ _ _ _ _ _ _ _ _ _ _ _
 72
    65
 73
     2
 40
0.375
 49
0.25
 74
     0
 49
-0.125
 74
     0
  0
ENDTAB
  0
TABLE
  2
LAYER
  5
10
330
0
100
AcDbSymbolTable
 70
     1
  0
LAYER
  5
4
330
10
100
AcDbSymbolTableRecord
100
AcDbLayerTableRecord
  2
0
 70
     0
 62
     7
  6
CONTINUOUS
370
    -3
390
5
  0
ENDTAB
  0
TABLE
  2
STYLE
  5
11
330
0
100
AcDbSymbolTable
 70
     1
  0
STYLE
  5
12
330
11
100
AcDbSymbolTableRecord
100
AcDbTextStyleTableRecord
  2
STANDARD
 70
     0
 40
0.0
 41
1.0
 50
0.0
 71
     0
 42
0.450000000000004
  3
TXT
  4

  0
ENDTAB
  0
TABLE
  2
VIEW
  5
17
330
0
100
AcDbSymbolTable
 70
     0
  0
ENDTAB
  0
TABLE
  2
UCS
  5
18
330
0
100
AcDbSymbolTable
 70
     0
  0
ENDTAB
  0
TABLE
  2
APPID
  5
1B
330
0
100
AcDbSymbolTable
 70
     1
  0
APPID
  5
1C
330
1B
100
AcDbSymbolTableRecord
100
AcDbRegAppTableRecord
  2
ACAD
 70
     0
  0
ENDTAB
  0
TABLE
  2
DIMSTYLE
  5
1D
330
0
100
AcDbSymbolTable
 70
     1
100
AcDbDimStyleTable
  0
DIMSTYLE
105
24
330
1D
100
AcDbSymbolTableRecord
100
AcDbDimStyleTableRecord
  2
Standard
 70
     0
  3

  4

340
12
  0
ENDTAB
  0
TABLE
  2
BLOCK_RECORD
  5
1
330
0
100
AcDbSymbolTable
 70
     0
  0
BLOCK_RECORD
  5
2
330
1
100
AcDbSymbolTableRecord
100
AcDbBlockTableRecord
  2
*Model_Space
340
A
  0
BLOCK_RECORD
  5
C
330
1
100
AcDbSymbolTableRecord
100
AcDbBlockTableRecord
  2
*Paper_Space
340
F
  0
ENDTAB
  0
ENDSEC
  0
SECTION
  2
BLOCKS
  0
BLOCK
  5
3
330
2
100
AcDbEntity
  8
0
100
AcDbBlockBegin
  2
*Model_Space
 70
     0
 10
0.0
 20
0.0
 30
0.0
  3
*Model_Space
  1

  4

  0
ENDBLK
  5
9
330
2
100
AcDbEntity
  8
0
100
AcDbBlockEnd
  0
BLOCK
  5
D
330
C
100
AcDbEntity
 67
     1
  8
0
100
AcDbBlockBegin
  2
*Paper_Space
 70
     0
 10
0.0
 20
0.0
 30
0.0
  3
*Paper_Space
  1

  4

  0
ENDBLK
  5
E
330
C
100
AcDbEntity
 67
     1
  8
0
100
AcDbBlockEnd
  0
ENDSEC
  0
SECTION
  2
ENTITIES
  0
LINE
  5
CF
330
2
100
AcDbEntity
  8
0
100
AcDbLine
 10
0.2714137625474393
 20
7.641230358830644
 30
0.0
 11
0.5774334814585842
 21
4.137740297874814
 31
0.0
  0
LINE
  5
D0
330
2
100
AcDbEntity
  8
0
100
AcDbLine
 10
4.241652504797102
 20
4.137722804136821
 30
0.0
 11
4.54721579072692
 21
7.630327144118191
 31
0.0
  0
LINE
  5
D1
330
2
100
AcDbEntity
  8
0
100
AcDbLine
 10
0.3336766958109578
 20
7.646668845883376
 30
0.0
 11
0.6396964147221027
 21
4.143178784927546
 31
0.0
  0
LINE
  5
D2
330
2
100
AcDbEntity
  8
0
100
AcDbLine
 10
4.179390336166371
 20
4.14317003805855
 30
0.0
 11
4.484953622096185
 21
7.635774378039919
 31
0.0
  0
LINE
  5
D3
330
2
100
AcDbEntity
  8
0
100
AcDbLine
 10
3.722052990322837
 20
3.586117271980278
 30
0.0
 11
3.722052990322837
 21
0.2736172719802816
 31
0.0
  0
LINE
  5
D4
330
2
100
AcDbEntity
  8
0
100
AcDbLine
 10
1.097052990322837
 20
3.586117271980278
 30
0.0
 11
1.097052990322837
 21
0.273617271980271
 31
0.0
  0
LINE
  5
D5
330
2
100
AcDbEntity
  8
0
100
AcDbLine
 10
3.722052990322837
 20
0.2736172719802816
 30
0.0
 11
1.097052990322837
 21
0.273617271980271
 31
0.0
  0
CIRCLE
  5
D6
330
2
100
AcDbEntity
  8
0
100
AcDbCircle
 10
2.409802990322838
 20
1.648617271980278
 30
0.0
 40
0.2810000000000025
  0
CIRCLE
  5
D7
330
2
100
AcDbEntity
  8
0
100
AcDbCircle
 10
1.409552990322837
 20
0.6486172719802781
 30
0.0
 40
0.0855000000000025
  0
CIRCLE
  5
D8
330
2
100
AcDbEntity
  8
0
100
AcDbCircle
 10
1.409552990322837
 20
2.773617271980278
 30
0.0
 40
0.0855000000000025
  0
CIRCLE
  5
D9
330
2
100
AcDbEntity
  8
0
100
AcDbCircle
 10
3.409552990322837
 20
0.6486172719802781
 30
0.0
 40
0.0855000000000025
  0
CIRCLE
  5
DA
330
2
100
AcDbEntity
  8
0
100
AcDbCircle
 10
3.409552990322837
 20
2.773617271980278
 30
0.0
 40
0.0855000000000025
  0
LINE
  5
DB
330
2
100
AcDbEntity
  8
0
100
AcDbLine
 10
4.117128167535636
 20
4.086117271980278
 30
0.0
 11
0.7019593479856177
 21
4.086117271980278
 31
0.0
  0
LINE
  5
DC
330
2
100
AcDbEntity
  8
0
  6
HIDDEN
100
AcDbLine
 10
1.284552990322837
 20
4.023617271980278
 30
0.0
 11
3.534552990322837
 21
4.023617271980278
 31
0.0
  0
LINE
  5
DD
330
2
100
AcDbEntity
  8
0
100
AcDbLine
 10
0.7019593479856177
 20
4.023617271980278
 30
0.0
 11
1.284552990322837
 21
4.023617271980278
 31
0.0
  0
ARC
  5
DE
330
2
100
AcDbEntity
  8
0
100
AcDbCircle
 10
0.7019593479856177
 20
4.148617271980278
 30
0.0
 40
0.125
100
AcDbArc
 50
184.9919508810836
 51
270.0
  0
ARC
  5
DF
330
2
100
AcDbEntity
  8
0
100
AcDbCircle
 10
0.7019593479856177
 20
4.148617271980278
 30
0.0
 40
0.0625
100
AcDbArc
 50
184.9919508810836
 51
270.0
  0
LINE
  5
E0
330
2
100
AcDbEntity
  8
0
100
AcDbLine
 10
0.9095529903228332
 20
4.086117271980278
 30
0.0
 11
0.9095529903228332
 21
4.023617271980278
 31
0.0
  0
LINE
  5
E1
330
2
100
AcDbEntity
  8
0
100
AcDbLine
 10
1.284552990322837
 20
4.086117271980278
 30
0.0
 11
1.284552990322837
 21
3.787300537495941
 31
0.0
  0
ARC
  5
E2
330
2
100
AcDbEntity
  8
0
100
AcDbCircle
 10
1.097552990322839
 20
3.77361660531243
 30
0.0
 40
0.1875000000000025
100
AcDbArc
 50
269.6944210605799
 51
4.185222519629921
  0
ARC
  5
E3
330
2
100
AcDbEntity
  8
0
100
AcDbCircle
 10
3.721552990322834
 20
3.77361660531243
 30
0.0
 40
0.1875000000000025
100
AcDbArc
 50
175.8147774803701
 51
270.3055789394201
  0
LINE
  5
E4
330
2
100
AcDbEntity
  8
0
100
AcDbLine
 10
4.117128167535636
 20
4.023617271980278
 30
0.0
 11
3.534552990322837
 21
4.023617271980278
 31
0.0
  0
LINE
  5
E5
330
2
100
AcDbEntity
  8
0
100
AcDbLine
 10
3.534552990322837
 20
4.086117271980278
 30
0.0
 11
3.534552990322837
 21
3.787300537495941
 31
0.0
  0
ARC
  5
E6
330
2
100
AcDbEntity
  8
0
100
AcDbCircle
 10
4.117128167535636
 20
4.148617271980278
 30
0.0
 40
0.125
100
AcDbArc
 50
270.0
 51
354.9999999999999
  0
ARC
  5
E7
330
2
100
AcDbEntity
  8
0
100
AcDbCircle
 10
4.117128167535636
 20
4.148617271980278
 30
0.0
 40
0.0625
100
AcDbArc
 50
270.0
 51
354.9999999999999
  0
LINE
  5
E8
330
2
100
AcDbEntity
  8
0
100
AcDbLine
 10
3.909552990322837
 20
4.086117271980278
 30
0.0
 11
3.909552990322837
 21
4.023617271980275
 31
0.0
  0
LINE
  5
E9
330
2
100
AcDbEntity
  8
0
100
AcDbLine
 10
0.271414526565831
 20
7.641221611907895
 30
0.0
 11
0.3336766958109578
 21
7.646668845883376
 31
0.0
  0
LINE
  5
EA
330
2
100
AcDbEntity
  8
0
100
AcDbLine
 10
4.484953622096185
 20
7.635774378039919
 30
0.0
 11
4.54721579072692
 21
7.630327144118191
 31
0.0
  0
LINE
  5
FE
330
2
100
AcDbEntity
  8
0
100
AcDbLine
 10
20.38460944434219
 20
14.39798489618467
 30
0.0
 11
17.10330744432441
 21
14.39798489618467
 31
0.0
  0
LINE
  5
FF
330
2
100
AcDbEntity
  8
0
100
AcDbLine
 10
17.10330744432441
 20
11.77298489618468
 30
0.0
 11
20.38460944434219
 21
11.77298489618468
 31
0.0
  0
LINE
  5
100
330
2
100
AcDbEntity
  8
0
100
AcDbLine
 10
20.38460944434219
 20
14.71048489618468
 30
0.0
 11
11.13460944434219
 21
14.71048489618468
 31
0.0
  0
LINE
  5
101
330
2
100
AcDbEntity
  8
0
100
AcDbLine
 10
20.38460944434219
 20
11.46048489618468
 30
0.0
 11
11.13460944434219
 21
11.46048489618468
 31
0.0
  0
LINE
  5
102
330
2
100
AcDbEntity
  8
0
100
AcDbLine
 10
20.38460944434219
 20
14.77298489618468
 30
0.0
 11
11.13460944434219
 21
14.77298489618468
 31
0.0
  0
LINE
  5
103
330
2
100
AcDbEntity
  8
0
100
AcDbLine
 10
20.38460944434219
 20
11.39798489618468
 30
0.0
 11
11.13460944434219
 21
11.39798489618468
 31
0.0
  0
LINE
  5
104
330
2
100
AcDbEntity
  8
0
  6
HIDDEN
100
AcDbLine
 10
11.16590944434219
 20
14.21098489618467
 30
0.0
 11
11.16590944434219
 21
11.95998489618469
 31
0.0
  0
LINE
  5
105
330
2
100
AcDbEntity
  8
0
100
AcDbLine
 10
11.10340944434219
 20
14.39798489618467
 30
0.0
 11
11.10340944434219
 21
11.77298489618469
 31
0.0
  0
ARC
  5
106
330
2
100
AcDbEntity
  8
0
100
AcDbCircle
 10
11.16590944434219
 20
11.77248489618469
 30
0.0
 40
0.1875000000000025
100
AcDbArc
 50
270.0
 51
90.0
  0
LINE
  5
107
330
2
100
AcDbEntity
  8
0
100
AcDbLine
 10
11.13460944434219
 20
11.58498489618469
 30
0.0
 11
11.13460944434219
 21
11.39798489618468
 31
0.0
  0
LINE
  5
108
330
2
100
AcDbEntity
  8
0
100
AcDbLine
 10
11.16590944434219
 20
11.77298489618468
 30
0.0
 11
11.10340944434219
 21
11.77298489618469
 31
0.0
  0
LINE
  5
109
330
2
100
AcDbEntity
  8
0
100
AcDbLine
 10
11.16590944434219
 20
11.58498489618469
 30
0.0
 11
11.13460944434219
 21
11.58498489618469
 31
0.0
  0
LINE
  5
10A
330
2
100
AcDbEntity
  8
0
100
AcDbLine
 10
11.10340944434219
 20
11.95998489618469
 30
0.0
 11
11.16590944434219
 21
11.95998489618469
 31
0.0
  0
LINE
  5
10B
330
2
100
AcDbEntity
  8
0
100
AcDbLine
 10
11.16590944434219
 20
11.95998489618469
 30
0.0
 11
11.16590944434219
 21
11.77298489618468
 31
0.0
  0
ARC
  5
10C
330
2
100
AcDbEntity
  8
0
100
AcDbCircle
 10
11.16590944434219
 20
14.39848489618467
 30
0.0
 40
0.1875
100
AcDbArc
 50
270.0
 51
90.0
  0
LINE
  5
10D
330
2
100
AcDbEntity
  8
0
100
AcDbLine
 10
11.13460944434219
 20
14.77298489618469
 30
0.0
 11
11.1346094443422
 21
14.58598489618468
 31
0.0
  0
LINE
  5
10E
330
2
100
AcDbEntity
  8
0
100
AcDbLine
 10
11.16590944434219
 20
14.58598489618467
 30
0.0
 11
11.13460944434219
 21
14.58598489618467
 31
0.0
  0
LINE
  5
10F
330
2
100
AcDbEntity
  8
0
100
AcDbLine
 10
11.10340944434219
 20
14.39798489618467
 30
0.0
 11
11.16590944434219
 21
14.39798489618467
 31
0.0
  0
LINE
  5
110
330
2
100
AcDbEntity
  8
0
100
AcDbLine
 10
11.16590944434219
 20
14.21098489618467
 30
0.0
 11
11.10340944434219
 21
14.21098489618467
 31
0.0
  0
LINE
  5
111
330
2
100
AcDbEntity
  8
0
100
AcDbLine
 10
11.16590944434219
 20
14.39798489618467
 30
0.0
 11
11.16590944434219
 21
14.21098489618467
 31
0.0
  0
LINE
  5
113
330
2
100
AcDbEntity
  8
0
  6
HIDDEN
100
AcDbLine
 10
16.66580944434219
 20
14.21098489618467
 30
0.0
 11
16.66580944434219
 21
11.95998489618469
 31
0.0
  0
LINE
  5
114
330
2
100
AcDbEntity
  8
0
100
AcDbLine
 10
16.72830944434219
 20
14.39798489618467
 30
0.0
 11
16.72830944434219
 21
11.77298489618468
 31
0.0
  0
ARC
  5
115
330
2
100
AcDbEntity
  8
0
100
AcDbCircle
 10
16.91581011101004
 20
11.77198489618468
 30
0.0
 40
0.1875000000000025
100
AcDbArc
 50
265.81477748037
 51
0.3055789394200826
  0
LINE
  5
116
330
2
100
AcDbEntity
  8
0
100
AcDbLine
 10
16.66580944434219
 20
11.77298489618468
 30
0.0
 11
16.72830944434219
 21
11.77298489618468
 31
0.0
  0
ARC
  5
117
330
2
100
AcDbEntity
  8
0
100
AcDbCircle
 10
16.66580944434219
 20
11.77248489618469
 30
0.0
 40
0.1875000000000025
100
AcDbArc
 50
90.0
 51
270.0
  0
LINE
  5
118
330
2
100
AcDbEntity
  8
0
100
AcDbLine
 10
16.66580944434219
 20
11.58498489618469
 30
0.0
 11
16.9021261788266
 21
11.58498489618469
 31
0.0
  0
LINE
  5
119
330
2
100
AcDbEntity
  8
0
100
AcDbLine
 10
16.72830944434219
 20
11.95998489618469
 30
0.0
 11
16.66580944434219
 21
11.95998489618469
 31
0.0
  0
LINE
  5
11A
330
2
100
AcDbEntity
  8
0
100
AcDbLine
 10
16.66580944434219
 20
11.95998489618469
 30
0.0
 11
16.66580944434219
 21
11.77298489618468
 31
0.0
  0
ARC
  5
11B
330
2
100
AcDbEntity
  8
0
100
AcDbCircle
 10
16.91581011101004
 20
14.39898489618467
 30
0.0
 40
0.1875000000000025
100
AcDbArc
 50
359.6944210605799
 51
94.18522251962995
  0
LINE
  5
11C
330
2
100
AcDbEntity
  8
0
100
AcDbLine
 10
16.66580944434219
 20
14.58598489618467
 30
0.0
 11
16.90212617882652
 21
14.58598489618467
 31
0.0
  0
LINE
  5
11D
330
2
100
AcDbEntity
  8
0
100
AcDbLine
 10
16.72830944434219
 20
14.39798489618467
 30
0.0
 11
16.66580944434219
 21
14.39798489618467
 31
0.0
  0
LINE
  5
11E
330
2
100
AcDbEntity
  8
0
100
AcDbLine
 10
16.66580944434219
 20
14.21098489618467
 30
0.0
 11
16.72830944434219
 21
14.21098489618466
 31
0.0
  0
LINE
  5
11F
330
2
100
AcDbEntity
  8
0
100
AcDbLine
 10
16.66580944434219
 20
14.39798489618467
 30
0.0
 11
16.66580944434219
 21
14.21098489618467
 31
0.0
  0
ARC
  5
120
330
2
100
AcDbEntity
  8
0
100
AcDbCircle
 10
16.66580944434219
 20
14.39848489618467
 30
0.0
 40
0.1875
100
AcDbArc
 50
90.0
 51
270.0
  0
LINE
  5
121
330
2
100
AcDbEntity
  8
0
100
AcDbLine
 10
20.38460944434219
 20
11.77298489618468
 30
0.0
 11
20.38460944434219
 21
11.39798489618468
 31
0.0
  0
LINE
  5
122
330
2
100
AcDbEntity
  8
0
100
AcDbLine
 10
20.38460944434219
 20
14.77298489618469
 30
0.0
 11
20.38460944434219
 21
14.39798489618467
 31
0.0
  0
LINE
  5
123
330
2
100
AcDbEntity
  8
0
  6
HIDDEN
100
AcDbLine
 10
11.13460944434219
 20
4.086117271980271
 30
0.0
 11
20.38460944434218
 21
4.086117271980271
 31
0.0
  0
LINE
  5
124
330
2
100
AcDbEntity
  8
0
100
AcDbLine
 10
20.38460944434219
 20
7.648617271980275
 30
0.0
 11
11.13460944434219
 21
7.648617271980271
 31
0.0
  0
LINE
  5
125
330
2
100
AcDbEntity
  8
0
100
AcDbLine
 10
11.13460944434219
 20
4.023617271980271
 30
0.0
 11
20.38460944434218
 21
4.023617271980271
 31
0.0
  0
LINE
  5
126
330
2
100
AcDbEntity
  8
0
100
AcDbLine
 10
11.13460944434219
 20
7.648617271980278
 30
0.0
 11
11.13460944434219
 21
4.023617271980278
 31
0.0
  0
LINE
  5
127
330
2
100
AcDbEntity
  8
0
100
AcDbLine
 10
10.7564077082512
 20
0.2928587253194337
 30
0.0
 11
11.07829188839754
 21
3.972011739823735
 31
0.0
  0
LINE
  5
128
330
2
100
AcDbEntity
  8
0
100
AcDbLine
 10
10.81866987688193
 20
0.2874114913977053
 30
0.0
 11
11.14055405702828
 21
3.966564505902007
 31
0.0
  0
LINE
  5
129
330
2
100
AcDbEntity
  8
0
100
AcDbLine
 10
10.7564077082512
 20
0.2928587253194337
 30
0.0
 11
10.81866987688193
 21
0.2874114913977053
 31
0.0
  0
ARC
  5
12A
330
2
100
AcDbEntity
  8
0
100
AcDbCircle
 10
11.20281622565902
 20
3.961117271980278
 30
0.0
 40
0.0625
100
AcDbArc
 50
89.99999999999999
 51
175.0
  0
ARC
  5
12B
330
2
100
AcDbEntity
  8
0
100
AcDbCircle
 10
11.20281622565902
 20
3.961117271980278
 30
0.0
 40
0.125
100
AcDbArc
 50
123.0693841682426
 51
175.0
  0
CIRCLE
  5
12C
330
2
100
AcDbEntity
  8
0
100
AcDbCircle
 10
12.13460944434219
 20
6.648617271980275
 30
0.0
 40
0.0855000000000025
  0
LINE
  5
12D
330
2
100
AcDbEntity
  8
0
100
AcDbLine
 10
20.38460944434219
 20
7.648617271980275
 30
0.0
 11
20.38460944434218
 21
4.023617271980271
 31
0.0
  0
LINE
  5
12E
330
2
100
AcDbEntity
  8
0
100
AcDbLine
 10
16.69044952059391
 20
3.972011739823731
 30
0.0
 11
17.01328684317171
 21
0.2819642574759733
 31
0.0
  0
LINE
  5
12F
330
2
100
AcDbEntity
  8
0
100
AcDbLine
 10
16.62818735196318
 20
3.966564505902003
 30
0.0
 11
16.95102467454098
 21
0.2765170235542449
 31
0.0
  0
LINE
  5
130
330
2
100
AcDbEntity
  8
0
100
AcDbLine
 10
16.95102467454098
 20
0.2765170235542449
 30
0.0
 11
17.01328684317171
 21
0.2819642574759733
 31
0.0
  0
CIRCLE
  5
131
330
2
100
AcDbEntity
  8
0
100
AcDbCircle
 10
18.63460944434219
 20
6.523617271980275
 30
0.0
 40
0.2810000000000025
  0
CIRCLE
  5
132
330
2
100
AcDbEntity
  8
0
100
AcDbCircle
 10
17.88460944434219
 20
5.148617271980275
 30
0.0
 40
0.0855000000000025
  0
ARC
  5
133
330
2
100
AcDbEntity
  8
0
100
AcDbCircle
 10
16.56592518333244
 20
3.961117271980275
 30
0.0
 40
0.125
100
AcDbArc
 50
4.999999999999995
 51
29.99999999999832
  0
ARC
  5
134
330
2
100
AcDbEntity
  8
0
100
AcDbCircle
 10
16.56592518333244
 20
3.961117271980275
 30
0.0
 40
0.0625
100
AcDbArc
 50
4.999999999999995
 51
89.99999999999997
  0
CIRCLE
  5
135
330
2
100
AcDbEntity
  8
0
100
AcDbCircle
 10
20.00960944434219
 20
6.648617271980275
 30
0.0
 40
0.0855000000000025
  0
CIRCLE
  5
149
330
2
100
AcDbEntity
  8
0
100
AcDbCircle
 10
16.38460944434219
 20
6.648617271980275
 30
0.0
 40
0.0855000000000025
  0
LINE
  5
14C
330
2
100
AcDbEntity
  8
0
100
AcDbLine
 10
31.24780512613694
 20
7.641230358830644
 30
0.0
 11
30.94178540722579
 21
4.137740297874814
 31
0.0
  0
LINE
  5
14D
330
2
100
AcDbEntity
  8
0
100
AcDbLine
 10
27.27756638388728
 20
4.137722804136821
 30
0.0
 11
26.97200309795746
 21
7.630327144118191
 31
0.0
  0
LINE
  5
14E
330
2
100
AcDbEntity
  8
0
100
AcDbLine
 10
31.18554219287342
 20
7.646668845883376
 30
0.0
 11
30.87952247396228
 21
4.143178784927546
 31
0.0
  0
LINE
  5
14F
330
2
100
AcDbEntity
  8
0
100
AcDbLine
 10
27.33982855251801
 20
4.14317003805855
 30
0.0
 11
27.03426526658819
 21
7.635774378039919
 31
0.0
  0
LINE
  5
150
330
2
100
AcDbEntity
  8
0
100
AcDbLine
 10
27.79716589836154
 20
3.586117271980278
 30
0.0
 11
27.79716589836154
 21
0.2736172719802816
 31
0.0
  0
LINE
  5
151
330
2
100
AcDbEntity
  8
0
100
AcDbLine
 10
30.42216589836154
 20
3.586117271980278
 30
0.0
 11
30.42216589836154
 21
0.273617271980271
 31
0.0
  0
LINE
  5
152
330
2
100
AcDbEntity
  8
0
100
AcDbLine
 10
27.79716589836154
 20
0.2736172719802816
 30
0.0
 11
30.42216589836154
 21
0.273617271980271
 31
0.0
  0
CIRCLE
  5
153
330
2
100
AcDbEntity
  8
0
100
AcDbCircle
 10
29.10941589836154
 20
1.648617271980278
 30
0.0
 40
0.2810000000000025
  0
CIRCLE
  5
154
330
2
100
AcDbEntity
  8
0
100
AcDbCircle
 10
30.10966589836154
 20
0.6486172719802781
 30
0.0
 40
0.0855000000000025
  0
CIRCLE
  5
155
330
2
100
AcDbEntity
  8
0
100
AcDbCircle
 10
30.10966589836154
 20
2.773617271980278
 30
0.0
 40
0.0855000000000025
  0
CIRCLE
  5
156
330
2
100
AcDbEntity
  8
0
100
AcDbCircle
 10
28.10966589836154
 20
0.6486172719802781
 30
0.0
 40
0.0855000000000025
  0
CIRCLE
  5
157
330
2
100
AcDbEntity
  8
0
100
AcDbCircle
 10
28.10966589836154
 20
2.773617271980278
 30
0.0
 40
0.0855000000000025
  0
LINE
  5
158
330
2
100
AcDbEntity
  8
0
100
AcDbLine
 10
27.40209072114874
 20
4.086117271980278
 30
0.0
 11
30.81725954069876
 21
4.086117271980278
 31
0.0
  0
LINE
  5
159
330
2
100
AcDbEntity
  8
0
  6
HIDDEN
100
AcDbLine
 10
30.23466589836154
 20
4.023617271980278
 30
0.0
 11
27.98466589836154
 21
4.023617271980278
 31
0.0
  0
LINE
  5
15A
330
2
100
AcDbEntity
  8
0
100
AcDbLine
 10
30.81725954069876
 20
4.023617271980278
 30
0.0
 11
30.23466589836154
 21
4.023617271980278
 31
0.0
  0
ARC
  5
15B
330
2
100
AcDbEntity
  8
0
100
AcDbCircle
 10
30.81725954069876
 20
4.148617271980278
 30
0.0
 40
0.125
100
AcDbArc
 50
270.0
 51
355.0080491189165
  0
ARC
  5
15C
330
2
100
AcDbEntity
  8
0
100
AcDbCircle
 10
30.81725954069876
 20
4.148617271980278
 30
0.0
 40
0.0625
100
AcDbArc
 50
270.0
 51
355.0080491189165
  0
LINE
  5
15D
330
2
100
AcDbEntity
  8
0
100
AcDbLine
 10
30.60966589836155
 20
4.086117271980278
 30
0.0
 11
30.60966589836155
 21
4.023617271980278
 31
0.0
  0
LINE
  5
15E
330
2
100
AcDbEntity
  8
0
100
AcDbLine
 10
30.23466589836154
 20
4.086117271980278
 30
0.0
 11
30.23466589836154
 21
3.787300537495941
 31
0.0
  0
ARC
  5
15F
330
2
100
AcDbEntity
  8
0
100
AcDbCircle
 10
30.42166589836154
 20
3.77361660531243
 30
0.0
 40
0.1875000000000025
100
AcDbArc
 50
175.8147774803701
 51
270.3055789394201
  0
ARC
  5
160
330
2
100
AcDbEntity
  8
0
100
AcDbCircle
 10
27.79766589836154
 20
3.77361660531243
 30
0.0
 40
0.1875000000000025
100
AcDbArc
 50
269.6944210605799
 51
4.185222519629929
  0
LINE
  5
161
330
2
100
AcDbEntity
  8
0
100
AcDbLine
 10
27.40209072114874
 20
4.023617271980278
 30
0.0
 11
27.98466589836154
 21
4.023617271980278
 31
0.0
  0
LINE
  5
162
330
2
100
AcDbEntity
  8
0
100
AcDbLine
 10
27.98466589836154
 20
4.086117271980278
 30
0.0
 11
27.98466589836154
 21
3.787300537495941
 31
0.0
  0
ARC
  5
163
330
2
100
AcDbEntity
  8
0
100
AcDbCircle
 10
27.40209072114874
 20
4.148617271980278
 30
0.0
 40
0.125
100
AcDbArc
 50
185.0000000000001
 51
270.0
  0
ARC
  5
164
330
2
100
AcDbEntity
  8
0
100
AcDbCircle
 10
27.40209072114874
 20
4.148617271980278
 30
0.0
 40
0.0625
100
AcDbArc
 50
185.0000000000001
 51
270.0
  0
LINE
  5
165
330
2
100
AcDbEntity
  8
0
100
AcDbLine
 10
27.60966589836154
 20
4.086117271980278
 30
0.0
 11
27.60966589836154
 21
4.023617271980275
 31
0.0
  0
LINE
  5
166
330
2
100
AcDbEntity
  8
0
100
AcDbLine
 10
31.24780436211855
 20
7.641221611907895
 30
0.0
 11
31.18554219287342
 21
7.646668845883376
 31
0.0
  0
LINE
  5
167
330
2
100
AcDbEntity
  8
0
100
AcDbLine
 10
27.03426526658819
 20
7.635774378039919
 30
0.0
 11
26.97200309795746
 21
7.630327144118191
 31
0.0
  0
ENDSEC
  0
SECTION
  2
OBJECTS
  0
DICTIONARY
  5
7
330
0
100
AcDbDictionary
281
     1
  3
ACAD_COLOR
350
13D
  3
ACAD_GROUP
350
1F
  3
ACAD_LAYOUT
350
B
  3
ACAD_MATERIAL
350
13C
  3
ACAD_MLINESTYLE
350
20
  3
ACAD_PLOTSETTINGS
350
21
  3
ACAD_PLOTSTYLENAME
350
6
  3
ACAD_TABLESTYLE
350
13E
  3
ACDBHEADERROUNDTRIPXREC
350
17A
  3
AcDbVariableDictionary
350
C1
  0
DICTIONARY
  5
13D
102
{ACAD_REACTORS
330
7
102
}
330
7
100
AcDbDictionary
281
     1
  0
DICTIONARY
  5
1F
102
{ACAD_REACTORS
330
7
102
}
330
7
100
AcDbDictionary
281
     1
  0
DICTIONARY
  5
B
102
{ACAD_REACTORS
330
7
102
}
330
7
100
AcDbDictionary
281
     1
  3
Layout1
350
F
  3
Model
350
A
  0
DICTIONARY
  5
13C
102
{ACAD_REACTORS
330
7
102
}
330
7
100
AcDbDictionary
281
     1
  0
DICTIONARY
  5
20
102
{ACAD_REACTORS
330
7
102
}
330
7
100
AcDbDictionary
281
     1
  3
Standard
350
23
  0
DICTIONARY
  5
21
102
{ACAD_REACTORS
330
7
102
}
330
7
100
AcDbDictionary
281
     1
  0
ACDBDICTIONARYWDFLT
  5
6
102
{ACAD_REACTORS
330
7
102
}
330
7
100
AcDbDictionary
281
     1
  3
Normal
350
5
100
AcDbDictionaryWithDefault
340
5
  0
DICTIONARY
  5
13E
102
{ACAD_REACTORS
330
7
102
}
330
7
100
AcDbDictionary
281
     1
  3
Standard
350
13F
  0
DICTIONARY
  5
17A
102
{ACAD_REACTORS
330
7
102
}
330
7
100
AcDbDictionary
281
     1
  3
COLORDICT
350
17B
  3
MATERIALDICT
350
17C
  0
DICTIONARY
  5
C1
102
{ACAD_REACTORS
330
7
102
}
330
7
100
AcDbDictionary
281
     1
  3
CTABLESTYLE
350
16E
  3
HIDETEXT
350
179
  0
LAYOUT
  5
F
102
{ACAD_REACTORS
330
B
102
}
102
{ACAD_XDICTIONARY
360
17D
102
}
330
B
100
AcDbPlotSettings
  1

  2
C:\ACAD2000\plotters\HP LaserJet 2100 Series PS.pc3
  4

  6

 40
0.0
 41
0.0
 42
0.0
 43
0.0
 44
0.0
 45
0.0
 46
0.0
 47
0.0
 48
0.0
 49
0.0
140
0.0
141
0.0
142
1.0
143
1.0
 70
   688
 72
     0
 73
     0
 74
     5
  7

 75
    16
147
1.0
148
0.0
149
0.0
100
AcDbLayout
  1
Layout1
 70
     0
 71
     1
 10
0.0
 20
0.0
 11
12.0
 21
9.0
 12
0.0
 22
0.0
 32
0.0
 14
1.000000000000000E+20
 24
1.000000000000000E+20
 34
1.000000000000000E+20
 15
-1.000000000000000E+20
 25
-1.000000000000000E+20
 35
-1.000000000000000E+20
146
0.0
 13
0.0
 23
0.0
 33
0.0
 16
1.0
 26
0.0
 36
0.0
 17
0.0
 27
1.0
 37
0.0
 76
     0
330
C
  0
LAYOUT
  5
A
102
{ACAD_REACTORS
330
B
102
}
102
{ACAD_XDICTIONARY
360
17F
102
}
330
B
100
AcDbPlotSettings
  1

  2
HP LaserJet 2100 Series PS
  4
Letter
  6

 40
5.365749835968018
 41
5.365735054016113
 42
3.175003051757813
 43
3.17498779296875
 44
210.4813232421875
 45
273.9813232421875
 46
0.0
 47
0.0
 48
0.0
 49
0.0
140
0.0
141
0.0
142
1.0
143
1.0
 70
 11952
 72
     0
 73
     1
 74
     2
  7

 75
     0
147
1.0
148
0.0
149
0.0
100
AcDbLayout
  1
Model
 70
     1
 71
     0
 10
0.0
 20
0.0
 11
12.0
 21
9.0
 12
0.0
 22
0.0
 32
0.0
 14
0.0
 24
0.0
 34
0.0
 15
0.0
 25
0.0
 35
0.0
146
0.0
 13
0.0
 23
0.0
 33
0.0
 16
1.0
 26
0.0
 36
0.0
 17
0.0
 27
1.0
 37
0.0
 76
     0
330
2
  0
MLINESTYLE
  5
23
102
{ACAD_REACTORS
330
20
102
}
330
20
100
AcDbMlineStyle
  2
STANDARD
 70
     0
  3

 62
   256
 51
90.0
 52
90.0
 71
     2
 49
0.5
 62
   256
  6
BYLAYER
 49
-0.5
 62
   256
  6
BYLAYER
  0
ACDBPLACEHOLDER
  5
5
102
{ACAD_REACTORS
330
6
102
}
330
6
  0
ACAD_PROXY_OBJECT
  5
13F
102
{ACAD_REACTORS
330
13E
102
}
330
13E
100
AcDbProxyObject
 90
      499
 91
      504
 95
   983063
 70
     0
 93
     1841
310
4214DD185B99185C9928B81E85EB51B8AE3F2E07A17AD46E2B8FC02B5E8DC0F42B1CFD028000000C1008070000C3001FDFF8000000C1003FBFF000000182007F7FE00000030400FEFFC00000060801FDFF8000000C1003FBFF00000018200000000000000681FA0B0000001820100E000186003FBFF000000182007F7FE000
310
00030400FEFFC00000060801FDFF8000000C1003FBFF000000182007F7FE000000304000AD7A3703D0AC73F4160000003040201C00030C007F7FE00000030400FEFFC00000060801FDFF8000000C1003FBFF000000182007F7FE00000030400FEFFC000000608000
340
12
340
12
340
12
 94
        0
  0
XRECORD
  5
17B
102
{ACAD_REACTORS
330
17A
102
}
330
17A
100
AcDbXrecord
340
13D
  0
XRECORD
  5
17C
102
{ACAD_REACTORS
330
17A
102
}
330
17A
100
AcDbXrecord
340
13C
  0
DICTIONARYVAR
  5
16E
102
{ACAD_REACTORS
330
C1
102
}
330
C1
100
DictionaryVariables
280
     0
  1
STANDARD
  0
DICTIONARYVAR
  5
179
102
{ACAD_REACTORS
330
C1
102
}
330
C1
100
DictionaryVariables
280
     0
  1
0
  0
DICTIONARY
  5
17D
330
F
100
AcDbDictionary
280
     1
281
     1
  3
ACAD_XREC_ROUNDTRIP
360
17E
  0
DICTIONARY
  5
17F
330
A
100
AcDbDictionary
280
     1
281
     1
  3
ACAD_XREC_ROUNDTRIP
360
180
  0
XRECORD
  5
17E
102
{ACAD_REACTORS
330
17D
102
}
330
17D
100
AcDbXrecord
102
SHADEPLOT
 70
     0
102
SHADEPLOTRESLEVEL
 70
     2
102
SHADEPLOTCUSTOMDPI
 70
   300
  0
XRECORD
  5
180
102
{ACAD_REACTORS
330
17F
102
}
330
17F
100
AcDbXrecord
102
SHADEPLOT
 70
     0
102
SHADEPLOTRESLEVEL
 70
     2
102
SHADEPLOTCUSTOMDPI
 70
   300
  0
ENDSEC
  0
EOF
