  0
SECTION
  2
HEADER
  9
$ACADVER
  1
AC1015
  9
$ACADMAINTVER
 70
     6
  9
$DWGCODEPAGE
  3
ANSI_1252
  9
$INSBASE
 10
0.0
 20
0.0
 30
0.0
  9
$EXTMIN
 10
-6.800364994846518
 20
-2.748171718618025
 30
-0.0000000349181948
  9
$EXTMAX
 10
19.40777540745293
 20
15.16061996036645
 30
0.0000000814935746
  9
$LIMMIN
 10
0.0
 20
0.0
  9
$LIMMAX
 10
40.00000000000039
 20
52.50000000000051
  9
$ORTHOMODE
 70
     0
  9
$REGENMODE
 70
     1
  9
$FILLMODE
 70
     1
  9
$QTEXTMODE
 70
     0
  9
$MIRRTEXT
 70
     1
  9
$LTSCALE
 40
0.5
  9
$ATTMODE
 70
     1
  9
$TEXTSIZE
 40
0.450000000000004
  9
$TRACEWID
 40
0.05
  9
$TEXTSTYLE
  7
STANDARD
  9
$CLAYER
  8
0
  9
$CELTYPE
  6
ByLayer
  9
$CECOLOR
 62
   256
  9
$CELTSCALE
 40
1.0
  9
$DISPSILH
 70
     0
  9
$DIMSCALE
 40
1.0
  9
$DIMASZ
 40
0.625000000000004
  9
$DIMEXO
 40
0.1
  9
$DIMDLI
 40
0.375
  9
$DIMRND
 40
0.0
  9
$DIMDLE
 40
0.0
  9
$DIMEXE
 40
0.400000000000004
  9
$DIMTP
 40
0.0
  9
$DIMTM
 40
0.0
  9
$DIMTXT
 40
0.450000000000004
  9
$DIMCEN
 40
-0.06
  9
$DIMTSZ
 40
0.0
  9
$DIMTOL
 70
     0
  9
$DIMLIM
 70
     0
  9
$DIMTIH
 70
     1
  9
$DIMTOH
 70
     1
  9
$DIMSE1
 70
     0
  9
$DIMSE2
 70
     0
  9
$DIMTAD
 70
     0
  9
$DIMZIN
 70
     0
  9
$DIMBLK
  1

  9
$DIMASO
 70
     0
  9
$DIMSHO
 70
     1
  9
$DIMPOST
  1

  9
$DIMAPOST
  1

  9
$DIMALT
 70
     0
  9
$DIMALTD
 70
     2
  9
$DIMALTF
 40
25.4
  9
$DIMLFAC
 40
1.0
  9
$DIMTOFL
 70
     0
  9
$DIMTVP
 40
0.0
  9
$DIMTIX
 70
     0
  9
$DIMSOXD
 70
     0
  9
$DIMSAH
 70
     0
  9
$DIMBLK1
  1

  9
$DIMBLK2
  1

  9
$DIMSTYLE
  2
Standard
  9
$DIMCLRD
 70
     0
  9
$DIMCLRE
 70
     0
  9
$DIMCLRT
 70
     0
  9
$DIMTFAC
 40
1.0
  9
$DIMGAP
 40
0.09
  9
$DIMJUST
 70
     0
  9
$DIMSD1
 70
     0
  9
$DIMSD2
 70
     0
  9
$DIMTOLJ
 70
     1
  9
$DIMTZIN
 70
     0
  9
$DIMALTZ
 70
     0
  9
$DIMALTTZ
 70
     0
  9
$DIMUPT
 70
     0
  9
$DIMDEC
 70
     3
  9
$DIMTDEC
 70
     3
  9
$DIMALTU
 70
     2
  9
$DIMALTTD
 70
     2
  9
$DIMTXSTY
  7
STANDARD
  9
$DIMAUNIT
 70
     0
  9
$DIMADEC
 70
     0
  9
$DIMALTRND
 40
0.0
  9
$DIMAZIN
 70
     0
  9
$DIMDSEP
 70
    46
  9
$DIMATFIT
 70
     3
  9
$DIMFRAC
 70
     0
  9
$DIMLDRBLK
  1

  9
$DIMLUNIT
 70
     2
  9
$DIMLWD
 70
    -2
  9
$DIMLWE
 70
    -2
  9
$DIMTMOVE
 70
     2
  9
$LUNITS
 70
     2
  9
$LUPREC
 70
     3
  9
$SKETCHINC
 40
0.1
  9
$FILLETRAD
 40
0.0
  9
$AUNITS
 70
     0
  9
$AUPREC
 70
     0
  9
$MENU
  1
acad
  9
$ELEVATION
 40
0.0
  9
$PELEVATION
 40
0.0
  9
$THICKNESS
 40
0.0
  9
$LIMCHECK
 70
     0
  9
$CHAMFERA
 40
0.0
  9
$CHAMFERB
 40
0.0
  9
$CHAMFERC
 40
0.0
  9
$CHAMFERD
 40
0.0
  9
$SKPOLY
 70
     0
  9
$TDCREATE
 40
2449186.014066319
  9
$TDUCREATE
 40
2449186.347399653
  9
$TDUPDATE
 40
2453795.687156331
  9
$TDUUPDATE
 40
2453796.020489664
  9
$TDINDWG
 40
0.049551956
  9
$TDUSRTIMER
 40
0.049551956
  9
$USRTIMER
 70
     1
  9
$ANGBASE
 50
0.0
  9
$ANGDIR
 70
     0
  9
$PDMODE
 70
     0
  9
$PDSIZE
 40
0.0
  9
$PLINEWID
 40
0.0
  9
$SPLFRAME
 70
     0
  9
$SPLINETYPE
 70
     6
  9
$SPLINESEGS
 70
     8
  9
$HANDSEED
  5
13D
  9
$SURFTAB1
 70
     6
  9
$SURFTAB2
 70
     6
  9
$SURFTYPE
 70
     6
  9
$SURFU
 70
     6
  9
$SURFV
 70
     6
  9
$UCSBASE
  2

  9
$UCSNAME
  2

  9
$UCSORG
 10
0.0
 20
0.0
 30
0.0
  9
$UCSXDIR
 10
1.0
 20
0.0
 30
0.0
  9
$UCSYDIR
 10
0.0
 20
1.0
 30
0.0
  9
$UCSORTHOREF
  2

  9
$UCSORTHOVIEW
 70
     0
  9
$UCSORGTOP
 10
0.0
 20
0.0
 30
0.0
  9
$UCSORGBOTTOM
 10
0.0
 20
0.0
 30
0.0
  9
$UCSORGLEFT
 10
0.0
 20
0.0
 30
0.0
  9
$UCSORGRIGHT
 10
0.0
 20
0.0
 30
0.0
  9
$UCSORGFRONT
 10
0.0
 20
0.0
 30
0.0
  9
$UCSORGBACK
 10
0.0
 20
0.0
 30
0.0
  9
$PUCSBASE
  2

  9
$PUCSNAME
  2

  9
$PUCSORG
 10
0.0
 20
0.0
 30
0.0
  9
$PUCSXDIR
 10
1.0
 20
0.0
 30
0.0
  9
$PUCSYDIR
 10
0.0
 20
1.0
 30
0.0
  9
$PUCSORTHOREF
  2

  9
$PUCSORTHOVIEW
 70
     0
  9
$PUCSORGTOP
 10
0.0
 20
0.0
 30
0.0
  9
$PUCSORGBOTTOM
 10
0.0
 20
0.0
 30
0.0
  9
$PUCSORGLEFT
 10
0.0
 20
0.0
 30
0.0
  9
$PUCSORGRIGHT
 10
0.0
 20
0.0
 30
0.0
  9
$PUCSORGFRONT
 10
0.0
 20
0.0
 30
0.0
  9
$PUCSORGBACK
 10
0.0
 20
0.0
 30
0.0
  9
$USERI1
 70
     0
  9
$USERI2
 70
     0
  9
$USERI3
 70
     0
  9
$USERI4
 70
     0
  9
$USERI5
 70
     0
  9
$USERR1
 40
0.0
  9
$USERR2
 40
0.0
  9
$USERR3
 40
0.0
  9
$USERR4
 40
0.0
  9
$USERR5
 40
0.0
  9
$WORLDVIEW
 70
     1
  9
$SHADEDGE
 70
     3
  9
$SHADEDIF
 70
    70
  9
$TILEMODE
 70
     1
  9
$MAXACTVP
 70
    16
  9
$PINSBASE
 10
0.0
 20
0.0
 30
0.0
  9
$PLIMCHECK
 70
     0
  9
$PEXTMIN
 10
1.000000000000000E+20
 20
1.000000000000000E+20
 30
1.000000000000000E+20
  9
$PEXTMAX
 10
-1.000000000000000E+20
 20
-1.000000000000000E+20
 30
-1.000000000000000E+20
  9
$PLIMMIN
 10
0.0
 20
0.0
  9
$PLIMMAX
 10
12.0
 20
9.0
  9
$UNITMODE
 70
     0
  9
$VISRETAIN
 70
     0
  9
$PLINEGEN
 70
     0
  9
$PSLTSCALE
 70
     0
  9
$TREEDEPTH
 70
  3020
  9
$CMLSTYLE
  2
Standard
  9
$CMLJUST
 70
     0
  9
$CMLSCALE
 40
1.0
  9
$PROXYGRAPHICS
 70
     1
  9
$MEASUREMENT
 70
     0
  9
$CELWEIGHT
370
    -1
  9
$ENDCAPS
280
     0
  9
$JOINSTYLE
280
     0
  9
$LWDISPLAY
290
     0
  9
$INSUNITS
 70
     0
  9
$HYPERLINKBASE
  1

  9
$STYLESHEET
  1

  9
$XEDIT
290
     1
  9
$CEPSNTYPE
380
     0
  9
$PSTYLEMODE
290
     1
  9
$FINGERPRINTGUID
  2
{DD8EA154-0423-47AA-846A-90F603752C86}
  9
$VERSIONGUID
  2
{0C8BB769-C888-461F-AF9A-A8A2A86D5C0A}
  9
$EXTNAMES
290
     1
  9
$PSVPSCALE
 40
0.0
  9
$OLESTARTUP
290
     0
  0
ENDSEC
  0
SECTION
  2
CLASSES
  0
CLASS
  1
ACDBDICTIONARYWDFLT
  2
AcDbDictionaryWithDefault
  3
AutoCAD 2000
 90
        0
280
     0
281
     0
  0
CLASS
  1
ACDBPLACEHOLDER
  2
AcDbPlaceHolder
  3
ObjectDBX Classes
 90
        0
280
     0
281
     0
  0
CLASS
  1
LAYOUT
  2
AcDbLayout
  3
ObjectDBX Classes
 90
        0
280
     0
281
     0
  0
CLASS
  1
DICTIONARYVAR
  2
AcDbDictionaryVar
  3
AutoCAD 2000
 90
        0
280
     0
281
     0
  0
ENDSEC
  0
SECTION
  2
TABLES
  0
TABLE
  2
VPORT
  5
19
330
0
100
AcDbSymbolTable
 70
     2
  0
VPORT
  5
133
330
19
100
AcDbSymbolTableRecord
100
AcDbViewportTableRecord
  2
*Active
 70
     0
 10
0.0
 20
0.0
 11
1.0
 21
1.0
 12
16.59981750257693
 22
24.87591414069125
 13
0.0
 23
0.0
 14
0.0625
 24
0.0625
 15
0.25
 25
0.25
 16
0.0
 26
0.0
 36
1.0
 17
0.0
 27
0.0
 37
0.0
 40
56.1440880167583
 41
1.780487804878049
 42
50.0
 43
0.0
 44
0.0
 50
0.0
 51
0.0
 71
     0
 72
   100
 73
     1
 74
     1
 75
     0
 76
     0
 77
     0
 78
     0
281
     0
 65
     1
110
0.0
120
0.0
130
0.0
111
1.0
121
0.0
131
0.0
112
0.0
122
1.0
132
0.0
 79
     0
146
0.0
  0
ENDTAB
  0
TABLE
  2
LTYPE
  5
14
330
0
100
AcDbSymbolTable
 70
     2
  0
LTYPE
  5
15
330
14
100
AcDbSymbolTableRecord
100
AcDbLinetypeTableRecord
  2
ByBlock
 70
     0
  3

 72
    65
 73
     0
 40
0.0
  0
LTYPE
  5
16
330
14
100
AcDbSymbolTableRecord
100
AcDbLinetypeTableRecord
  2
ByLayer
 70
     0
  3

 72
    65
 73
     0
 40
0.0
  0
LTYPE
  5
8
330
14
100
AcDbSymbolTableRecord
100
AcDbLinetypeTableRecord
  2
CONTINUOUS
 70
     0
  3
Solid line
 72
    65
 73
     0
 40
0.0
  0
LTYPE
  5
31
330
14
100
AcDbSymbolTableRecord
100
AcDbLinetypeTableRecord
  2
DASHED
 70
     0
  3
__ __ __ __ __ __ __ __ __ __ __ __ __ __ __
 72
    65
 73
     2
 40
0.75
 49
0.5
 74
     0
 49
-0.25
 74
     0
  0
ENDTAB
  0
TABLE
  2
LAYER
  5
10
330
0
100
AcDbSymbolTable
 70
     4
  0
LAYER
  5
4
330
10
100
AcDbSymbolTableRecord
100
AcDbLayerTableRecord
  2
0
 70
     0
 62
     7
  6
CONTINUOUS
370
    -3
390
5
  0
LAYER
  5
2C
330
10
100
AcDbSymbolTableRecord
100
AcDbLayerTableRecord
  2
LIGHT
 70
     0
 62
     7
  6
CONTINUOUS
370
    -3
390
5
  0
LAYER
  5
30
330
10
100
AcDbSymbolTableRecord
100
AcDbLayerTableRecord
  2
DASH1M
 70
     0
 62
     8
  6
DASHED
370
    -3
390
5
  0
LAYER
  5
34
330
10
100
AcDbSymbolTableRecord
100
AcDbLayerTableRecord
  2
OBJECT
 70
     0
 62
     7
  6
CONTINUOUS
370
    -3
390
5
  0
ENDTAB
  0
TABLE
  2
STYLE
  5
11
330
0
100
AcDbSymbolTable
 70
     1
  0
STYLE
  5
12
330
11
100
AcDbSymbolTableRecord
100
AcDbTextStyleTableRecord
  2
STANDARD
 70
     0
 40
0.0
 41
1.0
 50
0.0
 71
     0
 42
0.450000000000004
  3
TXT
  4

  0
ENDTAB
  0
TABLE
  2
VIEW
  5
17
330
0
100
AcDbSymbolTable
 70
     0
  0
ENDTAB
  0
TABLE
  2
UCS
  5
18
330
0
100
AcDbSymbolTable
 70
     0
  0
ENDTAB
  0
TABLE
  2
APPID
  5
1B
330
0
100
AcDbSymbolTable
 70
     1
  0
APPID
  5
1C
330
1B
100
AcDbSymbolTableRecord
100
AcDbRegAppTableRecord
  2
ACAD
 70
     0
  0
ENDTAB
  0
TABLE
  2
DIMSTYLE
  5
1D
330
0
100
AcDbSymbolTable
 70
     1
100
AcDbDimStyleTable
  0
DIMSTYLE
105
24
330
1D
100
AcDbSymbolTableRecord
100
AcDbDimStyleTableRecord
  2
Standard
 70
     0
  3

  4

340
12
  0
ENDTAB
  0
TABLE
  2
BLOCK_RECORD
  5
1
330
0
100
AcDbSymbolTable
 70
     1
  0
BLOCK_RECORD
  5
2
330
1
100
AcDbSymbolTableRecord
100
AcDbBlockTableRecord
  2
*Model_Space
340
A
  0
BLOCK_RECORD
  5
C
330
1
100
AcDbSymbolTableRecord
100
AcDbBlockTableRecord
  2
*Paper_Space
340
F
  0
BLOCK_RECORD
  5
4D
330
1
100
AcDbSymbolTableRecord
100
AcDbBlockTableRecord
  2
L
340
0
310
2800000020000000200000000100080000000000000400000000000000000000000000000000000000000000000080000080000000808000800000008000800080800000C0C0C000688DA200BBCCD5000000FF007F7FFF000000CC006666CC00000099004C4C990000007F003F3F7F0000004C0026264C00003FFF007F9FFF
310
000033CC00667FCC00002699004C5F9900001F7F003F4F7F0000134C00262F4C00007FFF007FBFFF000066CC006699CC00004C99004C729900003F7F003F5F7F0000264C0026394C0000BFFF007FDFFF000099CC0066B2CC00007299004C859900005F7F003F6F7F0000394C0026424C0000FFFF007FFFFF0000CCCC0066CC
310
CC00009999004C999900007F7F003F7F7F00004C4C00264C4C0000FFBF007FFFDF0000CC990066CCB200009972004C998500007F5F003F7F6F00004C3900264C420000FF7F007FFFBF0000CC660066CC990000994C004C997200007F3F003F7F5F00004C2600264C390000FF3F007FFF9F0000CC330066CC7F00009926004C
310
995F00007F1F003F7F4F00004C1300264C2F0000FF00007FFF7F0000CC000066CC6600009900004C994C00007F00003F7F3F00004C0000264C26003FFF00009FFF7F0033CC00007FCC6600269900005F994C001F7F00004F7F3F00134C00002F4C26007FFF0000BFFF7F0066CC000099CC66004C99000072994C003F7F0000
310
5F7F3F00264C0000394C2600BFFF0000DFFF7F0099CC0000B2CC66007299000085994C005F7F00006F7F3F00394C0000424C2600FFFF0000FFFF7F00CCCC0000CCCC66009999000099994C007F7F00007F7F3F004C4C00004C4C2600FFBF0000FFDF7F00CC990000CCB266009972000099854C007F5F00007F6F3F004C3900
310
004C422600FF7F0000FFBF7F00CC660000CC996600994C000099724C007F3F00007F5F3F004C2600004C392600FF3F0000FF9F7F00CC330000CC7F660099260000995F4C007F1F00007F4F3F004C1300004C2F2600FF000000FF7F7F00CC000000CC66660099000000994C4C007F0000007F3F3F004C0000004C262600FF00
310
3F00FF7F9F00CC003300CC667F0099002600994C5F007F001F007F3F4F004C0013004C262F00FF007F00FF7FBF00CC006600CC66990099004C00994C72007F003F007F3F5F004C0026004C263900FF00BF00FF7FDF00CC009900CC66B20099007200994C85007F005F007F3F6F004C0039004C264200FF00FF00FF7FFF00CC
310
00CC00CC66CC0099009900994C99007F007F007F3F7F004C004C004C264C00BF00FF00DF7FFF009900CC00B266CC0072009900854C99005F007F006F3F7F0039004C0042264C007F00FF00BF7FFF006600CC009966CC004C009900724C99003F007F005F3F7F0026004C0039264C003F00FF009F7FFF003300CC007F66CC00
310
260099005F4C9900DDE6EA00688DA200808080000000FF0000FF000000FFFF00FF000000FF00FF00FFFF0000FFFFFF000000000000000000000000000000000000000000000000000000000000000000000000000000000000000000000000000000000000000000000000000000000000000000000000000000000000D7D7
310
0000000000000000000000000000D7D70000000000000000000000000000D7D70000000000000000000000000000D7D70000000000000000000000000000D7D70000000000000000000000000000D7D70000000000000000000000000000D7D70000000000000000000000000000D7D7000000000000000000000000000000
310
D70000000000000000000000000000D700000000000000000000000000000000D70000000000000000000000000000D700000000000000000000000000000000D70000000000000000000000000000D700000000000000000000000000000000D7D7000000000000000000000000D7D7000000000000000000000000000000
310
00D7D7000000000000000000000000D7D700000000000000000000000000000000D7D7000000000000000000000000D7D70000000000000000000000000000000000D7000000000000000000000000D7000000000000000000000000000000000000D7000000000000000000000000D7000000000000000000000000000000
310
000000D7000000000000000000000000D7000000000000000000000000000000000000D7000000000000000000000000D700000000D781818181818181818181818181D7818181818181818181818181D700000000D70000000000000000000000000000000000000000000000000000D700000000D7000000000000000000
310
0000000000000000000000000000000000D700000000D70000000000000000000000000000000000000000000000000000D700000000D7000000000000000000D700000000000000000000000000000000D700000000D70000000000000000000000000000000000000000000000000000D700000000D70000000000000000
310
000000000000000000000000000000000000D700000000D70000000000000000000000000000000000000000000000000000D700000000D70000000000000000000000000000000000000000000000000000D700000000D700D7000000D7D7D7000000000000D700000000000000D7000000D700000000D700000000000000
310
00000000000000000000000000000000000000D700000000D70000000000000000000000000000000000000000000000000000D700000000D70000000000000000000000000000000000000000000000000000D700000000D7D7D7D7D7D7D7D7D7D7D7D7D7D7D7D7D7D7D7D7D7D7D7D7D7D7D7D70000000000000000000000
310
0000000000000000000000000000000000000000000000000000000000000000000000000000000000000000000000000000000000000000
  0
ENDTAB
  0
ENDSEC
  0
SECTION
  2
BLOCKS
  0
BLOCK
  5
3
330
2
100
AcDbEntity
  8
0
100
AcDbBlockBegin
  2
*Model_Space
 70
     0
 10
0.0
 20
0.0
 30
0.0
  3
*Model_Space
  1

  4

  0
ENDBLK
  5
9
330
2
100
AcDbEntity
  8
0
100
AcDbBlockEnd
  0
BLOCK
  5
D
330
C
100
AcDbEntity
 67
     1
  8
0
100
AcDbBlockBegin
  2
*Paper_Space
 70
     0
 10
0.0
 20
0.0
 30
0.0
  3
*Paper_Space
  1

  4

  0
ENDBLK
  5
E
330
C
100
AcDbEntity
 67
     1
  8
0
100
AcDbBlockEnd
  0
BLOCK
  5
63
330
4D
100
AcDbEntity
  8
0
100
AcDbBlockBegin
  2
L
 70
     0
 10
0.0
 20
0.0
 30
0.0
  3
L
  1

  4

  0
ARC
  5
4E
330
4D
100
AcDbEntity
  8
OBJECT
100
AcDbCircle
 10
-7.625715000006572
 20
21.625
 30
0.0
 40
0.25
100
AcDbArc
 50
5.000000000000078
 51
90.0
  0
LINE
  5
4F
330
4D
100
AcDbEntity
  8
LIGHT
100
AcDbLine
 10
-7.184297952853392
 20
18.01379421941742
 30
0.0
 11
-7.500237520313647
 21
21.625
 31
0.0
  0
LINE
  5
50
330
4D
100
AcDbEntity
  8
LIGHT
100
AcDbLine
 10
-11.50320142503538
 20
18.02468868726088
 30
0.0
 11
-11.18726185757512
 21
21.63589446784345
 31
0.0
  0
LINE
  5
51
330
4D
100
AcDbEntity
  8
LIGHT
100
AcDbLine
 10
-11.06273752031365
 20
21.625
 30
0.0
 11
-11.37867708777391
 21
18.01379421941742
 31
0.0
  0
LINE
  5
52
330
4D
100
AcDbEntity
  8
LIGHT
100
AcDbLine
 10
-11.37867708777391
 20
18.01379421941742
 30
0.0
 11
-11.50320142503538
 21
18.02468868726088
 31
0.0
  0
LINE
  5
53
330
4D
100
AcDbEntity
  8
LIGHT
100
AcDbLine
 10
-7.625237520313647
 20
21.74999999999999
 30
0.0
 11
-14.81273752031363
 21
21.74999999999999
 31
0.0
  0
LINE
  5
54
330
4D
100
AcDbEntity
  8
LIGHT
100
AcDbLine
 10
-7.625237520313647
 20
25.375
 30
0.0
 11
-14.81273752031365
 21
25.375
 31
0.0
  0
LINE
  5
55
330
4D
100
AcDbEntity
  8
DASH1M
100
AcDbLine
 10
-14.81273752031365
 20
21.875
 30
0.0
 11
-7.770111997301093
 21
21.875
 31
0.0
  0
LINE
  5
56
330
4D
100
AcDbEntity
  8
LIGHT
100
AcDbLine
 10
-14.81273752031365
 20
25.375
 30
0.0
 11
-14.81273752031363
 21
21.74999999999999
 31
0.0
  0
CIRCLE
  5
57
330
4D
100
AcDbEntity
  8
LIGHT
100
AcDbCircle
 10
-14.43773752031365
 20
24.375
 30
0.0
 40
0.0855000000000025
  0
CIRCLE
  5
58
330
4D
100
AcDbEntity
  8
LIGHT
100
AcDbCircle
 10
-13.06273752031365
 20
24.25
 30
0.0
 40
0.2810000000000025
  0
CIRCLE
  5
59
330
4D
100
AcDbEntity
  8
LIGHT
100
AcDbCircle
 10
-12.31273752031365
 20
22.875
 30
0.0
 40
0.0855000000000025
  0
LINE
  5
5A
330
4D
100
AcDbEntity
  8
LIGHT
100
AcDbLine
 10
-7.625237520313647
 20
25.375
 30
0.0
 11
-7.625237520313647
 21
21.75
 31
0.0
  0
ARC
  5
5B
330
4D
100
AcDbEntity
  8
OBJECT
100
AcDbCircle
 10
-10.93773752031365
 20
21.625
 30
0.0
 40
0.125
100
AcDbArc
 50
90.00000000000006
 51
180.0
  0
LINE
  5
5C
330
4D
100
AcDbEntity
  8
OBJECT
100
AcDbLine
 10
-11.06273752031365
 20
21.6875
 30
0.0
 11
-11.06273752031365
 21
21.75
 31
0.0
  0
ARC
  5
5D
330
4D
100
AcDbEntity
  8
OBJECT
100
AcDbCircle
 10
-10.93773752031365
 20
21.625
 30
0.0
 40
0.25
100
AcDbArc
 50
148.0893483100371
 51
180.0
  0
ARC
  5
5E
330
4D
100
AcDbEntity
  8
OBJECT
100
AcDbCircle
 10
-7.625237520313647
 20
21.625
 30
0.0
 40
0.125
100
AcDbArc
 50
0.0000000000000325
 51
90.00000000000003
  0
CIRCLE
  5
5F
330
4D
100
AcDbEntity
  8
LIGHT
100
AcDbCircle
 10
-10.81273752031365
 20
24.375
 30
0.0
 40
0.0855000000000025
  0
CIRCLE
  5
60
330
4D
100
AcDbEntity
  8
LIGHT
100
AcDbCircle
 10
-8.625237520313647
 20
24.375
 30
0.0
 40
0.0855000000000025
  0
LINE
  5
61
330
4D
100
AcDbEntity
  8
LIGHT
100
AcDbLine
 10
-7.37666632548364
 20
21.64678893568691
 30
0.0
 11
-7.059773615591922
 21
18.02468868726088
 31
0.0
  0
LINE
  5
62
330
4D
100
AcDbEntity
  8
LIGHT
100
AcDbLine
 10
-7.059773615591922
 20
18.02468868726088
 30
0.0
 11
-7.184297952853392
 21
18.01379421941742
 31
0.0
  0
ENDBLK
  5
64
330
4D
100
AcDbEntity
  8
0
100
AcDbBlockEnd
  0
ENDSEC
  0
SECTION
  2
ENTITIES
  0
ARC
  5
D3
330
2
100
AcDbEntity
  8
0
100
AcDbCircle
 10
-0.9075695151588974
 20
0.7523033254719742
 30
0.0
 40
0.1875000000000025
100
AcDbArc
 50
175.8147774803701
 51
270.3055789394201
  0
LINE
  5
D4
330
2
100
AcDbEntity
  8
0
100
AcDbLine
 10
-0.9065695151589495
 20
-2.747696007860178
 30
0.0
 11
-2.923567423108739
 21
-2.747696007860178
 31
0.0
  0
LINE
  5
D5
330
2
100
AcDbEntity
  8
0
100
AcDbLine
 10
-0.5940695151589495
 20
1.002303992139822
 30
0.0
 11
-1.094569515158895
 21
1.002303992139822
 31
0.0
  0
LINE
  5
D6
330
2
100
AcDbEntity
  8
0
100
AcDbLine
 10
-5.781569515158946
 20
1.127303992139822
 30
0.0
 11
-0.5940695151589495
 21
1.127303992139822
 31
0.0
  0
LINE
  5
D7
330
2
100
AcDbEntity
  8
0
100
AcDbLine
 10
-5.469069515158946
 20
0.5648059921576021
 30
0.0
 11
-5.46906951515895
 21
-2.747696007860178
 31
0.0
  0
LINE
  5
D8
330
2
100
AcDbEntity
  8
0
100
AcDbLine
 10
-5.46906951515895
 20
-2.747696007860178
 30
0.0
 11
-2.680889598840956
 21
-2.747696007860178
 31
0.0
  0
LINE
  5
D9
330
2
100
AcDbEntity
  8
0
100
AcDbLine
 10
-5.781569515158946
 20
1.002303992139822
 30
0.0
 11
-5.281069515158848
 21
1.002303992139822
 31
0.0
  0
LINE
  5
DA
330
2
100
AcDbEntity
  8
0
100
AcDbLine
 10
-6.03156951515895
 20
1.252303992139822
 30
0.0
 11
-6.325720146932291
 21
4.614461098199463
 31
0.0
  0
LINE
  5
DB
330
2
100
AcDbEntity
  8
0
100
AcDbLine
 10
-6.201195809670825
 20
4.62535556604292
 30
0.0
 11
-5.906569515158946
 21
1.252303992139822
 31
0.0
  0
ARC
  5
DC
330
2
100
AcDbEntity
  8
0
100
AcDbCircle
 10
-5.781569515158946
 20
1.252303992139822
 30
0.0
 40
0.25
100
AcDbArc
 50
180.0
 51
269.9999999999999
  0
ARC
  5
DD
330
2
100
AcDbEntity
  8
0
100
AcDbCircle
 10
-5.781569515158946
 20
1.252303992139822
 30
0.0
 40
0.125
100
AcDbArc
 50
180.0
 51
269.9999999999999
  0
LINE
  5
DE
330
2
100
AcDbEntity
  8
0
100
AcDbLine
 10
-6.325720146932291
 20
4.614461098199463
 30
0.0
 11
-6.201195809670825
 21
4.62535556604292
 31
0.0
  0
CIRCLE
  5
DF
330
2
100
AcDbEntity
  8
0
100
AcDbCircle
 10
-3.187569515158948
 20
-1.372696007860178
 30
0.0
 40
0.2810000000000025
  0
LINE
  5
E0
330
2
100
AcDbEntity
  8
0
100
AcDbLine
 10
-5.281069515158848
 20
1.002303992139822
 30
0.0
 11
-1.094569515158895
 21
1.002303992139826
 31
0.0
  0
CIRCLE
  5
E1
330
2
100
AcDbEntity
  8
0
100
AcDbCircle
 10
-5.15656951515895
 20
-2.372696007860178
 30
0.0
 40
0.0855000000000025
  0
CIRCLE
  5
E2
330
2
100
AcDbEntity
  8
0
100
AcDbCircle
 10
-5.156569515158946
 20
-0.2476960078601778
 30
0.0
 40
0.0855000000000025
  0
LINE
  5
E3
330
2
100
AcDbEntity
  8
0
100
AcDbLine
 10
-5.655069515158843
 20
1.127303992139819
 30
0.0
 11
-5.655069515158843
 21
1.002303992139822
 31
0.0
  0
LINE
  5
E4
330
2
100
AcDbEntity
  8
0
100
AcDbLine
 10
-5.281069515158848
 20
1.127303992139819
 30
0.0
 11
-5.281069515158848
 21
0.7659872576554854
 31
0.0
  0
ARC
  5
E5
330
2
100
AcDbEntity
  8
0
100
AcDbCircle
 10
-5.468069515158845
 20
0.7523033254719742
 30
0.0
 40
0.1875000000000025
100
AcDbArc
 50
269.6944210605799
 51
4.185222519629921
  0
CIRCLE
  5
E6
330
2
100
AcDbEntity
  8
0
100
AcDbCircle
 10
-1.21906951515895
 20
-2.372696007860178
 30
0.0
 40
0.0855000000000025
  0
CIRCLE
  5
E7
330
2
100
AcDbEntity
  8
0
100
AcDbCircle
 10
-1.21906951515895
 20
-0.2476960078601778
 30
0.0
 40
0.0855000000000025
  0
LINE
  5
E8
330
2
100
AcDbEntity
  8
0
100
AcDbLine
 10
-1.094569515158895
 20
1.127303992139819
 30
0.0
 11
-1.094569515158895
 21
0.7659872576554854
 31
0.0
  0
LINE
  5
E9
330
2
100
AcDbEntity
  8
0
100
AcDbLine
 10
-0.9065695151589495
 20
0.5648059921576021
 30
0.0
 11
-0.9065695151589495
 21
-2.747696007860178
 31
0.0
  0
LINE
  5
EA
330
2
100
AcDbEntity
  8
0
100
AcDbLine
 10
-0.4690695151589495
 20
1.252303992139822
 30
0.0
 11
-0.174918883385601
 21
4.614461098199463
 31
0.0
  0
LINE
  5
EB
330
2
100
AcDbEntity
  8
0
100
AcDbLine
 10
-0.0503945461241315
 20
4.603566630356006
 30
0.0
 11
-0.34454517789748
 21
1.241409524296365
 31
0.0
  0
ARC
  5
EC
330
2
100
AcDbEntity
  8
0
100
AcDbCircle
 10
-0.5940695151589495
 20
1.252303992139822
 30
0.0
 40
0.25
100
AcDbArc
 50
270.0
 51
0.0
  0
ARC
  5
ED
330
2
100
AcDbEntity
  8
0
100
AcDbCircle
 10
-0.5940695151589495
 20
1.252303992139822
 30
0.0
 40
0.125
100
AcDbArc
 50
270.0
 51
0.0
  0
LINE
  5
EE
330
2
100
AcDbEntity
  8
0
100
AcDbLine
 10
-0.7205695151588998
 20
1.127303992139819
 30
0.0
 11
-0.7205695151588998
 21
1.002303992139822
 31
0.0
  0
LINE
  5
EF
330
2
100
AcDbEntity
  8
0
100
AcDbLine
 10
-0.174918883385601
 20
4.614461098199463
 30
0.0
 11
-0.0503945461241315
 21
4.603566630356006
 31
0.0
  0
LINE
  5
F0
330
2
100
AcDbEntity
  8
0
100
AcDbLine
 10
0.6124566686212489
 20
14.74834314779745
 30
0.0
 11
-2.700045331396527
 21
14.74834314779745
 31
0.0
  0
LINE
  5
F1
330
2
100
AcDbEntity
  8
0
100
AcDbLine
 10
-2.700045331396527
 20
10.18584314779746
 30
0.0
 11
0.6124566686212489
 21
10.18584314779746
 31
0.0
  0
LINE
  5
F2
330
2
100
AcDbEntity
  8
0
100
AcDbLine
 10
0.6124566686212489
 20
15.06084314779746
 30
0.0
 11
-6.700043331378751
 21
15.06084314779745
 31
0.0
  0
LINE
  5
F3
330
2
100
AcDbEntity
  8
0
100
AcDbLine
 10
0.6124566686212489
 20
9.873343147797463
 30
0.0
 11
-6.700043331378748
 21
9.873343147797471
 31
0.0
  0
LINE
  5
F4
330
2
100
AcDbEntity
  8
0
100
AcDbLine
 10
0.6124566686212454
 20
15.15984314779745
 30
0.0
 11
-6.700043331378744
 21
15.15984314779745
 31
0.0
  0
LINE
  5
F5
330
2
100
AcDbEntity
  8
0
100
AcDbLine
 10
0.6124566686212489
 20
9.774343147797467
 30
0.0
 11
-6.700043331378748
 21
9.774343147797467
 31
0.0
  0
LINE
  5
F6
330
2
100
AcDbEntity
  8
0
100
AcDbLine
 10
-6.700043331378748
 20
14.56134314779759
 30
0.0
 11
-6.700043331378748
 21
10.37484314779761
 31
0.0
  0
LINE
  5
F7
330
2
100
AcDbEntity
  8
0
100
AcDbLine
 10
-6.799043331378748
 20
14.74884314779759
 30
0.0
 11
-6.799043331378748
 21
10.1873431477976
 31
0.0
  0
LINE
  5
F8
330
2
100
AcDbEntity
  8
0
100
AcDbLine
 10
-3.137543331378748
 20
14.56134314779759
 30
0.0
 11
-3.137543331378744
 21
10.37484314779761
 31
0.0
  0
LINE
  5
F9
330
2
100
AcDbEntity
  8
0
100
AcDbLine
 10
-3.038543331378747
 20
14.74884314779758
 30
0.0
 11
-3.038543331378744
 21
10.18734314779761
 31
0.0
  0
LINE
  5
FA
330
2
100
AcDbEntity
  8
0
100
AcDbLine
 10
-6.799043331378748
 20
10.37484314779761
 30
0.0
 11
-6.700043331378755
 21
10.37484314779761
 31
0.0
  0
LINE
  5
FB
330
2
100
AcDbEntity
  8
0
100
AcDbLine
 10
-6.700043331378733
 20
10.18734314779761
 30
0.0
 11
-6.799043331378748
 21
10.1873431477976
 31
0.0
  0
LINE
  5
FC
330
2
100
AcDbEntity
  8
0
100
AcDbLine
 10
-6.700043331378748
 20
9.774343147797467
 30
0.0
 11
-6.700043331378748
 21
9.999843147797606
 31
0.0
  0
ARC
  5
FD
330
2
100
AcDbEntity
  8
0
100
AcDbCircle
 10
-6.700043331378748
 20
10.18734314779761
 30
0.0
 40
0.1875000000000025
100
AcDbArc
 50
270.0
 51
90.0
  0
LINE
  5
FE
330
2
100
AcDbEntity
  8
0
100
AcDbLine
 10
-6.700043331378748
 20
10.18734314779761
 30
0.0
 11
-6.700043331378748
 21
10.37484314779761
 31
0.0
  0
LINE
  5
FF
330
2
100
AcDbEntity
  8
0
100
AcDbLine
 10
-5.283355574655602
 20
12.96791649637371
 30
0.0
 11
-4.402300056198627
 21
12.96791649637371
 31
0.0
  0
LINE
  5
100
330
2
100
AcDbEntity
  8
0
100
AcDbLine
 10
-4.386926797198107
 20
12.33318258167568
 30
0.0
 11
-5.283438158434436
 21
12.33318258167568
 31
0.0
  0
LINE
  5
101
330
2
100
AcDbEntity
  8
0
100
AcDbLine
 10
-5.43871917415018
 20
12.49039559372712
 30
0.0
 11
-5.440568586707045
 21
12.81263548065797
 31
0.0
  0
ARC
  5
102
330
2
100
AcDbEntity
  8
0
100
AcDbCircle
 10
-5.282472160266586
 20
12.48942959555927
 30
0.0
 40
0.15625
100
AcDbArc
 50
179.6457729880108
 51
269.6457729880112
  0
ARC
  5
103
330
2
100
AcDbEntity
  8
0
100
AcDbCircle
 10
-5.284321572823451
 20
12.81166948249012
 30
0.0
 40
0.15625
100
AcDbArc
 50
89.64577298801119
 51
179.645772988011
  0
LINE
  5
104
330
2
100
AcDbEntity
  8
0
100
AcDbLine
 10
-4.247019040482883
 20
12.81070348432228
 30
0.0
 11
-4.247019040482883
 21
12.49232759006281
 31
0.0
  0
ARC
  5
105
330
2
100
AcDbEntity
  8
0
100
AcDbCircle
 10
-4.403266054366476
 20
12.49136159189497
 30
0.0
 40
0.15625
100
AcDbArc
 50
270.3542270119888
 51
0.3542270119887831
  0
ARC
  5
106
330
2
100
AcDbEntity
  8
0
100
AcDbCircle
 10
-4.403266054366476
 20
12.81166948249012
 30
0.0
 40
0.15625
100
AcDbArc
 50
359.6457729880112
 51
89.64577298801119
  0
ARC
  5
107
330
2
100
AcDbEntity
  8
0
100
AcDbCircle
 10
-2.8875426647109
 20
10.1868431477976
 30
0.0
 40
0.1875000000000025
100
AcDbArc
 50
265.81477748037
 51
0.3055789394200826
  0
LINE
  5
108
330
2
100
AcDbEntity
  8
0
100
AcDbLine
 10
-3.038543331378744
 20
10.37484314779761
 30
0.0
 11
-3.137543331378748
 21
10.37484314779761
 31
0.0
  0
LINE
  5
109
330
2
100
AcDbEntity
  8
0
100
AcDbLine
 10
-3.137543331378748
 20
9.999843147797606
 30
0.0
 11
-2.901226596894372
 21
9.999843147797606
 31
0.0
  0
LINE
  5
10A
330
2
100
AcDbEntity
  8
0
100
AcDbLine
 10
-3.137543331378751
 20
10.18734314779761
 30
0.0
 11
-3.038543331378747
 21
10.18734314779761
 31
0.0
  0
ARC
  5
10B
330
2
100
AcDbEntity
  8
0
100
AcDbCircle
 10
-3.137543331378748
 20
10.18734314779761
 30
0.0
 40
0.1875000000000025
100
AcDbArc
 50
90.0
 51
270.0
  0
LINE
  5
10C
330
2
100
AcDbEntity
  8
0
100
AcDbLine
 10
-3.137543331378748
 20
10.18734314779761
 30
0.0
 11
-3.137543331378748
 21
10.37484314779761
 31
0.0
  0
ARC
  5
10D
330
2
100
AcDbEntity
  8
0
100
AcDbCircle
 10
-6.700043331378748
 20
14.74884314779759
 30
0.0
 40
0.1875
100
AcDbArc
 50
270.0
 51
90.0
  0
LINE
  5
10E
330
2
100
AcDbEntity
  8
0
100
AcDbLine
 10
-6.700043331378748
 20
14.74884314779759
 30
0.0
 11
-6.700043331378748
 21
14.56134314779759
 31
0.0
  0
LINE
  5
10F
330
2
100
AcDbEntity
  8
0
100
AcDbLine
 10
-6.700043331378748
 20
14.56134314779759
 30
0.0
 11
-6.799043331378748
 21
14.56134314779759
 31
0.0
  0
LINE
  5
110
330
2
100
AcDbEntity
  8
0
100
AcDbLine
 10
-6.700043331378744
 20
15.15984314779745
 30
0.0
 11
-6.700043331378744
 21
14.93634314779759
 31
0.0
  0
LINE
  5
111
330
2
100
AcDbEntity
  8
0
100
AcDbLine
 10
-6.700043331378733
 20
14.74884314779759
 30
0.0
 11
-6.799043331378748
 21
14.74884314779759
 31
0.0
  0
ARC
  5
112
330
2
100
AcDbEntity
  8
0
100
AcDbCircle
 10
-3.137543331378748
 20
14.74884314779759
 30
0.0
 40
0.1875
100
AcDbArc
 50
90.0
 51
270.0
  0
LINE
  5
113
330
2
100
AcDbEntity
  8
0
100
AcDbLine
 10
-3.137543331378748
 20
14.74884314779759
 30
0.0
 11
-3.137543331378748
 21
14.56134314779759
 31
0.0
  0
LINE
  5
114
330
2
100
AcDbEntity
  8
0
100
AcDbLine
 10
-3.137543331378751
 20
14.56134314779759
 30
0.0
 11
-3.038543331378747
 21
14.56134314779758
 31
0.0
  0
ARC
  5
115
330
2
100
AcDbEntity
  8
0
100
AcDbCircle
 10
-2.8875426647109
 20
14.74934314779759
 30
0.0
 40
0.1875000000000025
100
AcDbArc
 50
359.6944210605799
 51
94.18522251962995
  0
LINE
  5
116
330
2
100
AcDbEntity
  8
0
100
AcDbLine
 10
-3.137543331378751
 20
14.74884314779759
 30
0.0
 11
-3.038543331378751
 21
14.74884314779758
 31
0.0
  0
LINE
  5
117
330
2
100
AcDbEntity
  8
0
100
AcDbLine
 10
-3.137543331378748
 20
14.93634314779759
 30
0.0
 11
-2.901226596894414
 21
14.93634314779759
 31
0.0
  0
LINE
  5
118
330
2
100
AcDbEntity
  8
0
100
AcDbLine
 10
0.6124566686212489
 20
10.18584314779746
 30
0.0
 11
0.6124566686212489
 21
9.774343147797467
 31
0.0
  0
LINE
  5
119
330
2
100
AcDbEntity
  8
0
100
AcDbLine
 10
0.6124566686212454
 20
15.15984314779745
 30
0.0
 11
0.6124566686212489
 21
14.74834314779745
 31
0.0
  0
LINE
  5
11A
330
2
100
AcDbEntity
  8
0
100
AcDbLine
 10
12.21843048484105
 20
1.002303992139815
 30
0.0
 11
19.40593048484104
 21
1.002303992139815
 31
0.0
  0
LINE
  5
11B
330
2
100
AcDbEntity
  8
0
100
AcDbLine
 10
12.21843048484105
 20
4.627303992139819
 30
0.0
 11
19.40593048484105
 21
4.627303992139819
 31
0.0
  0
CIRCLE
  5
11C
330
2
100
AcDbEntity
  8
0
100
AcDbCircle
 10
17.65593048484105
 20
3.502303992139819
 30
0.0
 40
0.2810000000000025
  0
LINE
  5
11D
330
2
100
AcDbEntity
  8
0
100
AcDbLine
 10
19.40593048484105
 20
1.127303992139819
 30
0.0
 11
12.3633049618285
 21
1.127303992139819
 31
0.0
  0
LINE
  5
11E
330
2
100
AcDbEntity
  8
0
100
AcDbLine
 10
12.21843048484105
 20
4.627303992139822
 30
0.0
 11
12.21843048484105
 21
1.002303992139822
 31
0.0
  0
ARC
  5
11F
330
2
100
AcDbEntity
  8
0
100
AcDbCircle
 10
12.21890796453398
 20
0.8773039921398187
 30
0.0
 40
0.25
100
AcDbArc
 50
90.0
 51
174.9999999999999
  0
ARC
  5
120
330
2
100
AcDbEntity
  8
0
100
AcDbCircle
 10
12.21843048484105
 20
0.8773039921398187
 30
0.0
 40
0.125
100
AcDbArc
 50
89.99999999999999
 51
180.0
  0
LINE
  5
121
330
2
100
AcDbEntity
  8
0
100
AcDbLine
 10
15.65593048484105
 20
0.9398039921398222
 30
0.0
 11
15.65593048484105
 21
1.002303992139822
 31
0.0
  0
ARC
  5
122
330
2
100
AcDbEntity
  8
0
100
AcDbCircle
 10
15.53093048484105
 20
0.8773039921398187
 30
0.0
 40
0.125
100
AcDbArc
 50
0.0
 51
89.99999999999993
  0
ARC
  5
123
330
2
100
AcDbEntity
  8
0
100
AcDbCircle
 10
15.53093048484105
 20
0.8773039921398187
 30
0.0
 40
0.25
100
AcDbArc
 50
0.0
 51
31.91065168996291
  0
CIRCLE
  5
124
330
2
100
AcDbEntity
  8
0
100
AcDbCircle
 10
13.21843048484105
 20
3.627303992139822
 30
0.0
 40
0.0855000000000025
  0
CIRCLE
  5
125
330
2
100
AcDbEntity
  8
0
100
AcDbCircle
 10
16.90593048484105
 20
2.127303992139819
 30
0.0
 40
0.0855000000000025
  0
CIRCLE
  5
126
330
2
100
AcDbEntity
  8
0
100
AcDbCircle
 10
15.40593048484105
 20
3.627303992139819
 30
0.0
 40
0.0855000000000025
  0
LINE
  5
127
330
2
100
AcDbEntity
  8
0
100
AcDbLine
 10
19.40593048484105
 20
4.627303992139819
 30
0.0
 11
19.40593048484104
 21
1.002303992139815
 31
0.0
  0
CIRCLE
  5
128
330
2
100
AcDbEntity
  8
0
100
AcDbCircle
 10
19.03093048484105
 20
3.627303992139819
 30
0.0
 40
0.0855000000000025
  0
LINE
  5
129
330
2
100
AcDbEntity
  8
0
100
AcDbLine
 10
16.09639438956278
 20
-2.723007320599301
 30
0.0
 11
15.78045482210252
 21
0.8881984599832755
 31
0.0
  0
LINE
  5
12A
330
2
100
AcDbEntity
  8
0
100
AcDbLine
 10
15.65593048484105
 20
0.8773039921398187
 30
0.0
 11
15.97187005230131
 21
-2.733901788442758
 31
0.0
  0
LINE
  5
12B
330
2
100
AcDbEntity
  8
0
100
AcDbLine
 10
11.96985929001104
 20
0.8990929278267323
 30
0.0
 11
11.65296658011933
 21
-2.723007320599297
 31
0.0
  0
LINE
  5
12C
330
2
100
AcDbEntity
  8
0
100
AcDbLine
 10
11.7774909173808
 20
-2.733901788442754
 30
0.0
 11
12.09343048484105
 21
0.8773039921398187
 31
0.0
  0
LINE
  5
12D
330
2
100
AcDbEntity
  8
0
100
AcDbLine
 10
11.65296658011933
 20
-2.723007320599297
 30
0.0
 11
11.7774909173808
 21
-2.733901788442754
 31
0.0
  0
LINE
  5
12E
330
2
100
AcDbEntity
  8
0
100
AcDbLine
 10
15.97187005230131
 20
-2.733901788442758
 30
0.0
 11
16.09639438956278
 21
-2.723007320599301
 31
0.0
  0
ENDSEC
  0
SECTION
  2
OBJECTS
  0
DICTIONARY
  5
7
330
0
100
AcDbDictionary
281
     1
  3
ACAD_COLOR
350
135
  3
ACAD_GROUP
350
1F
  3
ACAD_LAYOUT
350
B
  3
ACAD_MATERIAL
350
137
  3
ACAD_MLINESTYLE
350
20
  3
ACAD_PLOTSETTINGS
350
21
  3
ACAD_PLOTSTYLENAME
350
6
  3
ACDBHEADERROUNDTRIPXREC
350
134
  3
AcDbVariableDictionary
350
C4
  0
DICTIONARY
  5
135
102
{ACAD_REACTORS
330
7
102
}
330
7
100
AcDbDictionary
281
     1
  0
DICTIONARY
  5
1F
102
{ACAD_REACTORS
330
7
102
}
330
7
100
AcDbDictionary
281
     1
  0
DICTIONARY
  5
B
102
{ACAD_REACTORS
330
7
102
}
330
7
100
AcDbDictionary
281
     1
  3
Layout1
350
F
  3
Model
350
A
  0
DICTIONARY
  5
137
102
{ACAD_REACTORS
330
7
102
}
330
7
100
AcDbDictionary
281
     1
  0
DICTIONARY
  5
20
102
{ACAD_REACTORS
330
7
102
}
330
7
100
AcDbDictionary
281
     1
  3
Standard
350
23
  0
DICTIONARY
  5
21
102
{ACAD_REACTORS
330
7
102
}
330
7
100
AcDbDictionary
281
     1
  0
ACDBDICTIONARYWDFLT
  5
6
102
{ACAD_REACTORS
330
7
102
}
330
7
100
AcDbDictionary
281
     1
  3
Normal
350
5
100
AcDbDictionaryWithDefault
340
5
  0
DICTIONARY
  5
134
102
{ACAD_REACTORS
330
7
102
}
330
7
100
AcDbDictionary
281
     1
  3
COLORDICT
350
136
  3
MATERIALDICT
350
138
  0
DICTIONARY
  5
C4
102
{ACAD_REACTORS
330
7
102
}
330
7
100
AcDbDictionary
281
     1
  3
DIMASSOC
350
C6
  3
HIDETEXT
350
C5
  0
LAYOUT
  5
F
102
{ACAD_REACTORS
330
B
102
}
102
{ACAD_XDICTIONARY
360
139
102
}
330
B
100
AcDbPlotSettings
  1

  2
X:\Program Files\AutoCAD2002\plotters\DWF ePlot (optimized for plotting).pc3
  4

  6

 40
0.0
 41
0.0
 42
0.0
 43
0.0
 44
0.0
 45
0.0
 46
0.0
 47
0.0
 48
0.0
 49
0.0
140
0.0
141
0.0
142
1.0
143
1.0
 70
   688
 72
     0
 73
     0
 74
     5
  7

 75
    16
147
1.0
148
0.0
149
0.0
100
AcDbLayout
  1
Layout1
 70
     0
 71
     1
 10
0.0
 20
0.0
 11
12.0
 21
9.0
 12
0.0
 22
0.0
 32
0.0
 14
1.000000000000000E+20
 24
1.000000000000000E+20
 34
1.000000000000000E+20
 15
-1.000000000000000E+20
 25
-1.000000000000000E+20
 35
-1.000000000000000E+20
146
0.0
 13
0.0
 23
0.0
 33
0.0
 16
1.0
 26
0.0
 36
0.0
 17
0.0
 27
1.0
 37
0.0
 76
     0
330
C
  0
LAYOUT
  5
A
102
{ACAD_REACTORS
330
B
102
}
102
{ACAD_XDICTIONARY
360
13B
102
}
330
B
100
AcDbPlotSettings
  1

  2
X:\Program Files\AutoCAD2002\plotters\DWF ePlot (optimized for plotting).pc3
  4

  6

 40
0.0
 41
0.0
 42
0.0
 43
0.0
 44
0.0
 45
0.0
 46
0.0
 47
0.0
 48
0.0
 49
0.0
140
0.0
141
0.0
142
1.0
143
1.0
 70
  1712
 72
     0
 73
     0
 74
     0
  7

 75
     0
147
1.0
148
0.0
149
0.0
100
AcDbLayout
  1
Model
 70
     1
 71
     0
 10
0.0
 20
0.0
 11
12.0
 21
9.0
 12
0.0
 22
0.0
 32
0.0
 14
0.0
 24
0.0
 34
0.0
 15
0.0
 25
0.0
 35
0.0
146
0.0
 13
0.0
 23
0.0
 33
0.0
 16
1.0
 26
0.0
 36
0.0
 17
0.0
 27
1.0
 37
0.0
 76
     0
330
2
  0
MLINESTYLE
  5
23
102
{ACAD_REACTORS
330
20
102
}
330
20
100
AcDbMlineStyle
  2
STANDARD
 70
     0
  3

 62
   256
 51
90.0
 52
90.0
 71
     2
 49
0.5
 62
   256
  6
BYLAYER
 49
-0.5
 62
   256
  6
BYLAYER
  0
ACDBPLACEHOLDER
  5
5
102
{ACAD_REACTORS
330
6
102
}
330
6
  0
XRECORD
  5
136
102
{ACAD_REACTORS
330
134
102
}
330
134
100
AcDbXrecord
340
135
  0
XRECORD
  5
138
102
{ACAD_REACTORS
330
134
102
}
330
134
100
AcDbXrecord
340
137
  0
DICTIONARYVAR
  5
C6
102
{ACAD_REACTORS
330
C4
102
}
330
C4
100
DictionaryVariables
280
     0
  1
2
  0
DICTIONARYVAR
  5
C5
102
{ACAD_REACTORS
330
C4
102
}
330
C4
100
DictionaryVariables
280
     0
  1
1
  0
DICTIONARY
  5
139
330
F
100
AcDbDictionary
280
     1
281
     1
  3
ACAD_XREC_ROUNDTRIP
360
13A
  0
DICTIONARY
  5
13B
330
A
100
AcDbDictionary
280
     1
281
     1
  3
ACAD_XREC_ROUNDTRIP
360
13C
  0
XRECORD
  5
13A
102
{ACAD_REACTORS
330
139
102
}
330
139
100
AcDbXrecord
102
SHADEPLOT
 70
     0
102
SHADEPLOTRESLEVEL
 70
     2
102
SHADEPLOTCUSTOMDPI
 70
   300
  0
XRECORD
  5
13C
102
{ACAD_REACTORS
330
13B
102
}
330
13B
100
AcDbXrecord
102
SHADEPLOT
 70
     0
102
SHADEPLOTRESLEVEL
 70
     2
102
SHADEPLOTCUSTOMDPI
 70
   300
  0
ENDSEC
  0
EOF
