  0
SECTION
  2
HEADER
  9
$ACADVER
  1
AC1015
  9
$ACADMAINTVER
 70
     6
  9
$DWGCODEPAGE
  3
ANSI_1252
  9
$INSBASE
 10
0.0
 20
0.0
 30
0.0
  9
$EXTMIN
 10
-0.0012206099941636
 20
-2.721290469310844
 30
-0.0015258207003583
  9
$EXTMAX
 10
9.349365291825322
 20
2.722091739091681
 30
0.0000000349246037
  9
$LIMMIN
 10
0.0
 20
0.0
  9
$LIMMAX
 10
40.00000000000039
 20
52.50000000000051
  9
$ORTHOMODE
 70
     0
  9
$REGENMODE
 70
     1
  9
$FILLMODE
 70
     1
  9
$QTEXTMODE
 70
     0
  9
$MIRRTEXT
 70
     0
  9
$LTSCALE
 40
1.5
  9
$ATTMODE
 70
     1
  9
$TEXTSIZE
 40
0.450000000000004
  9
$TRACEWID
 40
0.05
  9
$TEXTSTYLE
  7
STANDARD
  9
$CLAYER
  8
OBJECT
  9
$CELTYPE
  6
ByLayer
  9
$CECOLOR
 62
   256
  9
$CELTSCALE
 40
1.0
  9
$DISPSILH
 70
     0
  9
$DIMSCALE
 40
1.0
  9
$DIMASZ
 40
0.625000000000004
  9
$DIMEXO
 40
0.1
  9
$DIMDLI
 40
0.375
  9
$DIMRND
 40
0.0
  9
$DIMDLE
 40
0.0
  9
$DIMEXE
 40
0.400000000000004
  9
$DIMTP
 40
0.0
  9
$DIMTM
 40
0.0
  9
$DIMTXT
 40
0.450000000000004
  9
$DIMCEN
 40
-0.06
  9
$DIMTSZ
 40
0.0
  9
$DIMTOL
 70
     0
  9
$DIMLIM
 70
     0
  9
$DIMTIH
 70
     1
  9
$DIMTOH
 70
     1
  9
$DIMSE1
 70
     0
  9
$DIMSE2
 70
     0
  9
$DIMTAD
 70
     0
  9
$DIMZIN
 70
     0
  9
$DIMBLK
  1

  9
$DIMASO
 70
     0
  9
$DIMSHO
 70
     1
  9
$DIMPOST
  1

  9
$DIMAPOST
  1

  9
$DIMALT
 70
     0
  9
$DIMALTD
 70
     2
  9
$DIMALTF
 40
25.4
  9
$DIMLFAC
 40
1.0
  9
$DIMTOFL
 70
     0
  9
$DIMTVP
 40
0.0
  9
$DIMTIX
 70
     0
  9
$DIMSOXD
 70
     0
  9
$DIMSAH
 70
     0
  9
$DIMBLK1
  1

  9
$DIMBLK2
  1

  9
$DIMSTYLE
  2
Standard
  9
$DIMCLRD
 70
     0
  9
$DIMCLRE
 70
     0
  9
$DIMCLRT
 70
     0
  9
$DIMTFAC
 40
1.0
  9
$DIMGAP
 40
0.09
  9
$DIMJUST
 70
     0
  9
$DIMSD1
 70
     0
  9
$DIMSD2
 70
     0
  9
$DIMTOLJ
 70
     1
  9
$DIMTZIN
 70
     0
  9
$DIMALTZ
 70
     0
  9
$DIMALTTZ
 70
     0
  9
$DIMUPT
 70
     0
  9
$DIMDEC
 70
     3
  9
$DIMTDEC
 70
     3
  9
$DIMALTU
 70
     2
  9
$DIMALTTD
 70
     2
  9
$DIMTXSTY
  7
STANDARD
  9
$DIMAUNIT
 70
     0
  9
$DIMADEC
 70
     0
  9
$DIMALTRND
 40
0.0
  9
$DIMAZIN
 70
     0
  9
$DIMDSEP
 70
    46
  9
$DIMATFIT
 70
     3
  9
$DIMFRAC
 70
     0
  9
$DIMLDRBLK
  1

  9
$DIMLUNIT
 70
     2
  9
$DIMLWD
 70
    -2
  9
$DIMLWE
 70
    -2
  9
$DIMTMOVE
 70
     2
  9
$LUNITS
 70
     2
  9
$LUPREC
 70
     3
  9
$SKETCHINC
 40
0.1
  9
$FILLETRAD
 40
0.0
  9
$AUNITS
 70
     0
  9
$AUPREC
 70
     0
  9
$MENU
  1
acad
  9
$ELEVATION
 40
0.0
  9
$PELEVATION
 40
0.0
  9
$THICKNESS
 40
0.0
  9
$LIMCHECK
 70
     0
  9
$CHAMFERA
 40
0.0
  9
$CHAMFERB
 40
0.0
  9
$CHAMFERC
 40
0.0
  9
$CHAMFERD
 40
0.0
  9
$SKPOLY
 70
     0
  9
$TDCREATE
 40
2449186.035911921
  9
$TDUCREATE
 40
2449186.369245254
  9
$TDUPDATE
 40
2453783.613386528
  9
$TDUUPDATE
 40
2453783.946719861
  9
$TDINDWG
 40
0.0322975579
  9
$TDUSRTIMER
 40
0.0322975579
  9
$USRTIMER
 70
     1
  9
$ANGBASE
 50
0.0
  9
$ANGDIR
 70
     0
  9
$PDMODE
 70
     0
  9
$PDSIZE
 40
0.0
  9
$PLINEWID
 40
0.0
  9
$SPLFRAME
 70
     0
  9
$SPLINETYPE
 70
     6
  9
$SPLINESEGS
 70
     8
  9
$HANDSEED
  5
90
  9
$SURFTAB1
 70
     6
  9
$SURFTAB2
 70
     6
  9
$SURFTYPE
 70
     6
  9
$SURFU
 70
     6
  9
$SURFV
 70
     6
  9
$UCSBASE
  2

  9
$UCSNAME
  2

  9
$UCSORG
 10
0.0
 20
0.0
 30
0.0
  9
$UCSXDIR
 10
1.0
 20
0.0
 30
0.0
  9
$UCSYDIR
 10
0.0
 20
1.0
 30
0.0
  9
$UCSORTHOREF
  2

  9
$UCSORTHOVIEW
 70
     0
  9
$UCSORGTOP
 10
0.0
 20
0.0
 30
0.0
  9
$UCSORGBOTTOM
 10
0.0
 20
0.0
 30
0.0
  9
$UCSORGLEFT
 10
0.0
 20
0.0
 30
0.0
  9
$UCSORGRIGHT
 10
0.0
 20
0.0
 30
0.0
  9
$UCSORGFRONT
 10
0.0
 20
0.0
 30
0.0
  9
$UCSORGBACK
 10
0.0
 20
0.0
 30
0.0
  9
$PUCSBASE
  2

  9
$PUCSNAME
  2

  9
$PUCSORG
 10
0.0
 20
0.0
 30
0.0
  9
$PUCSXDIR
 10
1.0
 20
0.0
 30
0.0
  9
$PUCSYDIR
 10
0.0
 20
1.0
 30
0.0
  9
$PUCSORTHOREF
  2

  9
$PUCSORTHOVIEW
 70
     0
  9
$PUCSORGTOP
 10
0.0
 20
0.0
 30
0.0
  9
$PUCSORGBOTTOM
 10
0.0
 20
0.0
 30
0.0
  9
$PUCSORGLEFT
 10
0.0
 20
0.0
 30
0.0
  9
$PUCSORGRIGHT
 10
0.0
 20
0.0
 30
0.0
  9
$PUCSORGFRONT
 10
0.0
 20
0.0
 30
0.0
  9
$PUCSORGBACK
 10
0.0
 20
0.0
 30
0.0
  9
$USERI1
 70
     0
  9
$USERI2
 70
     0
  9
$USERI3
 70
     0
  9
$USERI4
 70
     0
  9
$USERI5
 70
     0
  9
$USERR1
 40
0.0
  9
$USERR2
 40
0.0
  9
$USERR3
 40
0.0
  9
$USERR4
 40
0.0
  9
$USERR5
 40
0.0
  9
$WORLDVIEW
 70
     1
  9
$SHADEDGE
 70
     3
  9
$SHADEDIF
 70
    70
  9
$TILEMODE
 70
     1
  9
$MAXACTVP
 70
    16
  9
$PINSBASE
 10
0.0
 20
0.0
 30
0.0
  9
$PLIMCHECK
 70
     0
  9
$PEXTMIN
 10
1.000000000000000E+20
 20
1.000000000000000E+20
 30
1.000000000000000E+20
  9
$PEXTMAX
 10
-1.000000000000000E+20
 20
-1.000000000000000E+20
 30
-1.000000000000000E+20
  9
$PLIMMIN
 10
0.0
 20
0.0
  9
$PLIMMAX
 10
12.0
 20
9.0
  9
$UNITMODE
 70
     0
  9
$VISRETAIN
 70
     0
  9
$PLINEGEN
 70
     0
  9
$PSLTSCALE
 70
     0
  9
$TREEDEPTH
 70
  3020
  9
$CMLSTYLE
  2
Standard
  9
$CMLJUST
 70
     0
  9
$CMLSCALE
 40
1.0
  9
$PROXYGRAPHICS
 70
     1
  9
$MEASUREMENT
 70
     0
  9
$CELWEIGHT
370
    -1
  9
$ENDCAPS
280
     0
  9
$JOINSTYLE
280
     0
  9
$LWDISPLAY
290
     0
  9
$INSUNITS
 70
     0
  9
$HYPERLINKBASE
  1

  9
$STYLESHEET
  1

  9
$XEDIT
290
     1
  9
$CEPSNTYPE
380
     0
  9
$PSTYLEMODE
290
     1
  9
$FINGERPRINTGUID
  2
{4723EAE2-78B4-417B-8854-AE906F1A3585}
  9
$VERSIONGUID
  2
{CD4936A4-CBD7-4240-AE22-EDF0D0BF8DCE}
  9
$EXTNAMES
290
     1
  9
$PSVPSCALE
 40
0.0
  9
$OLESTARTUP
290
     0
  0
ENDSEC
  0
SECTION
  2
CLASSES
  0
CLASS
  1
ACDBDICTIONARYWDFLT
  2
AcDbDictionaryWithDefault
  3
AutoCAD 2000
 90
        0
280
     0
281
     0
  0
CLASS
  1
ACDBPLACEHOLDER
  2
AcDbPlaceHolder
  3
ObjectDBX Classes
 90
        0
280
     0
281
     0
  0
CLASS
  1
LAYOUT
  2
AcDbLayout
  3
ObjectDBX Classes
 90
        0
280
     0
281
     0
  0
CLASS
  1
DICTIONARYVAR
  2
AcDbDictionaryVar
  3
AutoCAD 2000
 90
        0
280
     0
281
     0
  0
ENDSEC
  0
SECTION
  2
TABLES
  0
TABLE
  2
VPORT
  5
19
330
0
100
AcDbSymbolTable
 70
     2
  0
VPORT
  5
86
330
19
100
AcDbSymbolTableRecord
100
AcDbViewportTableRecord
  2
*Active
 70
     0
 10
0.0
 20
0.0
 11
1.0
 21
1.0
 12
19.99938969500312
 22
24.88935476534483
 13
0.0
 23
0.0
 14
0.0625
 24
0.0625
 15
0.25
 25
0.25
 16
0.0
 26
0.0
 36
1.0
 17
0.0
 27
0.0
 37
0.0
 40
56.0955061495643
 41
1.925925925925926
 42
50.0
 43
0.0
 44
0.0
 50
0.0
 51
0.0
 71
     0
 72
   100
 73
     1
 74
     0
 75
     0
 76
     0
 77
     0
 78
     0
281
     0
 65
     1
110
0.0
120
0.0
130
0.0
111
1.0
121
0.0
131
0.0
112
0.0
122
1.0
132
0.0
 79
     0
146
0.0
  0
ENDTAB
  0
TABLE
  2
LTYPE
  5
14
330
0
100
AcDbSymbolTable
 70
     2
  0
LTYPE
  5
15
330
14
100
AcDbSymbolTableRecord
100
AcDbLinetypeTableRecord
  2
ByBlock
 70
     0
  3

 72
    65
 73
     0
 40
0.0
  0
LTYPE
  5
16
330
14
100
AcDbSymbolTableRecord
100
AcDbLinetypeTableRecord
  2
ByLayer
 70
     0
  3

 72
    65
 73
     0
 40
0.0
  0
LTYPE
  5
8
330
14
100
AcDbSymbolTableRecord
100
AcDbLinetypeTableRecord
  2
CONTINUOUS
 70
     0
  3
Solid line
 72
    65
 73
     0
 40
0.0
  0
ENDTAB
  0
TABLE
  2
LAYER
  5
10
330
0
100
AcDbSymbolTable
 70
     4
  0
LAYER
  5
4
330
10
100
AcDbSymbolTableRecord
100
AcDbLayerTableRecord
  2
0
 70
     0
 62
    -1
  6
CONTINUOUS
370
    -3
390
5
  0
LAYER
  5
28
330
10
100
AcDbSymbolTableRecord
100
AcDbLayerTableRecord
  2
OBJECT
 70
     0
 62
     7
  6
CONTINUOUS
370
    -3
390
5
  0
ENDTAB
  0
TABLE
  2
STYLE
  5
11
330
0
100
AcDbSymbolTable
 70
     1
  0
STYLE
  5
12
330
11
100
AcDbSymbolTableRecord
100
AcDbTextStyleTableRecord
  2
STANDARD
 70
     0
 40
0.0
 41
1.0
 50
0.0
 71
     0
 42
0.450000000000004
  3
TXT
  4

  0
ENDTAB
  0
TABLE
  2
VIEW
  5
17
330
0
100
AcDbSymbolTable
 70
     0
  0
ENDTAB
  0
TABLE
  2
UCS
  5
18
330
0
100
AcDbSymbolTable
 70
     0
  0
ENDTAB
  0
TABLE
  2
APPID
  5
1B
330
0
100
AcDbSymbolTable
 70
     1
  0
APPID
  5
1C
330
1B
100
AcDbSymbolTableRecord
100
AcDbRegAppTableRecord
  2
ACAD
 70
     0
  0
ENDTAB
  0
TABLE
  2
DIMSTYLE
  5
1D
330
0
100
AcDbSymbolTable
 70
     1
100
AcDbDimStyleTable
  0
DIMSTYLE
105
24
330
1D
100
AcDbSymbolTableRecord
100
AcDbDimStyleTableRecord
  2
Standard
 70
     0
  3

  4

340
12
  0
ENDTAB
  0
TABLE
  2
BLOCK_RECORD
  5
1
330
0
100
AcDbSymbolTable
 70
     1
  0
BLOCK_RECORD
  5
2
330
1
100
AcDbSymbolTableRecord
100
AcDbBlockTableRecord
  2
*Model_Space
340
A
  0
BLOCK_RECORD
  5
C
330
1
100
AcDbSymbolTableRecord
100
AcDbBlockTableRecord
  2
*Paper_Space
340
F
  0
ENDTAB
  0
ENDSEC
  0
SECTION
  2
BLOCKS
  0
BLOCK
  5
3
330
2
100
AcDbEntity
  8
0
100
AcDbBlockBegin
  2
*Model_Space
 70
     0
 10
0.0
 20
0.0
 30
0.0
  3
*Model_Space
  1

  4

  0
ENDBLK
  5
9
330
2
100
AcDbEntity
  8
0
100
AcDbBlockEnd
  0
BLOCK
  5
D
330
C
100
AcDbEntity
 67
     1
  8
0
100
AcDbBlockBegin
  2
*Paper_Space
 70
     0
 10
0.0
 20
0.0
 30
0.0
  3
*Paper_Space
  1

  4

  0
ENDBLK
  5
E
330
C
100
AcDbEntity
 67
     1
  8
0
100
AcDbBlockEnd
  0
ENDSEC
  0
SECTION
  2
ENTITIES
  0
LINE
  5
5C
330
2
100
AcDbEntity
  8
OBJECT
100
AcDbLine
 10
5.598500000000001
 20
2.467250000000323
 30
0.0
 11
5.834816734484335
 21
2.467250000000323
 31
0.0
  0
LINE
  5
5D
330
2
100
AcDbEntity
  8
OBJECT
100
AcDbLine
 10
5.598500000000001
 20
-2.467250000000323
 30
0.0
 11
5.834816734484377
 21
-2.467250000000323
 31
0.0
  0
LINE
  5
5E
330
2
100
AcDbEntity
  8
OBJECT
100
AcDbLine
 10
9.348500000000009
 20
-2.593749999999996
 30
0.0
 11
0.0990000000000038
 21
-2.593749999999996
 31
0.0
  0
LINE
  5
5F
330
2
100
AcDbEntity
  8
OBJECT
100
AcDbLine
 10
0.0990000000000038
 20
-2.718749999999996
 30
0.0
 11
9.348500000000009
 21
-2.718749999999996
 31
0.0
  0
LINE
  5
60
330
2
100
AcDbEntity
  8
OBJECT
100
AcDbLine
 10
0.0990000000000002
 20
2.718750000000004
 30
0.0
 11
9.348500000000009
 21
2.718750000000004
 31
0.0
  0
LINE
  5
61
330
2
100
AcDbEntity
  8
OBJECT
100
AcDbLine
 10
9.348500000000009
 20
2.593750000000004
 30
0.0
 11
0.0990000000000002
 21
2.593750000000004
 31
0.0
  0
LINE
  5
62
330
2
100
AcDbEntity
  8
OBJECT
100
AcDbLine
 10
0.0990000000000002
 20
2.092250000000323
 30
0.0
 11
0.0990000000000002
 21
-2.092250000000323
 31
0.0
  0
LINE
  5
63
330
2
100
AcDbEntity
  8
OBJECT
100
AcDbLine
 10
0.0
 20
2.27975000000033
 30
0.0
 11
0.0
 21
-2.27975000000033
 31
0.0
  0
ARC
  5
64
330
2
100
AcDbEntity
  8
OBJECT
100
AcDbCircle
 10
0.0990000000000002
 20
-2.279750000000323
 30
0.0
 40
0.1875000000000025
100
AcDbArc
 50
270.0
 51
90.0
  0
LINE
  5
65
330
2
100
AcDbEntity
  8
OBJECT
100
AcDbLine
 10
0.0990000000000038
 20
-2.717250000000323
 30
0.0
 11
0.0990000000000038
 21
-2.467250000000323
 31
0.0
  0
LINE
  5
66
330
2
100
AcDbEntity
  8
OBJECT
100
AcDbLine
 10
0.0
 20
-2.092250000000323
 30
0.0
 11
0.0989999999999931
 21
-2.092250000000323
 31
0.0
  0
LINE
  5
67
330
2
100
AcDbEntity
  8
OBJECT
100
AcDbLine
 10
0.0990000000000144
 20
-2.279750000000323
 30
0.0
 11
0.0
 21
-2.27975000000033
 31
0.0
  0
LINE
  5
68
330
2
100
AcDbEntity
  8
OBJECT
100
AcDbLine
 10
0.0990000000000002
 20
-2.279750000000323
 30
0.0
 11
0.0990000000000002
 21
-2.092250000000323
 31
0.0
  0
LINE
  5
69
330
2
100
AcDbEntity
  8
OBJECT
100
AcDbLine
 10
0.0990000000000002
 20
2.718750000000004
 30
0.0
 11
0.0990000000000002
 21
2.467250000000323
 31
0.0
  0
ARC
  5
6A
330
2
100
AcDbEntity
  8
OBJECT
100
AcDbCircle
 10
0.0990000000000002
 20
2.279750000000323
 30
0.0
 40
0.1875
100
AcDbArc
 50
270.0
 51
90.0
  0
LINE
  5
6B
330
2
100
AcDbEntity
  8
OBJECT
100
AcDbLine
 10
0.0990000000000002
 20
2.092250000000323
 30
0.0
 11
0.0
 21
2.09225000000033
 31
0.0
  0
LINE
  5
6C
330
2
100
AcDbEntity
  8
OBJECT
100
AcDbLine
 10
0.0990000000000144
 20
2.279750000000323
 30
0.0
 11
0.0
 21
2.27975000000033
 31
0.0
  0
LINE
  5
6D
330
2
100
AcDbEntity
  8
OBJECT
100
AcDbLine
 10
0.0990000000000002
 20
2.279750000000323
 30
0.0
 11
0.0990000000000002
 21
2.092250000000323
 31
0.0
  0
LINE
  5
6E
330
2
100
AcDbEntity
  8
OBJECT
100
AcDbLine
 10
5.598500000000001
 20
2.092250000000323
 30
0.0
 11
5.598500000000005
 21
-2.092250000000323
 31
0.0
  0
LINE
  5
6F
330
2
100
AcDbEntity
  8
OBJECT
100
AcDbLine
 10
5.697500000000002
 20
2.279750000000316
 30
0.0
 11
5.697500000000005
 21
-2.279750000000316
 31
0.0
  0
ARC
  5
70
330
2
100
AcDbEntity
  8
OBJECT
100
AcDbCircle
 10
5.598500000000001
 20
-2.279750000000323
 30
0.0
 40
0.1875000000000025
100
AcDbArc
 50
90.0
 51
270.0
  0
LINE
  5
71
330
2
100
AcDbEntity
  8
OBJECT
100
AcDbLine
 10
5.697500000000005
 20
-2.092250000000323
 30
0.0
 11
5.598500000000001
 21
-2.092250000000323
 31
0.0
  0
LINE
  5
72
330
2
100
AcDbEntity
  8
OBJECT
100
AcDbLine
 10
5.598499999999998
 20
-2.279750000000323
 30
0.0
 11
5.697500000000002
 21
-2.279750000000316
 31
0.0
  0
LINE
  5
73
330
2
100
AcDbEntity
  8
OBJECT
100
AcDbLine
 10
5.598500000000001
 20
-2.279750000000323
 30
0.0
 11
5.598500000000001
 21
-2.092250000000323
 31
0.0
  0
ARC
  5
74
330
2
100
AcDbEntity
  8
OBJECT
100
AcDbCircle
 10
2.363707083073333
 20
0.1118628573836453
 30
0.0
 40
0.15625
100
AcDbArc
 50
89.64577298801119
 51
179.645772988011
  0
ARC
  5
75
330
2
100
AcDbEntity
  8
OBJECT
100
AcDbCircle
 10
2.365556495630198
 20
-0.2103770295472138
 30
0.0
 40
0.15625
100
AcDbArc
 50
179.6457729880108
 51
269.6457729880112
  0
LINE
  5
76
330
2
100
AcDbEntity
  8
OBJECT
100
AcDbLine
 10
2.209309481746605
 20
-0.2094110313793642
 30
0.0
 11
2.20746006918974
 21
0.1128288555514878
 31
0.0
  0
ARC
  5
77
330
2
100
AcDbEntity
  8
OBJECT
100
AcDbCircle
 10
3.244762601530304
 20
-0.2084450332115146
 30
0.0
 40
0.15625
100
AcDbArc
 50
270.3542270119888
 51
0.3542270119887831
  0
LINE
  5
78
330
2
100
AcDbEntity
  8
OBJECT
100
AcDbLine
 10
3.261101858698677
 20
-0.3666240434308001
 30
0.0
 11
2.364590497462348
 21
-0.3666240434308001
 31
0.0
  0
LINE
  5
79
330
2
100
AcDbEntity
  8
OBJECT
100
AcDbLine
 10
2.364673081241183
 20
0.2681098712672316
 30
0.0
 11
3.245728599698154
 21
0.2681098712672316
 31
0.0
  0
ARC
  5
7A
330
2
100
AcDbEntity
  8
OBJECT
100
AcDbCircle
 10
3.244762601530304
 20
0.1118628573836453
 30
0.0
 40
0.15625
100
AcDbArc
 50
359.6457729880112
 51
89.64577298801119
  0
LINE
  5
7B
330
2
100
AcDbEntity
  8
OBJECT
100
AcDbLine
 10
3.401009615413898
 20
0.1108968592157957
 30
0.0
 11
3.401009615413898
 21
-0.2074790350436651
 31
0.0
  0
LINE
  5
7C
330
2
100
AcDbEntity
  8
OBJECT
100
AcDbLine
 10
5.598500000000001
 20
2.279750000000323
 30
0.0
 11
5.598500000000001
 21
2.092250000000323
 31
0.0
  0
LINE
  5
7D
330
2
100
AcDbEntity
  8
OBJECT
100
AcDbLine
 10
5.598499999999998
 20
2.092250000000323
 30
0.0
 11
5.697500000000002
 21
2.092250000000316
 31
0.0
  0
LINE
  5
7E
330
2
100
AcDbEntity
  8
OBJECT
100
AcDbLine
 10
5.598499999999998
 20
2.279750000000323
 30
0.0
 11
5.697499999999998
 21
2.279750000000316
 31
0.0
  0
ARC
  5
7F
330
2
100
AcDbEntity
  8
OBJECT
100
AcDbCircle
 10
5.598500000000001
 20
2.279750000000323
 30
0.0
 40
0.1875
100
AcDbArc
 50
90.0
 51
270.0
  0
LINE
  5
80
330
2
100
AcDbEntity
  8
OBJECT
100
AcDbLine
 10
6.035997999982222
 20
-2.281249999999996
 30
0.0
 11
9.348500000000009
 21
-2.281249999999996
 31
0.0
  0
ARC
  5
81
330
2
100
AcDbEntity
  8
OBJECT
100
AcDbCircle
 10
5.848500666667849
 20
-2.280250000000326
 30
0.0
 40
0.1875000000000025
100
AcDbArc
 50
265.81477748037
 51
0.3055789394200826
  0
LINE
  5
82
330
2
100
AcDbEntity
  8
OBJECT
100
AcDbLine
 10
9.348500000000009
 20
-2.281249999999996
 30
0.0
 11
9.348500000000009
 21
-2.718749999999996
 31
0.0
  0
LINE
  5
83
330
2
100
AcDbEntity
  8
OBJECT
100
AcDbLine
 10
9.348500000000009
 20
2.281249999999996
 30
0.0
 11
6.035997999982225
 21
2.281249999999996
 31
0.0
  0
ARC
  5
84
330
2
100
AcDbEntity
  8
OBJECT
100
AcDbCircle
 10
5.848500666667849
 20
2.280250000000326
 30
0.0
 40
0.1875000000000025
100
AcDbArc
 50
359.6944210605799
 51
94.18522251962995
  0
LINE
  5
85
330
2
100
AcDbEntity
  8
OBJECT
100
AcDbLine
 10
9.348500000000009
 20
2.718749999999996
 30
0.0
 11
9.348500000000009
 21
2.281249999999996
 31
0.0
  0
ENDSEC
  0
SECTION
  2
OBJECTS
  0
DICTIONARY
  5
7
330
0
100
AcDbDictionary
281
     1
  3
ACAD_COLOR
350
88
  3
ACAD_GROUP
350
1F
  3
ACAD_LAYOUT
350
B
  3
ACAD_MATERIAL
350
8A
  3
ACAD_MLINESTYLE
350
20
  3
ACAD_PLOTSETTINGS
350
21
  3
ACAD_PLOTSTYLENAME
350
6
  3
ACDBHEADERROUNDTRIPXREC
350
87
  3
AcDbVariableDictionary
350
56
  0
DICTIONARY
  5
88
102
{ACAD_REACTORS
330
7
102
}
330
7
100
AcDbDictionary
281
     1
  0
DICTIONARY
  5
1F
102
{ACAD_REACTORS
330
7
102
}
330
7
100
AcDbDictionary
281
     1
  0
DICTIONARY
  5
B
102
{ACAD_REACTORS
330
7
102
}
330
7
100
AcDbDictionary
281
     1
  3
Layout1
350
F
  3
Model
350
A
  0
DICTIONARY
  5
8A
102
{ACAD_REACTORS
330
7
102
}
330
7
100
AcDbDictionary
281
     1
  0
DICTIONARY
  5
20
102
{ACAD_REACTORS
330
7
102
}
330
7
100
AcDbDictionary
281
     1
  3
Standard
350
23
  0
DICTIONARY
  5
21
102
{ACAD_REACTORS
330
7
102
}
330
7
100
AcDbDictionary
281
     1
  0
ACDBDICTIONARYWDFLT
  5
6
102
{ACAD_REACTORS
330
7
102
}
330
7
100
AcDbDictionary
281
     1
  3
Normal
350
5
100
AcDbDictionaryWithDefault
340
5
  0
DICTIONARY
  5
87
102
{ACAD_REACTORS
330
7
102
}
330
7
100
AcDbDictionary
281
     1
  3
COLORDICT
350
89
  3
MATERIALDICT
350
8B
  0
DICTIONARY
  5
56
102
{ACAD_REACTORS
330
7
102
}
330
7
100
AcDbDictionary
281
     1
  3
DIMASSOC
350
58
  3
HIDETEXT
350
57
  0
LAYOUT
  5
F
102
{ACAD_REACTORS
330
B
102
}
102
{ACAD_XDICTIONARY
360
8C
102
}
330
B
100
AcDbPlotSettings
  1

  2
X:\Program Files\AutoCAD2002\plotters\DWF ePlot (optimized for plotting).pc3
  4

  6

 40
0.0
 41
0.0
 42
0.0
 43
0.0
 44
0.0
 45
0.0
 46
0.0
 47
0.0
 48
0.0
 49
0.0
140
0.0
141
0.0
142
1.0
143
1.0
 70
   688
 72
     0
 73
     0
 74
     5
  7

 75
    16
147
1.0
148
0.0
149
0.0
100
AcDbLayout
  1
Layout1
 70
     0
 71
     1
 10
0.0
 20
0.0
 11
12.0
 21
9.0
 12
0.0
 22
0.0
 32
0.0
 14
1.000000000000000E+20
 24
1.000000000000000E+20
 34
1.000000000000000E+20
 15
-1.000000000000000E+20
 25
-1.000000000000000E+20
 35
-1.000000000000000E+20
146
0.0
 13
0.0
 23
0.0
 33
0.0
 16
1.0
 26
0.0
 36
0.0
 17
0.0
 27
1.0
 37
0.0
 76
     0
330
C
  0
LAYOUT
  5
A
102
{ACAD_REACTORS
330
B
102
}
102
{ACAD_XDICTIONARY
360
8E
102
}
330
B
100
AcDbPlotSettings
  1

  2
X:\Program Files\AutoCAD2002\plotters\DWF ePlot (optimized for plotting).pc3
  4

  6

 40
0.0
 41
0.0
 42
0.0
 43
0.0
 44
0.0
 45
0.0
 46
0.0
 47
0.0
 48
0.0
 49
0.0
140
0.0
141
0.0
142
1.0
143
1.0
 70
  1712
 72
     0
 73
     0
 74
     0
  7

 75
     0
147
1.0
148
0.0
149
0.0
100
AcDbLayout
  1
Model
 70
     1
 71
     0
 10
0.0
 20
0.0
 11
12.0
 21
9.0
 12
0.0
 22
0.0
 32
0.0
 14
0.0
 24
0.0
 34
0.0
 15
0.0
 25
0.0
 35
0.0
146
0.0
 13
0.0
 23
0.0
 33
0.0
 16
1.0
 26
0.0
 36
0.0
 17
0.0
 27
1.0
 37
0.0
 76
     0
330
2
  0
MLINESTYLE
  5
23
102
{ACAD_REACTORS
330
20
102
}
330
20
100
AcDbMlineStyle
  2
STANDARD
 70
     0
  3

 62
   256
 51
90.0
 52
90.0
 71
     2
 49
0.5
 62
   256
  6
BYLAYER
 49
-0.5
 62
   256
  6
BYLAYER
  0
ACDBPLACEHOLDER
  5
5
102
{ACAD_REACTORS
330
6
102
}
330
6
  0
XRECORD
  5
89
102
{ACAD_REACTORS
330
87
102
}
330
87
100
AcDbXrecord
340
88
  0
XRECORD
  5
8B
102
{ACAD_REACTORS
330
87
102
}
330
87
100
AcDbXrecord
340
8A
  0
DICTIONARYVAR
  5
58
102
{ACAD_REACTORS
330
56
102
}
330
56
100
DictionaryVariables
280
     0
  1
2
  0
DICTIONARYVAR
  5
57
102
{ACAD_REACTORS
330
56
102
}
330
56
100
DictionaryVariables
280
     0
  1
1
  0
DICTIONARY
  5
8C
330
F
100
AcDbDictionary
280
     1
281
     1
  3
ACAD_XREC_ROUNDTRIP
360
8D
  0
DICTIONARY
  5
8E
330
A
100
AcDbDictionary
280
     1
281
     1
  3
ACAD_XREC_ROUNDTRIP
360
8F
  0
XRECORD
  5
8D
102
{ACAD_REACTORS
330
8C
102
}
330
8C
100
AcDbXrecord
102
SHADEPLOT
 70
     0
102
SHADEPLOTRESLEVEL
 70
     2
102
SHADEPLOTCUSTOMDPI
 70
   300
  0
XRECORD
  5
8F
102
{ACAD_REACTORS
330
8E
102
}
330
8E
100
AcDbXrecord
102
SHADEPLOT
 70
     0
102
SHADEPLOTRESLEVEL
 70
     2
102
SHADEPLOTCUSTOMDPI
 70
   300
  0
ENDSEC
  0
EOF
