  0
SECTION
  2
HEADER
  9
$ACADVER
  1
AC1015
  9
$ACADMAINTVER
 70
     6
  9
$DWGCODEPAGE
  3
ANSI_1252
  9
$INSBASE
 10
0.0
 20
0.0
 30
0.0
  9
$EXTMIN
 10
-9.399528718899072
 20
-7.479325681344138
 30
0.0
  9
$EXTMAX
 10
19.2051200091112
 20
9.96350474737708
 30
0.0
  9
$LIMMIN
 10
0.0
 20
0.0
  9
$LIMMAX
 10
15.0003
 20
11.4288
  9
$ORTHOMODE
 70
     1
  9
$REGENMODE
 70
     1
  9
$FILLMODE
 70
     1
  9
$QTEXTMODE
 70
     0
  9
$MIRRTEXT
 70
     0
  9
$LTSCALE
 40
0.5
  9
$ATTMODE
 70
     1
  9
$TEXTSIZE
 40
0.128574
  9
$TRACEWID
 40
0.05
  9
$TEXTSTYLE
  7
STANDARD
  9
$CLAYER
  8
OBJECT
  9
$CELTYPE
  6
ByLayer
  9
$CECOLOR
 62
   256
  9
$CELTSCALE
 40
1.0
  9
$DISPSILH
 70
     0
  9
$DIMSCALE
 40
1.4286
  9
$DIMASZ
 40
0.125
  9
$DIMEXO
 40
0.062
  9
$DIMDLI
 40
0.375
  9
$DIMRND
 40
0.0
  9
$DIMDLE
 40
0.0
  9
$DIMEXE
 40
0.08
  9
$DIMTP
 40
0.0
  9
$DIMTM
 40
0.0
  9
$DIMTXT
 40
0.09
  9
$DIMCEN
 40
-0.06
  9
$DIMTSZ
 40
0.0
  9
$DIMTOL
 70
     0
  9
$DIMLIM
 70
     0
  9
$DIMTIH
 70
     1
  9
$DIMTOH
 70
     1
  9
$DIMSE1
 70
     0
  9
$DIMSE2
 70
     0
  9
$DIMTAD
 70
     0
  9
$DIMZIN
 70
     0
  9
$DIMBLK
  1

  9
$DIMASO
 70
     0
  9
$DIMSHO
 70
     0
  9
$DIMPOST
  1

  9
$DIMAPOST
  1

  9
$DIMALT
 70
     0
  9
$DIMALTD
 70
     2
  9
$DIMALTF
 40
25.4
  9
$DIMLFAC
 40
1.0
  9
$DIMTOFL
 70
     0
  9
$DIMTVP
 40
0.0
  9
$DIMTIX
 70
     0
  9
$DIMSOXD
 70
     0
  9
$DIMSAH
 70
     0
  9
$DIMBLK1
  1

  9
$DIMBLK2
  1

  9
$DIMSTYLE
  2
Standard
  9
$DIMCLRD
 70
     0
  9
$DIMCLRE
 70
     0
  9
$DIMCLRT
 70
     0
  9
$DIMTFAC
 40
1.0
  9
$DIMGAP
 40
0.09
  9
$DIMJUST
 70
     0
  9
$DIMSD1
 70
     0
  9
$DIMSD2
 70
     0
  9
$DIMTOLJ
 70
     1
  9
$DIMTZIN
 70
     0
  9
$DIMALTZ
 70
     0
  9
$DIMALTTZ
 70
     0
  9
$DIMUPT
 70
     0
  9
$DIMDEC
 70
     4
  9
$DIMTDEC
 70
     4
  9
$DIMALTU
 70
     2
  9
$DIMALTTD
 70
     2
  9
$DIMTXSTY
  7
STANDARD
  9
$DIMAUNIT
 70
     0
  9
$DIMADEC
 70
     0
  9
$DIMALTRND
 40
0.0
  9
$DIMAZIN
 70
     0
  9
$DIMDSEP
 70
    46
  9
$DIMATFIT
 70
     3
  9
$DIMFRAC
 70
     0
  9
$DIMLDRBLK
  1

  9
$DIMLUNIT
 70
     2
  9
$DIMLWD
 70
    -2
  9
$DIMLWE
 70
    -2
  9
$DIMTMOVE
 70
     2
  9
$LUNITS
 70
     2
  9
$LUPREC
 70
     4
  9
$SKETCHINC
 40
0.1
  9
$FILLETRAD
 40
0.0
  9
$AUNITS
 70
     0
  9
$AUPREC
 70
     0
  9
$MENU
  1
qa
  9
$ELEVATION
 40
0.0
  9
$PELEVATION
 40
0.0
  9
$THICKNESS
 40
0.0
  9
$LIMCHECK
 70
     0
  9
$CHAMFERA
 40
0.0
  9
$CHAMFERB
 40
0.0
  9
$CHAMFERC
 40
0.0
  9
$CHAMFERD
 40
0.0
  9
$SKPOLY
 70
     0
  9
$TDCREATE
 40
2449801.705557986
  9
$TDUCREATE
 40
2449802.03889132
  9
$TDUPDATE
 40
2454176.643868194
  9
$TDUUPDATE
 40
2454176.977201528
  9
$TDINDWG
 40
0.0837018403
  9
$TDUSRTIMER
 40
0.0837018403
  9
$USRTIMER
 70
     1
  9
$ANGBASE
 50
0.0
  9
$ANGDIR
 70
     0
  9
$PDMODE
 70
     0
  9
$PDSIZE
 40
0.0
  9
$PLINEWID
 40
0.0
  9
$SPLFRAME
 70
     0
  9
$SPLINETYPE
 70
     6
  9
$SPLINESEGS
 70
     8
  9
$HANDSEED
  5
E1
  9
$SURFTAB1
 70
     6
  9
$SURFTAB2
 70
     6
  9
$SURFTYPE
 70
     6
  9
$SURFU
 70
     6
  9
$SURFV
 70
     6
  9
$UCSBASE
  2

  9
$UCSNAME
  2

  9
$UCSORG
 10
0.0
 20
0.0
 30
0.0
  9
$UCSXDIR
 10
1.0
 20
0.0
 30
0.0
  9
$UCSYDIR
 10
0.0
 20
1.0
 30
0.0
  9
$UCSORTHOREF
  2

  9
$UCSORTHOVIEW
 70
     0
  9
$UCSORGTOP
 10
0.0
 20
0.0
 30
0.0
  9
$UCSORGBOTTOM
 10
0.0
 20
0.0
 30
0.0
  9
$UCSORGLEFT
 10
0.0
 20
0.0
 30
0.0
  9
$UCSORGRIGHT
 10
0.0
 20
0.0
 30
0.0
  9
$UCSORGFRONT
 10
0.0
 20
0.0
 30
0.0
  9
$UCSORGBACK
 10
0.0
 20
0.0
 30
0.0
  9
$PUCSBASE
  2

  9
$PUCSNAME
  2

  9
$PUCSORG
 10
0.0
 20
0.0
 30
0.0
  9
$PUCSXDIR
 10
1.0
 20
0.0
 30
0.0
  9
$PUCSYDIR
 10
0.0
 20
1.0
 30
0.0
  9
$PUCSORTHOREF
  2

  9
$PUCSORTHOVIEW
 70
     0
  9
$PUCSORGTOP
 10
0.0
 20
0.0
 30
0.0
  9
$PUCSORGBOTTOM
 10
0.0
 20
0.0
 30
0.0
  9
$PUCSORGLEFT
 10
0.0
 20
0.0
 30
0.0
  9
$PUCSORGRIGHT
 10
0.0
 20
0.0
 30
0.0
  9
$PUCSORGFRONT
 10
0.0
 20
0.0
 30
0.0
  9
$PUCSORGBACK
 10
0.0
 20
0.0
 30
0.0
  9
$USERI1
 70
     0
  9
$USERI2
 70
     0
  9
$USERI3
 70
     0
  9
$USERI4
 70
     0
  9
$USERI5
 70
     0
  9
$USERR1
 40
0.0
  9
$USERR2
 40
0.0
  9
$USERR3
 40
0.0
  9
$USERR4
 40
0.0
  9
$USERR5
 40
0.0
  9
$WORLDVIEW
 70
     1
  9
$SHADEDGE
 70
     3
  9
$SHADEDIF
 70
    70
  9
$TILEMODE
 70
     1
  9
$MAXACTVP
 70
    16
  9
$PINSBASE
 10
0.0
 20
0.0
 30
0.0
  9
$PLIMCHECK
 70
     0
  9
$PEXTMIN
 10
1.000000000000000E+20
 20
1.000000000000000E+20
 30
1.000000000000000E+20
  9
$PEXTMAX
 10
-1.000000000000000E+20
 20
-1.000000000000000E+20
 30
-1.000000000000000E+20
  9
$PLIMMIN
 10
0.0
 20
0.0
  9
$PLIMMAX
 10
12.0
 20
9.0
  9
$UNITMODE
 70
     0
  9
$VISRETAIN
 70
     0
  9
$PLINEGEN
 70
     0
  9
$PSLTSCALE
 70
     0
  9
$TREEDEPTH
 70
  3020
  9
$CMLSTYLE
  2
Standard
  9
$CMLJUST
 70
     0
  9
$CMLSCALE
 40
1.0
  9
$PROXYGRAPHICS
 70
     1
  9
$MEASUREMENT
 70
     0
  9
$CELWEIGHT
370
    -1
  9
$ENDCAPS
280
     0
  9
$JOINSTYLE
280
     0
  9
$LWDISPLAY
290
     0
  9
$INSUNITS
 70
     0
  9
$HYPERLINKBASE
  1

  9
$STYLESHEET
  1

  9
$XEDIT
290
     1
  9
$CEPSNTYPE
380
     0
  9
$PSTYLEMODE
290
     1
  9
$FINGERPRINTGUID
  2
{CE95F1AA-3558-4810-BA2E-FD3B68014A7B}
  9
$VERSIONGUID
  2
{546C27D9-88B4-4D5F-B325-EA5FE548AE0E}
  9
$EXTNAMES
290
     1
  9
$PSVPSCALE
 40
0.0
  9
$OLESTARTUP
290
     0
  0
ENDSEC
  0
SECTION
  2
CLASSES
  0
CLASS
  1
ACDBDICTIONARYWDFLT
  2
AcDbDictionaryWithDefault
  3
AutoCAD 2000
 90
        0
280
     0
281
     0
  0
CLASS
  1
ACDBPLACEHOLDER
  2
AcDbPlaceHolder
  3
ObjectDBX Classes
 90
        0
280
     0
281
     0
  0
CLASS
  1
LAYOUT
  2
AcDbLayout
  3
ObjectDBX Classes
 90
        0
280
     0
281
     0
  0
CLASS
  1
DICTIONARYVAR
  2
AcDbDictionaryVar
  3
AutoCAD 2000
 90
        0
280
     0
281
     0
  0
CLASS
  1
TABLESTYLE
  2
AcDbTableStyle
  3
ObjectDBX Classes
 90
     2047
280
     1
281
     0
  0
ENDSEC
  0
SECTION
  2
TABLES
  0
TABLE
  2
VPORT
  5
19
330
0
100
AcDbSymbolTable
 70
     2
  0
VPORT
  5
D2
330
19
100
AcDbSymbolTableRecord
100
AcDbViewportTableRecord
  2
*Active
 70
     0
 10
0.0
 20
0.0
 11
1.0
 21
1.0
 12
4.91197575120972
 22
4.57629777015233
 13
0.0
 23
0.0
 14
0.063
 24
0.063
 15
0.25
 25
0.25
 16
0.0
 26
0.0
 36
1.0
 17
0.0
 27
0.0
 37
0.0
 40
19.21369186611697
 41
1.814583333333333
 42
50.0
 43
0.0
 44
0.0
 50
0.0
 51
0.0
 71
     0
 72
   100
 73
     1
 74
     0
 75
     0
 76
     0
 77
     0
 78
     0
281
     0
 65
     1
110
0.0
120
0.0
130
0.0
111
1.0
121
0.0
131
0.0
112
0.0
122
1.0
132
0.0
 79
     0
146
0.0
  0
ENDTAB
  0
TABLE
  2
LTYPE
  5
14
330
0
100
AcDbSymbolTable
 70
     2
  0
LTYPE
  5
15
330
14
100
AcDbSymbolTableRecord
100
AcDbLinetypeTableRecord
  2
ByBlock
 70
     0
  3

 72
    65
 73
     0
 40
0.0
  0
LTYPE
  5
16
330
14
100
AcDbSymbolTableRecord
100
AcDbLinetypeTableRecord
  2
ByLayer
 70
     0
  3

 72
    65
 73
     0
 40
0.0
  0
LTYPE
  5
8
330
14
100
AcDbSymbolTableRecord
100
AcDbLinetypeTableRecord
  2
CONTINUOUS
 70
     0
  3
Solid line
 72
    65
 73
     0
 40
0.0
  0
LTYPE
  5
C6
330
14
100
AcDbSymbolTableRecord
100
AcDbLinetypeTableRecord
  2
HIDDEN
 70
     0
  3
Hidden __ __ __ __ __ __ __ __ __ __ __ __ __ _
 72
    65
 73
     2
 40
0.375
 49
0.25
 74
     0
 49
-0.125
 74
     0
  0
ENDTAB
  0
TABLE
  2
LAYER
  5
10
330
0
100
AcDbSymbolTable
 70
     2
  0
LAYER
  5
4
330
10
100
AcDbSymbolTableRecord
100
AcDbLayerTableRecord
  2
0
 70
     0
 62
    -1
  6
CONTINUOUS
370
    -3
390
5
  0
LAYER
  5
2C
330
10
100
AcDbSymbolTableRecord
100
AcDbLayerTableRecord
  2
OBJECT
 70
     0
 62
     7
  6
CONTINUOUS
370
    -3
390
5
  0
ENDTAB
  0
TABLE
  2
STYLE
  5
11
330
0
100
AcDbSymbolTable
 70
     2
  0
STYLE
  5
12
330
11
100
AcDbSymbolTableRecord
100
AcDbTextStyleTableRecord
  2
STANDARD
 70
     0
 40
0.0
 41
1.0
 50
0.0
 71
     0
 42
0.128574
  3
TXT
  4

  0
STYLE
  5
C5
330
11
100
AcDbSymbolTableRecord
100
AcDbTextStyleTableRecord
  2

 70
     1
 40
0.0
 41
1.0
 50
0.0
 71
     0
 42
0.128574
  3
ltypeshp.shx
  4

  0
ENDTAB
  0
TABLE
  2
VIEW
  5
17
330
0
100
AcDbSymbolTable
 70
     0
  0
ENDTAB
  0
TABLE
  2
UCS
  5
18
330
0
100
AcDbSymbolTable
 70
     0
  0
ENDTAB
  0
TABLE
  2
APPID
  5
1B
330
0
100
AcDbSymbolTable
 70
     1
  0
APPID
  5
1C
330
1B
100
AcDbSymbolTableRecord
100
AcDbRegAppTableRecord
  2
ACAD
 70
     0
  0
ENDTAB
  0
TABLE
  2
DIMSTYLE
  5
1D
330
0
100
AcDbSymbolTable
 70
     1
100
AcDbDimStyleTable
  0
DIMSTYLE
105
24
330
1D
100
AcDbSymbolTableRecord
100
AcDbDimStyleTableRecord
  2
Standard
 70
     0
  3

  4

340
12
  0
ENDTAB
  0
TABLE
  2
BLOCK_RECORD
  5
1
330
0
100
AcDbSymbolTable
 70
     0
  0
BLOCK_RECORD
  5
2
330
1
100
AcDbSymbolTableRecord
100
AcDbBlockTableRecord
  2
*Model_Space
340
A
  0
BLOCK_RECORD
  5
C
330
1
100
AcDbSymbolTableRecord
100
AcDbBlockTableRecord
  2
*Paper_Space
340
F
  0
ENDTAB
  0
ENDSEC
  0
SECTION
  2
BLOCKS
  0
BLOCK
  5
3
330
2
100
AcDbEntity
  8
0
100
AcDbBlockBegin
  2
*Model_Space
 70
     0
 10
0.0
 20
0.0
 30
0.0
  3
*Model_Space
  1

  4

  0
ENDBLK
  5
9
330
2
100
AcDbEntity
  8
0
100
AcDbBlockEnd
  0
BLOCK
  5
D
330
C
100
AcDbEntity
 67
     1
  8
0
100
AcDbBlockBegin
  2
*Paper_Space
 70
     0
 10
0.0
 20
0.0
 30
0.0
  3
*Paper_Space
  1

  4

  0
ENDBLK
  5
E
330
C
100
AcDbEntity
 67
     1
  8
0
100
AcDbBlockEnd
  0
ENDSEC
  0
SECTION
  2
ENTITIES
  0
LINE
  5
83
330
2
100
AcDbEntity
  8
OBJECT
100
AcDbLine
 10
0.8272499999999994
 20
4.440841056918549
 30
0.0
 11
0.8272499999999994
 21
9.440841056918551
 31
0.0
  0
LINE
  5
84
330
2
100
AcDbEntity
  8
OBJECT
100
AcDbLine
 10
-0.8272499999999994
 20
4.440841056918547
 30
0.0
 11
-0.8272500000000029
 21
9.440841056918547
 31
0.0
  0
LINE
  5
85
330
2
100
AcDbEntity
  8
OBJECT
  6
HIDDEN
100
AcDbLine
 10
-0.78125
 20
4.440841056918547
 30
0.0
 11
-0.7812500000000036
 21
9.440841056918544
 31
0.0
  0
LINE
  5
86
330
2
100
AcDbEntity
  8
OBJECT
  6
HIDDEN
100
AcDbLine
 10
0.78125
 20
4.440841056918551
 30
0.0
 11
0.78125
 21
9.440841056918547
 31
0.0
  0
LINE
  5
87
330
2
100
AcDbEntity
  8
OBJECT
100
AcDbLine
 10
0.8272499999999994
 20
9.440841056918551
 30
0.0
 11
-0.8272500000000029
 21
9.440841056918547
 31
0.0
  0
CIRCLE
  5
88
330
2
100
AcDbEntity
  8
OBJECT
100
AcDbCircle
 10
0.1250499999999981
 20
8.565841056918547
 30
0.0
 40
0.1095
  0
CIRCLE
  5
8A
330
2
100
AcDbEntity
  8
OBJECT
100
AcDbCircle
 10
0.1250499999999981
 20
5.315841056918546
 30
0.0
 40
0.1095
  0
CIRCLE
  5
8B
330
2
100
AcDbEntity
  8
OBJECT
100
AcDbCircle
 10
-0.1249500000000019
 20
6.940841056918546
 30
0.0
 40
0.1095
  0
LINE
  5
8C
330
2
100
AcDbEntity
  8
OBJECT
100
AcDbLine
 10
0.8272499999999994
 20
4.440841056918549
 30
0.0
 11
-0.8272499999999994
 21
4.440841056918547
 31
0.0
  0
LINE
  5
8D
330
2
100
AcDbEntity
  8
OBJECT
100
AcDbLine
 10
-4.399528718899072
 20
1.545950000000002
 30
0.0
 11
-9.399528718899072
 21
1.545949999999999
 31
0.0
  0
LINE
  5
8E
330
2
100
AcDbEntity
  8
OBJECT
100
AcDbLine
 10
-9.02452871889907
 20
-0.0000000000000009
 30
0.0
 11
-4.774528718899071
 21
-0.0000000000000009
 31
0.0
  0
LINE
  5
8F
330
2
100
AcDbEntity
  8
OBJECT
  6
HIDDEN
100
AcDbLine
 10
-4.399528718899075
 20
1.499950000000003
 30
0.0
 11
-9.39952871889907
 21
1.499949999999999
 31
0.0
  0
ARC
  5
90
330
2
100
AcDbEntity
  8
OBJECT
100
AcDbCircle
 10
-9.02452871889907
 20
0.3749999999999991
 30
0.0
 40
0.375
100
AcDbArc
 50
210.0
 51
270.0
  0
LINE
  5
91
330
2
100
AcDbEntity
  8
OBJECT
100
AcDbLine
 10
-9.399528718899072
 20
1.545949999999999
 30
0.0
 11
-9.39952871889907
 21
0.2745190528383281
 31
0.0
  0
LINE
  5
92
330
2
100
AcDbEntity
  8
OBJECT
100
AcDbLine
 10
-9.349288245318235
 20
0.1874999999999991
 30
0.0
 11
-9.39952871889907
 21
0.2745190528383281
 31
0.0
  0
ARC
  5
94
330
2
100
AcDbEntity
  8
OBJECT
100
AcDbCircle
 10
-4.774528718899068
 20
0.3749999999999991
 30
0.0
 40
0.375
100
AcDbArc
 50
270.0
 51
330.0000000000001
  0
CIRCLE
  5
96
330
2
100
AcDbEntity
  8
OBJECT
100
AcDbCircle
 10
-6.899528718899069
 20
0.3749000000000065
 30
0.0
 40
0.1095
  0
LINE
  5
99
330
2
100
AcDbEntity
  8
OBJECT
100
AcDbLine
 10
-4.399528718899072
 20
1.545950000000002
 30
0.0
 11
-4.399528718899071
 21
0.2745190528383175
 31
0.0
  0
LINE
  5
9A
330
2
100
AcDbEntity
  8
OBJECT
100
AcDbLine
 10
-4.449769192479903
 20
0.1874999999999991
 30
0.0
 11
-4.399528718899071
 21
0.2745190528383175
 31
0.0
  0
LINE
  5
9B
330
2
100
AcDbEntity
  8
OBJECT
100
AcDbLine
 10
-0.8272500000000029
 20
1.453950000000002
 30
0.0
 11
-0.8272500000000029
 21
-0.0000000000000009
 31
0.0
  0
LINE
  5
9C
330
2
100
AcDbEntity
  8
OBJECT
100
AcDbLine
 10
0.8272499999999994
 20
1.453950000000005
 30
0.0
 11
0.8272500000000029
 21
-0.0000000000000009
 31
0.0
  0
LINE
  5
9D
330
2
100
AcDbEntity
  8
OBJECT
100
AcDbLine
 10
-0.78125
 20
1.453950000000002
 30
0.0
 11
-0.78125
 21
-0.0000000000000009
 31
0.0
  0
LINE
  5
9E
330
2
100
AcDbEntity
  8
OBJECT
100
AcDbLine
 10
0.78125
 20
1.453950000000005
 30
0.0
 11
0.78125
 21
-0.0000000000000009
 31
0.0
  0
LINE
  5
9F
330
2
100
AcDbEntity
  8
OBJECT
100
AcDbLine
 10
-0.7352500000000006
 20
1.545950000000002
 30
0.0
 11
0.7352500000000006
 21
1.545950000000002
 31
0.0
  0
LINE
  5
A0
330
2
100
AcDbEntity
  8
OBJECT
100
AcDbLine
 10
-0.7352500000000006
 20
1.499950000000003
 30
0.0
 11
0.7352500000000006
 21
1.499950000000003
 31
0.0
  0
ARC
  5
A1
330
2
100
AcDbEntity
  8
OBJECT
100
AcDbCircle
 10
-0.7352500000000006
 20
1.453950000000002
 30
0.0
 40
0.092
100
AcDbArc
 50
90.00000000000006
 51
180.0000000000001
  0
ARC
  5
A2
330
2
100
AcDbEntity
  8
OBJECT
100
AcDbCircle
 10
-0.7352500000000006
 20
1.453950000000002
 30
0.0
 40
0.046
100
AcDbArc
 50
90.00000000000006
 51
180.0000000000001
  0
LINE
  5
A3
330
2
100
AcDbEntity
  8
OBJECT
100
AcDbLine
 10
-0.8272499999999994
 20
0.2745190528383175
 30
0.0
 11
-0.78125
 21
0.274519052838321
 31
0.0
  0
ARC
  5
A4
330
2
100
AcDbEntity
  8
OBJECT
100
AcDbCircle
 10
0.7352500000000006
 20
1.453950000000005
 30
0.0
 40
0.092
100
AcDbArc
 50
0.0
 51
90.00000000000003
  0
ARC
  5
A5
330
2
100
AcDbEntity
  8
OBJECT
100
AcDbCircle
 10
0.7352500000000006
 20
1.453950000000005
 30
0.0
 40
0.046
100
AcDbArc
 50
0.0
 51
90.00000000000003
  0
LINE
  5
A6
330
2
100
AcDbEntity
  8
OBJECT
100
AcDbLine
 10
0.78125
 20
0.274519052838321
 30
0.0
 11
0.8272500000000029
 21
0.274519052838321
 31
0.0
  0
LINE
  5
A7
330
2
100
AcDbEntity
  8
OBJECT
100
AcDbLine
 10
-0.8272499999999994
 20
-0.0000000000000009
 30
0.0
 11
-0.78125
 21
-0.0000000000000009
 31
0.0
  0
LINE
  5
A8
330
2
100
AcDbEntity
  8
OBJECT
100
AcDbLine
 10
0.78125
 20
-0.0000000000000009
 30
0.0
 11
0.8272500000000029
 21
-0.0000000000000009
 31
0.0
  0
LINE
  5
B6
330
2
100
AcDbEntity
  8
OBJECT
  6
HIDDEN
100
AcDbLine
 10
4.399528718899075
 20
1.499950000000003
 30
0.0
 11
9.39952871889907
 21
1.499949999999999
 31
0.0
  0
LINE
  5
B7
330
2
100
AcDbEntity
  8
OBJECT
100
AcDbLine
 10
4.399528718899072
 20
1.545950000000002
 30
0.0
 11
9.399528718899072
 21
1.545949999999999
 31
0.0
  0
LINE
  5
B8
330
2
100
AcDbEntity
  8
OBJECT
100
AcDbLine
 10
9.02452871889907
 20
-0.0000000000000009
 30
0.0
 11
4.774528718899071
 21
-0.0000000000000009
 31
0.0
  0
LINE
  5
B9
330
2
100
AcDbEntity
  8
OBJECT
100
AcDbLine
 10
9.399528718899072
 20
1.545949999999999
 30
0.0
 11
9.39952871889907
 21
0.2745190528383281
 31
0.0
  0
ARC
  5
BA
330
2
100
AcDbEntity
  8
OBJECT
100
AcDbCircle
 10
9.02452871889907
 20
0.3749999999999991
 30
0.0
 40
0.375
100
AcDbArc
 50
270.0
 51
330.0000000000001
  0
LINE
  5
BB
330
2
100
AcDbEntity
  8
OBJECT
100
AcDbLine
 10
9.349288245318235
 20
0.1874999999999991
 30
0.0
 11
9.39952871889907
 21
0.2745190528383281
 31
0.0
  0
CIRCLE
  5
BC
330
2
100
AcDbEntity
  8
OBJECT
100
AcDbCircle
 10
8.52452871889907
 20
0.3749999999999991
 30
0.0
 40
0.1095
  0
LINE
  5
C0
330
2
100
AcDbEntity
  8
OBJECT
100
AcDbLine
 10
4.399528718899072
 20
1.545950000000002
 30
0.0
 11
4.399528718899071
 21
0.2745190528383175
 31
0.0
  0
CIRCLE
  5
C1
330
2
100
AcDbEntity
  8
OBJECT
100
AcDbCircle
 10
5.274528718899071
 20
0.3749999999999991
 30
0.0
 40
0.1095
  0
ARC
  5
C2
330
2
100
AcDbEntity
  8
OBJECT
100
AcDbCircle
 10
4.774528718899068
 20
0.3749999999999991
 30
0.0
 40
0.375
100
AcDbArc
 50
210.0
 51
270.0
  0
LINE
  5
C3
330
2
100
AcDbEntity
  8
OBJECT
100
AcDbLine
 10
4.449769192479903
 20
0.1874999999999991
 30
0.0
 11
4.399528718899071
 21
0.2745190528383175
 31
0.0
  0
ENDSEC
  0
SECTION
  2
OBJECTS
  0
DICTIONARY
  5
7
330
0
100
AcDbDictionary
281
     1
  3
ACAD_COLOR
350
CB
  3
ACAD_GROUP
350
1F
  3
ACAD_LAYOUT
350
B
  3
ACAD_MATERIAL
350
CA
  3
ACAD_MLINESTYLE
350
20
  3
ACAD_PLOTSETTINGS
350
21
  3
ACAD_PLOTSTYLENAME
350
6
  3
ACAD_TABLESTYLE
350
CC
  3
ACDBHEADERROUNDTRIPXREC
350
DA
  3
AcDbVariableDictionary
350
77
  0
DICTIONARY
  5
CB
102
{ACAD_REACTORS
330
7
102
}
330
7
100
AcDbDictionary
281
     1
  0
DICTIONARY
  5
1F
102
{ACAD_REACTORS
330
7
102
}
330
7
100
AcDbDictionary
281
     1
  0
DICTIONARY
  5
B
102
{ACAD_REACTORS
330
7
102
}
330
7
100
AcDbDictionary
281
     1
  3
Layout1
350
F
  3
Model
350
A
  0
DICTIONARY
  5
CA
102
{ACAD_REACTORS
330
7
102
}
330
7
100
AcDbDictionary
281
     1
  0
DICTIONARY
  5
20
102
{ACAD_REACTORS
330
7
102
}
330
7
100
AcDbDictionary
281
     1
  3
Standard
350
23
  0
DICTIONARY
  5
21
102
{ACAD_REACTORS
330
7
102
}
330
7
100
AcDbDictionary
281
     1
  0
ACDBDICTIONARYWDFLT
  5
6
102
{ACAD_REACTORS
330
7
102
}
330
7
100
AcDbDictionary
281
     1
  3
Normal
350
5
100
AcDbDictionaryWithDefault
340
5
  0
DICTIONARY
  5
CC
102
{ACAD_REACTORS
330
7
102
}
330
7
100
AcDbDictionary
281
     1
  3
Standard
350
CD
  0
DICTIONARY
  5
DA
102
{ACAD_REACTORS
330
7
102
}
330
7
100
AcDbDictionary
281
     1
  3
COLORDICT
350
DB
  3
MATERIALDICT
350
DC
  0
DICTIONARY
  5
77
102
{ACAD_REACTORS
330
7
102
}
330
7
100
AcDbDictionary
281
     1
  3
CTABLESTYLE
350
D8
  3
DIMASSOC
350
79
  3
HIDETEXT
350
78
  0
LAYOUT
  5
F
102
{ACAD_REACTORS
330
B
102
}
102
{ACAD_XDICTIONARY
360
DD
102
}
330
B
100
AcDbPlotSettings
  1

  2
X:\Program Files\AutoCAD2002\plotters\DWF ePlot (optimized for plotting).pc3
  4

  6

 40
0.0
 41
0.0
 42
0.0
 43
0.0
 44
0.0
 45
0.0
 46
0.0
 47
0.0
 48
0.0
 49
0.0
140
0.0
141
0.0
142
1.0
143
1.0
 70
   688
 72
     0
 73
     0
 74
     5
  7

 75
    16
147
1.0
148
0.0
149
0.0
100
AcDbLayout
  1
Layout1
 70
     0
 71
     1
 10
0.0
 20
0.0
 11
12.0
 21
9.0
 12
0.0
 22
0.0
 32
0.0
 14
1.000000000000000E+20
 24
1.000000000000000E+20
 34
1.000000000000000E+20
 15
-1.000000000000000E+20
 25
-1.000000000000000E+20
 35
-1.000000000000000E+20
146
0.0
 13
0.0
 23
0.0
 33
0.0
 16
1.0
 26
0.0
 36
0.0
 17
0.0
 27
1.0
 37
0.0
 76
     0
330
C
  0
LAYOUT
  5
A
102
{ACAD_REACTORS
330
B
102
}
102
{ACAD_XDICTIONARY
360
DF
102
}
330
B
100
AcDbPlotSettings
  1

  2
X:\Program Files\AutoCAD2002\plotters\DWF ePlot (optimized for plotting).pc3
  4

  6

 40
0.0
 41
0.0
 42
0.0
 43
0.0
 44
0.0
 45
0.0
 46
0.0
 47
0.0
 48
0.0
 49
0.0
140
0.0
141
0.0
142
1.0
143
1.0
 70
  1712
 72
     0
 73
     0
 74
     0
  7

 75
     0
147
1.0
148
0.0
149
0.0
100
AcDbLayout
  1
Model
 70
     1
 71
     0
 10
0.0
 20
0.0
 11
12.0
 21
9.0
 12
0.0
 22
0.0
 32
0.0
 14
0.0
 24
0.0
 34
0.0
 15
0.0
 25
0.0
 35
0.0
146
0.0
 13
0.0
 23
0.0
 33
0.0
 16
1.0
 26
0.0
 36
0.0
 17
0.0
 27
1.0
 37
0.0
 76
     0
330
2
  0
MLINESTYLE
  5
23
102
{ACAD_REACTORS
330
20
102
}
330
20
100
AcDbMlineStyle
  2
STANDARD
 70
     0
  3

 62
   256
 51
90.0
 52
90.0
 71
     2
 49
0.5
 62
   256
  6
BYLAYER
 49
-0.5
 62
   256
  6
BYLAYER
  0
ACDBPLACEHOLDER
  5
5
102
{ACAD_REACTORS
330
6
102
}
330
6
  0
ACAD_PROXY_OBJECT
  5
CD
102
{ACAD_REACTORS
330
CC
102
}
330
CC
100
AcDbProxyObject
 90
      499
 91
      504
 95
   983063
 70
     0
 93
     1841
310
4214DD185B99185C9928B81E85EB51B8AE3F2E07A17AD46E2B8FC02B5E8DC0F42B1CFD028000000C1008070000C3001FDFF8000000C1003FBFF000000182007F7FE00000030400FEFFC00000060801FDFF8000000C1003FBFF00000018200000000000000681FA0B0000001820100E000186003FBFF000000182007F7FE000
310
00030400FEFFC00000060801FDFF8000000C1003FBFF000000182007F7FE000000304000AD7A3703D0AC73F4160000003040201C00030C007F7FE00000030400FEFFC00000060801FDFF8000000C1003FBFF000000182007F7FE00000030400FEFFC000000608000
340
12
340
12
340
12
 94
        0
  0
XRECORD
  5
DB
102
{ACAD_REACTORS
330
DA
102
}
330
DA
100
AcDbXrecord
340
CB
  0
XRECORD
  5
DC
102
{ACAD_REACTORS
330
DA
102
}
330
DA
100
AcDbXrecord
340
CA
  0
DICTIONARYVAR
  5
D8
102
{ACAD_REACTORS
330
77
102
}
330
77
100
DictionaryVariables
280
     0
  1
STANDARD
  0
DICTIONARYVAR
  5
79
102
{ACAD_REACTORS
330
77
102
}
330
77
100
DictionaryVariables
280
     0
  1
2
  0
DICTIONARYVAR
  5
78
102
{ACAD_REACTORS
330
77
102
}
330
77
100
DictionaryVariables
280
     0
  1
1
  0
DICTIONARY
  5
DD
330
F
100
AcDbDictionary
280
     1
281
     1
  3
ACAD_XREC_ROUNDTRIP
360
DE
  0
DICTIONARY
  5
DF
330
A
100
AcDbDictionary
280
     1
281
     1
  3
ACAD_XREC_ROUNDTRIP
360
E0
  0
XRECORD
  5
DE
102
{ACAD_REACTORS
330
DD
102
}
330
DD
100
AcDbXrecord
102
SHADEPLOT
 70
     0
102
SHADEPLOTRESLEVEL
 70
     2
102
SHADEPLOTCUSTOMDPI
 70
   300
  0
XRECORD
  5
E0
102
{ACAD_REACTORS
330
DF
102
}
330
DF
100
AcDbXrecord
102
SHADEPLOT
 70
     0
102
SHADEPLOTRESLEVEL
 70
     2
102
SHADEPLOTCUSTOMDPI
 70
   300
  0
ENDSEC
  0
EOF
