  0
SECTION
  2
HEADER
  9
$ACADVER
  1
AC1015
  9
$ACADMAINTVER
 70
     6
  9
$DWGCODEPAGE
  3
ANSI_1252
  9
$INSBASE
 10
0.0
 20
0.0
 30
0.0
  9
$EXTMIN
 10
-4.491215257003404
 20
-0.0134828148005255
 30
0.0
  9
$EXTMAX
 10
21.57754874558052
 20
28.80733239968943
 30
0.0
  9
$LIMMIN
 10
0.0
 20
0.0
  9
$LIMMAX
 10
40.00000000000039
 20
52.50000000000051
  9
$ORTHOMODE
 70
     1
  9
$REGENMODE
 70
     1
  9
$FILLMODE
 70
     1
  9
$QTEXTMODE
 70
     0
  9
$MIRRTEXT
 70
     1
  9
$LTSCALE
 40
1.0
  9
$ATTMODE
 70
     1
  9
$TEXTSIZE
 40
0.5
  9
$TRACEWID
 40
0.05
  9
$TEXTSTYLE
  7
STANDARD
  9
$CLAYER
  8
0
  9
$CELTYPE
  6
BYLAYER
  9
$CECOLOR
 62
   256
  9
$CELTSCALE
 40
1.0
  9
$DISPSILH
 70
     0
  9
$DIMSCALE
 40
1.0
  9
$DIMASZ
 40
0.625000000000004
  9
$DIMEXO
 40
0.0625
  9
$DIMDLI
 40
0.375
  9
$DIMRND
 40
0.0
  9
$DIMDLE
 40
0.0
  9
$DIMEXE
 40
0.400000000000004
  9
$DIMTP
 40
0.0
  9
$DIMTM
 40
0.0
  9
$DIMTXT
 40
0.450000000000004
  9
$DIMCEN
 40
-0.03125
  9
$DIMTSZ
 40
0.0
  9
$DIMTOL
 70
     0
  9
$DIMLIM
 70
     0
  9
$DIMTIH
 70
     1
  9
$DIMTOH
 70
     1
  9
$DIMSE1
 70
     0
  9
$DIMSE2
 70
     0
  9
$DIMTAD
 70
     0
  9
$DIMZIN
 70
     0
  9
$DIMBLK
  1

  9
$DIMASO
 70
     0
  9
$DIMSHO
 70
     0
  9
$DIMPOST
  1

  9
$DIMAPOST
  1

  9
$DIMALT
 70
     0
  9
$DIMALTD
 70
     2
  9
$DIMALTF
 40
25.4
  9
$DIMLFAC
 40
1.0
  9
$DIMTOFL
 70
     0
  9
$DIMTVP
 40
0.0
  9
$DIMTIX
 70
     0
  9
$DIMSOXD
 70
     0
  9
$DIMSAH
 70
     0
  9
$DIMBLK1
  1

  9
$DIMBLK2
  1

  9
$DIMSTYLE
  2
STANDARD
  9
$DIMCLRD
 70
     0
  9
$DIMCLRE
 70
     0
  9
$DIMCLRT
 70
     0
  9
$DIMTFAC
 40
1.0
  9
$DIMGAP
 40
0.09
  9
$DIMJUST
 70
     0
  9
$DIMSD1
 70
     0
  9
$DIMSD2
 70
     0
  9
$DIMTOLJ
 70
     1
  9
$DIMTZIN
 70
     0
  9
$DIMALTZ
 70
     0
  9
$DIMALTTZ
 70
     0
  9
$DIMUPT
 70
     0
  9
$DIMDEC
 70
     5
  9
$DIMTDEC
 70
     5
  9
$DIMALTU
 70
     2
  9
$DIMALTTD
 70
     2
  9
$DIMTXSTY
  7
STANDARD
  9
$DIMAUNIT
 70
     0
  9
$DIMADEC
 70
     0
  9
$DIMALTRND
 40
0.0
  9
$DIMAZIN
 70
     0
  9
$DIMDSEP
 70
    46
  9
$DIMATFIT
 70
     3
  9
$DIMFRAC
 70
     2
  9
$DIMLDRBLK
  1

  9
$DIMLUNIT
 70
     5
  9
$DIMLWD
 70
    -2
  9
$DIMLWE
 70
    -2
  9
$DIMTMOVE
 70
     2
  9
$LUNITS
 70
     2
  9
$LUPREC
 70
     3
  9
$SKETCHINC
 40
0.1
  9
$FILLETRAD
 40
0.0
  9
$AUNITS
 70
     0
  9
$AUPREC
 70
     0
  9
$MENU
  1
ACAD
  9
$ELEVATION
 40
0.0
  9
$PELEVATION
 40
0.0
  9
$THICKNESS
 40
0.0
  9
$LIMCHECK
 70
     0
  9
$CHAMFERA
 40
0.0
  9
$CHAMFERB
 40
0.0
  9
$CHAMFERC
 40
0.0
  9
$CHAMFERD
 40
0.0
  9
$SKPOLY
 70
     0
  9
$TDCREATE
 40
2449470.851807523
  9
$TDUCREATE
 40
2449471.185140857
  9
$TDUPDATE
 40
2454175.914058854
  9
$TDUUPDATE
 40
2454176.247392187
  9
$TDINDWG
 40
0.1865965741
  9
$TDUSRTIMER
 40
0.1865965741
  9
$USRTIMER
 70
     1
  9
$ANGBASE
 50
0.0
  9
$ANGDIR
 70
     0
  9
$PDMODE
 70
     0
  9
$PDSIZE
 40
0.0
  9
$PLINEWID
 40
0.0
  9
$SPLFRAME
 70
     0
  9
$SPLINETYPE
 70
     6
  9
$SPLINESEGS
 70
     8
  9
$HANDSEED
  5
12A
  9
$SURFTAB1
 70
     6
  9
$SURFTAB2
 70
     6
  9
$SURFTYPE
 70
     6
  9
$SURFU
 70
     6
  9
$SURFV
 70
     6
  9
$UCSBASE
  2

  9
$UCSNAME
  2

  9
$UCSORG
 10
0.0
 20
0.0
 30
0.0
  9
$UCSXDIR
 10
1.0
 20
0.0
 30
0.0
  9
$UCSYDIR
 10
0.0
 20
1.0
 30
0.0
  9
$UCSORTHOREF
  2

  9
$UCSORTHOVIEW
 70
     0
  9
$UCSORGTOP
 10
0.0
 20
0.0
 30
0.0
  9
$UCSORGBOTTOM
 10
0.0
 20
0.0
 30
0.0
  9
$UCSORGLEFT
 10
0.0
 20
0.0
 30
0.0
  9
$UCSORGRIGHT
 10
0.0
 20
0.0
 30
0.0
  9
$UCSORGFRONT
 10
0.0
 20
0.0
 30
0.0
  9
$UCSORGBACK
 10
0.0
 20
0.0
 30
0.0
  9
$PUCSBASE
  2

  9
$PUCSNAME
  2

  9
$PUCSORG
 10
0.0
 20
0.0
 30
0.0
  9
$PUCSXDIR
 10
1.0
 20
0.0
 30
0.0
  9
$PUCSYDIR
 10
0.0
 20
1.0
 30
0.0
  9
$PUCSORTHOREF
  2

  9
$PUCSORTHOVIEW
 70
     0
  9
$PUCSORGTOP
 10
0.0
 20
0.0
 30
0.0
  9
$PUCSORGBOTTOM
 10
0.0
 20
0.0
 30
0.0
  9
$PUCSORGLEFT
 10
0.0
 20
0.0
 30
0.0
  9
$PUCSORGRIGHT
 10
0.0
 20
0.0
 30
0.0
  9
$PUCSORGFRONT
 10
0.0
 20
0.0
 30
0.0
  9
$PUCSORGBACK
 10
0.0
 20
0.0
 30
0.0
  9
$USERI1
 70
     0
  9
$USERI2
 70
     0
  9
$USERI3
 70
     0
  9
$USERI4
 70
     0
  9
$USERI5
 70
     0
  9
$USERR1
 40
0.0
  9
$USERR2
 40
0.0
  9
$USERR3
 40
0.0
  9
$USERR4
 40
0.0
  9
$USERR5
 40
0.0
  9
$WORLDVIEW
 70
     1
  9
$SHADEDGE
 70
     3
  9
$SHADEDIF
 70
    70
  9
$TILEMODE
 70
     1
  9
$MAXACTVP
 70
    16
  9
$PINSBASE
 10
0.0
 20
0.0
 30
0.0
  9
$PLIMCHECK
 70
     0
  9
$PEXTMIN
 10
1.000000000000000E+20
 20
1.000000000000000E+20
 30
1.000000000000000E+20
  9
$PEXTMAX
 10
-1.000000000000000E+20
 20
-1.000000000000000E+20
 30
-1.000000000000000E+20
  9
$PLIMMIN
 10
0.0
 20
0.0
  9
$PLIMMAX
 10
12.0
 20
9.0
  9
$UNITMODE
 70
     0
  9
$VISRETAIN
 70
     0
  9
$PLINEGEN
 70
     1
  9
$PSLTSCALE
 70
     0
  9
$TREEDEPTH
 70
  3020
  9
$CMLSTYLE
  2
STANDARD
  9
$CMLJUST
 70
     0
  9
$CMLSCALE
 40
1.0
  9
$PROXYGRAPHICS
 70
     1
  9
$MEASUREMENT
 70
     0
  9
$CELWEIGHT
370
    -1
  9
$ENDCAPS
280
     0
  9
$JOINSTYLE
280
     0
  9
$LWDISPLAY
290
     0
  9
$INSUNITS
 70
     0
  9
$HYPERLINKBASE
  1

  9
$STYLESHEET
  1

  9
$XEDIT
290
     1
  9
$CEPSNTYPE
380
     0
  9
$PSTYLEMODE
290
     1
  9
$FINGERPRINTGUID
  2
{FF15D867-C4A4-11D5-BE3F-00508B5FCD51}
  9
$VERSIONGUID
  2
{473CB4ED-649F-467E-BDD5-8A97A8337771}
  9
$EXTNAMES
290
     1
  9
$PSVPSCALE
 40
0.0
  9
$OLESTARTUP
290
     0
  0
ENDSEC
  0
SECTION
  2
CLASSES
  0
CLASS
  1
DICTIONARYVAR
  2
AcDbDictionaryVar
  3
AutoCAD 2000
 90
        0
280
     0
281
     0
  0
CLASS
  1
LWPOLYLINE
  2
AcDbPolyline
  3
AutoCAD 2000
 90
        0
280
     0
281
     1
  0
CLASS
  1
ACDBDICTIONARYWDFLT
  2
AcDbDictionaryWithDefault
  3
AutoCAD 2000
 90
        0
280
     0
281
     0
  0
CLASS
  1
ACDBPLACEHOLDER
  2
AcDbPlaceHolder
  3
ObjectDBX Classes
 90
        0
280
     0
281
     0
  0
CLASS
  1
LAYOUT
  2
AcDbLayout
  3
ObjectDBX Classes
 90
        0
280
     0
281
     0
  0
CLASS
  1
LONG_TRANSACTION
  2
AcDbLongTransaction
  3
ObjectDBX Classes
 90
   -65536
280
     1
281
     0
  0
CLASS
  1
LWPOLYLINE
  2
AcDbPolyline
  3
AutoCAD 2000
 90
        0
280
     0
281
     1
  0
CLASS
  1
HATCH
  2
AcDbHatch
  3
AutoCAD 2000
 90
        0
280
     0
281
     1
  0
CLASS
  1
XRECORD
  2
AcDbXrecord
  3
AutoCAD 2000
 90
        0
280
     0
281
     0
  0
CLASS
  1
LONG_TRANSACTION
  2
AcDbLongTransaction
  3
ObjectDBX Classes
 90
   -65536
280
     1
281
     0
  0
CLASS
  1
LWPOLYLINE
  2
AcDbPolyline
  3
AutoCAD 2000
 90
        0
280
     0
281
     1
  0
CLASS
  1
HATCH
  2
AcDbHatch
  3
AutoCAD 2000
 90
        0
280
     0
281
     1
  0
CLASS
  1
XRECORD
  2
AcDbXrecord
  3
AutoCAD 2000
 90
        0
280
     0
281
     0
  0
CLASS
  1
LONG_TRANSACTION
  2
AcDbLongTransaction
  3
ObjectDBX Classes
 90
   -65536
280
     1
281
     0
  0
CLASS
  1
LWPOLYLINE
  2
AcDbPolyline
  3
AutoCAD 2000
 90
        0
280
     0
281
     1
  0
CLASS
  1
HATCH
  2
AcDbHatch
  3
AutoCAD 2000
 90
        0
280
     0
281
     1
  0
CLASS
  1
XRECORD
  2
AcDbXrecord
  3
AutoCAD 2000
 90
        0
280
     0
281
     0
  0
CLASS
  1
LONG_TRANSACTION
  2
AcDbLongTransaction
  3
ObjectDBX Classes
 90
   -65536
280
     1
281
     0
  0
CLASS
  1
LWPOLYLINE
  2
AcDbPolyline
  3
AutoCAD 2000
 90
        0
280
     0
281
     1
  0
CLASS
  1
HATCH
  2
AcDbHatch
  3
AutoCAD 2000
 90
        0
280
     0
281
     1
  0
CLASS
  1
XRECORD
  2
AcDbXrecord
  3
AutoCAD 2000
 90
        0
280
     0
281
     0
  0
CLASS
  1
LONG_TRANSACTION
  2
AcDbLongTransaction
  3
ObjectDBX Classes
 90
   -65536
280
     1
281
     0
  0
CLASS
  1
LWPOLYLINE
  2
AcDbPolyline
  3
AutoCAD 2000
 90
        0
280
     0
281
     1
  0
CLASS
  1
HATCH
  2
AcDbHatch
  3
AutoCAD 2000
 90
        0
280
     0
281
     1
  0
CLASS
  1
XRECORD
  2
AcDbXrecord
  3
AutoCAD 2000
 90
        0
280
     0
281
     0
  0
CLASS
  1
LONG_TRANSACTION
  2
AcDbLongTransaction
  3
ObjectDBX Classes
 90
   -65536
280
     1
281
     0
  0
CLASS
  1
LWPOLYLINE
  2
AcDbPolyline
  3
AutoCAD 2000
 90
        0
280
     0
281
     1
  0
CLASS
  1
HATCH
  2
AcDbHatch
  3
AutoCAD 2000
 90
        0
280
     0
281
     1
  0
CLASS
  1
XRECORD
  2
AcDbXrecord
  3
AutoCAD 2000
 90
        0
280
     0
281
     0
  0
CLASS
  1
LONG_TRANSACTION
  2
AcDbLongTransaction
  3
ObjectDBX Classes
 90
   -65536
280
     1
281
     0
  0
CLASS
  1
LWPOLYLINE
  2
AcDbPolyline
  3
AutoCAD 2000
 90
        0
280
     0
281
     1
  0
CLASS
  1
HATCH
  2
AcDbHatch
  3
AutoCAD 2000
 90
        0
280
     0
281
     1
  0
CLASS
  1
XRECORD
  2
AcDbXrecord
  3
AutoCAD 2000
 90
        0
280
     0
281
     0
  0
CLASS
  1
TABLESTYLE
  2
AcDbTableStyle
  3
ObjectDBX Classes
 90
     2047
280
     1
281
     0
  0
ENDSEC
  0
SECTION
  2
TABLES
  0
TABLE
  2
VPORT
  5
1D
330
0
100
AcDbSymbolTable
 70
     2
  0
VPORT
  5
11A
330
1D
100
AcDbSymbolTableRecord
100
AcDbViewportTableRecord
  2
*Active
 70
     0
 10
0.0
 20
0.0
 11
1.0
 21
1.0
 12
24.63262686422163
 22
15.96097254477342
 13
0.0
 23
0.0
 14
0.0625
 24
0.0625
 15
0.25
 25
0.25
 16
0.0
 26
0.0
 36
1.0
 17
0.0
 27
0.0
 37
0.0
 40
45.93044311000826
 41
1.814583333333333
 42
50.0
 43
0.0
 44
0.0
 50
0.0
 51
0.0
 71
     0
 72
   100
 73
     1
 74
     0
 75
     0
 76
     0
 77
     0
 78
     2
281
     0
 65
     1
110
0.0
120
0.0
130
0.0
111
1.0
121
0.0
131
0.0
112
0.0
122
1.0
132
0.0
 79
     0
146
0.0
  0
ENDTAB
  0
TABLE
  2
LTYPE
  5
18
330
0
100
AcDbSymbolTable
 70
     1
  0
LTYPE
  5
19
330
18
100
AcDbSymbolTableRecord
100
AcDbLinetypeTableRecord
  2
BYBLOCK
 70
     0
  3

 72
    65
 73
     0
 40
0.0
  0
LTYPE
  5
1A
330
18
100
AcDbSymbolTableRecord
100
AcDbLinetypeTableRecord
  2
BYLAYER
 70
     0
  3

 72
    65
 73
     0
 40
0.0
  0
LTYPE
  5
A
330
18
100
AcDbSymbolTableRecord
100
AcDbLinetypeTableRecord
  2
CONTINUOUS
 70
     0
  3
Solid line
 72
    65
 73
     0
 40
0.0
  0
ENDTAB
  0
TABLE
  2
LAYER
  5
14
330
0
100
AcDbSymbolTable
 70
     2
  0
LAYER
  5
6
330
14
100
AcDbSymbolTableRecord
100
AcDbLayerTableRecord
  2
0
 70
     0
 62
     7
  6
CONTINUOUS
370
    -3
390
7
  0
ENDTAB
  0
TABLE
  2
STYLE
  5
15
330
0
100
AcDbSymbolTable
 70
     1
  0
STYLE
  5
16
330
15
100
AcDbSymbolTableRecord
100
AcDbTextStyleTableRecord
  2
STANDARD
 70
     0
 40
0.0
 41
1.0
 50
0.0
 71
     0
 42
0.5
  3
TXT
  4

  0
ENDTAB
  0
TABLE
  2
VIEW
  5
1B
330
0
100
AcDbSymbolTable
 70
     0
  0
ENDTAB
  0
TABLE
  2
UCS
  5
1C
330
0
100
AcDbSymbolTable
 70
     0
  0
ENDTAB
  0
TABLE
  2
APPID
  5
1F
330
0
100
AcDbSymbolTable
 70
     1
  0
APPID
  5
20
330
1F
100
AcDbSymbolTableRecord
100
AcDbRegAppTableRecord
  2
ACAD
 70
     0
  0
ENDTAB
  0
TABLE
  2
DIMSTYLE
  5
21
330
0
100
AcDbSymbolTable
 70
     1
100
AcDbDimStyleTable
  0
DIMSTYLE
105
22
330
21
100
AcDbSymbolTableRecord
100
AcDbDimStyleTableRecord
  2
STANDARD
 70
     0
  3

  4

340
16
  0
ENDTAB
  0
TABLE
  2
BLOCK_RECORD
  5
1
330
0
100
AcDbSymbolTable
 70
     0
  0
BLOCK_RECORD
  5
2
330
1
100
AcDbSymbolTableRecord
100
AcDbBlockTableRecord
  2
*MODEL_SPACE
340
C
  0
BLOCK_RECORD
  5
E
330
1
100
AcDbSymbolTableRecord
100
AcDbBlockTableRecord
  2
*PAPER_SPACE
340
13
  0
ENDTAB
  0
ENDSEC
  0
SECTION
  2
BLOCKS
  0
BLOCK
  5
5
330
2
100
AcDbEntity
  8
0
100
AcDbBlockBegin
  2
*MODEL_SPACE
 70
     0
 10
0.0
 20
0.0
 30
0.0
  3
*MODEL_SPACE
  1

  4

  0
ENDBLK
  5
B
330
2
100
AcDbEntity
  8
0
100
AcDbBlockEnd
  0
BLOCK
  5
11
330
E
100
AcDbEntity
 67
     1
  8
0
100
AcDbBlockBegin
  2
*PAPER_SPACE
 70
     0
 10
0.0
 20
0.0
 30
0.0
  3
*PAPER_SPACE
  1

  4

  0
ENDBLK
  5
12
330
E
100
AcDbEntity
 67
     1
  8
0
100
AcDbBlockEnd
  0
ENDSEC
  0
SECTION
  2
ENTITIES
  0
LINE
  5
A9
330
2
100
AcDbEntity
  8
0
100
AcDbLine
 10
-1.022084940638223
 20
25.84627456631392
 30
0.0
 11
-1.022084940638223
 21
-0.0134828148005255
 31
0.0
  0
LINE
  5
AA
330
2
100
AcDbEntity
  8
0
100
AcDbLine
 10
-0.8453082453415846
 20
25.84627456631392
 30
0.0
 11
-0.8453082453415846
 21
-0.0134828148005255
 31
0.0
  0
LINE
  5
AB
330
2
100
AcDbEntity
  8
0
100
AcDbLine
 10
1.354235402919045
 20
26.27243101856413
 30
0.0
 11
1.354235402919045
 21
-0.0134828148005255
 31
0.0
  0
ELLIPSE
  5
AD
330
2
100
AcDbEntity
  8
0
100
AcDbEllipse
 10
-0.0974576354588805
 20
1.298517185199373
 30
0.0
 11
1.776356839400251E-15
 21
-0.3125
 31
0.0
210
0.0
220
0.0
230
-1.0
 40
0.6333912005258071
 41
3.604501780697619
 42
5.820276180071993
  0
ELLIPSE
  5
AE
330
2
100
AcDbEntity
  8
0
100
AcDbEllipse
 10
0.0793190598377294
 20
1.298517185199373
 30
0.0
 11
1.776356839400251E-15
 21
-0.3125
 31
0.0
210
0.0
220
0.0
230
-1.0
 40
0.6333912005258071
 41
0.0
 42
6.283185307179586
  0
LINE
  5
AF
330
2
100
AcDbEntity
  8
0
100
AcDbLine
 10
1.354235402919045
 20
-0.0134828148005255
 30
0.0
 11
-1.022084940638223
 21
-0.0134828148005255
 31
0.0
  0
ELLIPSE
  5
B0
330
2
100
AcDbEntity
  8
0
100
AcDbEllipse
 10
0.6030465504607889
 20
5.298517185199465
 30
0.0
 11
1.776356839400251E-15
 21
-0.3125
 31
0.0
210
0.0
220
0.0
230
-1.0
 40
0.6333912005258071
 41
0.0
 42
6.283185307179586
  0
ELLIPSE
  5
B1
330
2
100
AcDbEntity
  8
0
100
AcDbEllipse
 10
0.426269855164179
 20
5.298517185199465
 30
0.0
 11
1.776356839400251E-15
 21
-0.3125
 31
0.0
210
0.0
220
0.0
230
-1.0
 40
0.6333912005258071
 41
3.604501780697619
 42
5.820276180071993
  0
ELLIPSE
  5
B2
330
2
100
AcDbEntity
  8
0
100
AcDbEllipse
 10
0.0793190598377294
 20
9.298517185199465
 30
0.0
 11
1.776356839400251E-15
 21
-0.3125
 31
0.0
210
0.0
220
0.0
230
-1.0
 40
0.6333912005258071
 41
0.0
 42
6.283185307179586
  0
ELLIPSE
  5
B3
330
2
100
AcDbEntity
  8
0
100
AcDbEllipse
 10
-0.0974576354588805
 20
9.298517185199465
 30
0.0
 11
1.776356839400251E-15
 21
-0.3125
 31
0.0
210
0.0
220
0.0
230
-1.0
 40
0.6333912005258071
 41
3.604501780697619
 42
5.820276180071993
  0
ELLIPSE
  5
B4
330
2
100
AcDbEntity
  8
0
100
AcDbEllipse
 10
0.426269855164179
 20
13.29851718519956
 30
0.0
 11
1.776356839400251E-15
 21
-0.3125
 31
0.0
210
0.0
220
0.0
230
-1.0
 40
0.6333912005258071
 41
3.604501780697619
 42
5.820276180071993
  0
ELLIPSE
  5
B5
330
2
100
AcDbEntity
  8
0
100
AcDbEllipse
 10
0.6030465504607889
 20
13.29851718519956
 30
0.0
 11
1.776356839400251E-15
 21
-0.3125
 31
0.0
210
0.0
220
0.0
230
-1.0
 40
0.6333912005258071
 41
0.0
 42
6.283185307179586
  0
LWPOLYLINE
  5
B6
330
2
100
AcDbEntity
  8
0
100
AcDbPolyline
 90
        6
 70
     0
 43
0.0
 10
1.384901995352692
 20
21.83307250135196
 10
5.122866646306051
 20
19.85686719737891
 10
7.167632353745404
 20
23.72451289113528
 10
-2.446449549564051
 20
28.80733239968942
 10
-4.491215257003404
 20
24.93968670593304
 10
-1.022084940638223
 20
23.10561004348359
  0
CIRCLE
  5
B7
330
2
100
AcDbEntity
  8
0
100
AcDbCircle
 10
-1.609605072072043
 20
27.23375214647592
 30
0.0
 40
0.1405
  0
CIRCLE
  5
B8
330
2
100
AcDbEntity
  8
0
100
AcDbCircle
 10
-2.328989419470275
 20
26.34153234939397
 30
0.0
 40
0.1405
  0
CIRCLE
  5
B9
330
2
100
AcDbEntity
  8
0
100
AcDbCircle
 10
-1.844101674478537
 20
25.66099707254634
 30
0.0
 40
0.1405
  0
CIRCLE
  5
BA
330
2
100
AcDbEntity
  8
0
100
AcDbCircle
 10
-3.323881004286335
 20
26.01915152562165
 30
0.0
 40
0.1405
  0
CIRCLE
  5
BB
330
2
100
AcDbEntity
  8
0
100
AcDbCircle
 10
-2.789456591384152
 20
27.00915683907555
 30
0.0
 40
0.1405
  0
LWPOLYLINE
  5
BC
330
2
100
AcDbEntity
  8
0
100
AcDbPolyline
 90
        2
 70
     0
 43
0.0
 10
1.384901995352692
 20
26.28526937131707
 42
-0.9422804129788714
 10
1.384901995352692
 20
22.08269872943581
 42
-0.9422804129788714
  0
CIRCLE
  5
BE
330
2
100
AcDbEntity
  8
0
100
AcDbCircle
 10
3.655358785678061
 20
22.96560684454288
 30
0.0
 40
0.1405
  0
CIRCLE
  5
BF
330
2
100
AcDbEntity
  8
0
100
AcDbCircle
 10
6.04680499593843
 20
22.97383285609866
 30
0.0
 40
0.1405
  0
CIRCLE
  5
C0
330
2
100
AcDbEntity
  8
0
100
AcDbCircle
 10
5.265375470034201
 20
22.96278034351933
 30
0.0
 40
0.1405
  0
CIRCLE
  5
C1
330
2
100
AcDbEntity
  8
0
100
AcDbCircle
 10
4.794777184654862
 20
21.93903112301415
 30
0.0
 40
0.1405
  0
CIRCLE
  5
C2
330
2
100
AcDbEntity
  8
0
100
AcDbCircle
 10
4.471469202305542
 20
22.95832409539729
 30
0.0
 40
0.1405
  0
CIRCLE
  5
C3
330
2
100
AcDbEntity
  8
0
100
AcDbCircle
 10
5.644614521228391
 20
21.91391746204678
 30
0.0
 40
0.1405
  0
CIRCLE
  5
C4
330
2
100
AcDbEntity
  8
0
100
AcDbCircle
 10
3.945568366925386
 20
24.08472484115235
 30
0.0
 40
0.1405
  0
LWPOLYLINE
  5
C5
330
2
100
AcDbEntity
  8
0
100
AcDbPolyline
 90
        3
 70
     0
 43
0.0
 10
1.384901995352692
 20
25.03607841552962
 42
-0.1920844617838394
 10
1.943446566652028
 20
24.70326204925218
 42
-0.1490168290646955
 10
1.969060071481607
 20
24.63480337329857
 42
-0.1490168290646955
  0
LWPOLYLINE
  5
C6
330
2
100
AcDbEntity
  8
0
100
AcDbPolyline
 90
        4
 70
     0
 43
0.0
 10
1.384901995352692
 20
23.57161161468009
 42
0.0337258403401934
 10
1.466096886062445
 20
23.59397670546771
 10
1.849909340263736
 20
23.97778915966902
 42
0.4542856369904777
 10
1.384901995352692
 20
24.79635648607275
  0
LWPOLYLINE
  5
C7
330
2
100
AcDbEntity
  8
0
100
AcDbPolyline
 90
       10
 70
     0
 43
0.0
 10
1.354235402919045
 20
24.83077314926034
 42
-0.1418279623600718
 10
1.687618558337107
 20
24.66189606952419
 42
0.189898232443231
 10
1.783797166839491
 20
24.62400123557582
 10
1.911029910086114
 20
24.62400123557582
 42
-0.2932527545971398
 10
2.039207277433121
 20
24.54175123557589
 42
-0.2182575770728578
 10
2.039207277433064
 20
23.79925123557582
 42
-0.2932527545971462
 10
1.911029910086114
 20
23.71700123557589
 10
1.783797166839548
 20
23.71700123557589
 42
0.1898982324432371
 10
1.687618558337164
 20
23.67910640162752
 42
-0.1418279623600879
 10
1.354235402919045
 20
23.51022932189135
  0
LWPOLYLINE
  5
CC
330
2
100
AcDbEntity
  8
0
100
AcDbPolyline
 90
        5
 70
     0
 43
0.0
 10
1.969060071481607
 20
24.63480337329857
 42
-0.1381967820433065
 10
1.954720815491214
 20
24.56833979111736
 10
1.889009185397214
 20
24.44429097490475
 42
0.1940474536442414
 10
1.879292813919847
 20
24.35103171658512
 42
-0.3434206526382025
 10
1.563569319115885
 20
23.5845091497509
  0
LINE
  5
CD
330
2
100
AcDbEntity
  8
0
100
AcDbLine
 10
1.384901995352692
 20
26.28526937131707
 30
0.0
 11
1.134901995352635
 21
26.28526937131679
 31
0.0
  0
LINE
  5
CE
330
2
100
AcDbEntity
  8
0
100
AcDbLine
 10
1.354235402919045
 20
26.27243101856413
 30
0.0
 11
1.104235402919017
 21
26.27243101856413
 31
0.0
  0
LINE
  5
CF
330
2
100
AcDbEntity
  8
0
100
AcDbLine
 10
1.354235402919045
 20
26.27178655651655
 30
0.0
 11
-0.8453082453415846
 21
25.84627456631392
 31
0.0
  0
LINE
  5
D0
330
2
100
AcDbEntity
  8
0
100
AcDbLine
 10
-0.8453082453415846
 20
25.84627456631392
 30
0.0
 11
-1.022084940638223
 21
25.84627456631392
 31
0.0
  0
CIRCLE
  5
D1
330
2
100
AcDbEntity
  8
0
100
AcDbCircle
 10
-0.7722444255682888
 20
25.94268731526464
 30
0.0
 40
0.1405
  0
LINE
  5
D2
330
2
100
AcDbEntity
  8
0
100
AcDbLine
 10
1.104235402919017
 20
26.27178655651627
 30
0.0
 11
-1.022084940638223
 21
25.84627456631392
 31
0.0
  0
CIRCLE
  5
D3
330
2
100
AcDbEntity
  8
0
100
AcDbCircle
 10
-1.314136541412523
 20
24.9566300632668
 30
0.0
 40
0.1405
  0
CIRCLE
  5
D4
330
2
100
AcDbEntity
  8
0
100
AcDbCircle
 10
6.156784135946936
 20
23.55196225394782
 30
0.0
 40
0.1405
  0
CIRCLE
  5
D5
330
2
100
AcDbEntity
  8
0
100
AcDbCircle
 10
4.696644534484648
 20
24.1118247146235
 30
0.0
 40
0.1405
  0
CIRCLE
  5
D6
330
2
100
AcDbEntity
  8
0
100
AcDbCircle
 10
0.2048917948362998
 20
26.69863760043072
 30
0.0
 40
0.1405
  0
CIRCLE
  5
D7
330
2
100
AcDbEntity
  8
0
100
AcDbCircle
 10
-1.194885784889522
 20
26.59031387065497
 30
0.0
 40
0.1405
  0
LWPOLYLINE
  5
D8
330
2
100
AcDbEntity
  8
0
100
AcDbPolyline
 90
       13
 70
     1
 43
0.0
 10
16.93261496367677
 20
25.15298405037416
 10
16.54811496367677
 20
25.15298405037413
 42
0.414213562373095
 10
16.36061496367677
 20
24.96548405037413
 10
16.36061496367677
 20
23.40248405037403
 42
0.414213562373095
 10
16.54811496367677
 20
23.21498405037406
 10
16.93261496367671
 20
23.21498405037406
 10
16.93261496367683
 20
0.0
 10
13.93299072012786
 20
0.0
 10
13.93299072012786
 20
25.85975738111452
 10
16.90455863668956
 20
26.2849693729323
 10
17.11561496367676
 20
26.28496937293232
 10
17.11561496367676
 20
26.03527264894959
 10
16.93261496367677
 20
26.03527264894962
  0
CIRCLE
  5
D9
330
2
100
AcDbEntity
  8
0
100
AcDbCircle
 10
15.15099072012779
 20
1.311999999999998
 30
0.0
 40
0.3125
  0
CIRCLE
  5
DA
330
2
100
AcDbEntity
  8
0
100
AcDbCircle
 10
15.71461496367678
 20
5.311999999999998
 30
0.0
 40
0.3125
  0
CIRCLE
  5
DB
330
2
100
AcDbEntity
  8
0
100
AcDbCircle
 10
15.15099072012779
 20
9.311999999999998
 30
0.0
 40
0.3125
  0
CIRCLE
  5
DC
330
2
100
AcDbEntity
  8
0
100
AcDbCircle
 10
15.71461496367678
 20
13.31200000000008
 30
0.0
 40
0.3125
  0
ELLIPSE
  5
DD
330
2
100
AcDbEntity
  8
0
100
AcDbEllipse
 10
20.64811385725389
 20
23.02414283859843
 30
0.0
 11
0.0
 21
-0.140500000000003
 31
0.0
210
0.0
220
0.0
230
-1.0
 40
0.7071067811865207
 41
0.0
 42
6.283185307179586
  0
LINE
  5
DE
330
2
100
AcDbEntity
  8
0
100
AcDbLine
 10
21.57754874558052
 20
23.72451289113528
 30
0.0
 11
20.13168104791245
 21
19.85686719737892
 31
0.0
  0
LINE
  5
DF
330
2
100
AcDbEntity
  8
0
100
AcDbLine
 10
21.40077205028391
 20
23.72451289113528
 30
0.0
 11
19.95490435261581
 21
19.85686719737891
 31
0.0
  0
ELLIPSE
  5
E0
330
2
100
AcDbEntity
  8
0
100
AcDbEllipse
 10
16.86045546650749
 20
24.18367950729577
 30
0.0
 11
0.0
 21
-2.10499999999999
 31
0.0
210
0.0
220
0.0
230
-1.0
 40
0.7075393408431207
 41
3.141592653589793
 42
6.283185307179586
  0
ELLIPSE
  5
E1
330
2
100
AcDbEntity
  8
0
100
AcDbEllipse
 10
17.03723216180416
 20
24.18367950737605
 30
0.0
 11
0.0
 21
-2.10499999999999
 31
0.0
210
0.0
220
0.0
230
-1.0
 40
0.7075393408431207
 41
3.082211643569955
 42
6.342566317199422
  0
LINE
  5
E4
330
2
100
AcDbEntity
  8
0
100
AcDbLine
 10
19.95490435261581
 20
19.85686719737891
 30
0.0
 11
16.93261496367671
 21
22.10184841745664
 31
0.0
  0
LINE
  5
E5
330
2
100
AcDbEntity
  8
0
100
AcDbLine
 10
20.13168104791245
 20
19.85686719737892
 30
0.0
 11
19.95490435261581
 21
19.85686719737891
 31
0.0
  0
ELLIPSE
  5
E6
330
2
100
AcDbEntity
  8
0
100
AcDbEllipse
 10
20.25409293032126
 20
21.94191262901176
 30
0.0
 11
0.0
 21
-0.140500000000003
 31
0.0
210
0.0
220
0.0
230
-1.0
 40
0.7071067811865207
 41
0.0
 42
6.283185307179586
  0
ELLIPSE
  5
E7
330
2
100
AcDbEntity
  8
0
100
AcDbEllipse
 10
19.95857746025246
 20
22.92575811173895
 30
0.0
 11
0.0
 21
-0.140500000000003
 31
0.0
210
0.0
220
0.0
230
-1.0
 40
0.7071067811865207
 41
0.0
 42
6.283185307179586
  0
ELLIPSE
  5
E8
330
2
100
AcDbEntity
  8
0
100
AcDbEllipse
 10
19.56455675845049
 20
21.94191262901179
 30
0.0
 11
0.0
 21
-0.140500000000003
 31
0.0
210
0.0
220
0.0
230
-1.0
 40
0.7071067811865207
 41
0.0
 42
6.283185307179586
  0
ELLIPSE
  5
E9
330
2
100
AcDbEntity
  8
0
100
AcDbEllipse
 10
18.48099965964707
 20
22.72898916826789
 30
0.0
 11
0.0
 21
-0.140500000000003
 31
0.0
210
0.0
220
0.0
230
-1.0
 40
0.7071067811865207
 41
0.0
 42
6.283185307179586
  0
ELLIPSE
  5
EA
330
2
100
AcDbEntity
  8
0
100
AcDbEllipse
 10
19.26904128838166
 20
22.82737364000342
 30
0.0
 11
0.0
 21
-0.140500000000003
 31
0.0
210
0.0
220
0.0
230
-1.0
 40
0.7071067811865207
 41
0.0
 42
6.283185307179586
  0
LINE
  5
EB
330
2
100
AcDbEntity
  8
0
100
AcDbLine
 10
14.77936623686756
 20
28.80733239968943
 30
0.0
 11
21.57754874558052
 21
23.72451289113529
 31
0.0
  0
LINE
  5
EC
330
2
100
AcDbEntity
  8
0
100
AcDbLine
 10
14.60258954157092
 20
28.80733239968942
 30
0.0
 11
21.40077205028391
 21
23.72451289113528
 31
0.0
  0
LINE
  5
ED
330
2
100
AcDbEntity
  8
0
100
AcDbLine
 10
14.60258954157092
 20
28.80733239968942
 30
0.0
 11
13.11765182948497
 21
24.96889831230403
 31
0.0
  0
ELLIPSE
  5
EE
330
2
100
AcDbEntity
  8
0
100
AcDbEllipse
 10
14.57133071105451
 20
26.24721664273059
 30
0.0
 11
0.0
 21
-0.140500000000003
 31
0.0
210
0.0
220
0.0
230
-1.0
 40
0.7071067811865207
 41
0.0
 42
6.283185307179586
  0
ARC
  5
EF
330
2
100
AcDbEntity
  8
0
100
AcDbCircle
 10
16.97758949105426
 20
24.18398405037637
 30
0.0
 40
0.6719999999999987
100
AcDbArc
 50
100.7201343612556
 51
133.0093571662472
  0
ARC
  5
F0
330
2
100
AcDbEntity
  8
0
100
AcDbCircle
 10
17.15436618635087
 20
24.18398405047543
 30
0.0
 40
0.6719999999999987
100
AcDbArc
 50
108.5143515471078
 51
133.0093571662472
  0
ARC
  5
F1
330
2
100
AcDbEntity
  8
0
100
AcDbCircle
 10
16.72758949105887
 20
24.18398405037637
 30
0.0
 40
0.6719999999999987
100
AcDbArc
 50
46.99064283375278
 51
79.27986563874443
  0
LINE
  5
F2
330
2
100
AcDbEntity
  8
0
100
AcDbLine
 10
13.93299072012786
 20
24.32999378259021
 30
0.0
 11
13.11219612449801
 21
24.93968670593303
 31
0.0
  0
ARC
  5
F3
330
2
100
AcDbEntity
  8
0
100
AcDbCircle
 10
17.28215125497704
 20
24.77848405037633
 30
0.0
 40
0.1409999999999853
100
AcDbArc
 50
226.9906428337305
 51
269.9999999999789
  0
ARC
  5
F4
330
2
100
AcDbEntity
  8
0
100
AcDbCircle
 10
17.28091886997993
 20
24.49648405037635
 30
0.0
 40
0.1409999999999982
100
AcDbArc
 50
24.6243183521948
 51
90.0000000000293
  0
ARC
  5
F5
330
2
100
AcDbEntity
  8
0
100
AcDbCircle
 10
17.28215125497709
 20
23.58948405037643
 30
0.0
 40
0.140999999999984
100
AcDbArc
 50
90.00000000002115
 51
133.0093571662694
  0
ARC
  5
F6
330
2
100
AcDbEntity
  8
0
100
AcDbCircle
 10
17.2809188699799
 20
23.87148405037637
 30
0.0
 40
0.1409999999999493
100
AcDbArc
 50
269.9999999999821
 51
335.3756816478188
  0
ARC
  5
F7
330
2
100
AcDbEntity
  8
0
100
AcDbCircle
 10
16.59912436281508
 20
24.18398405037645
 30
0.0
 40
0.8910000000000734
100
AcDbArc
 50
335.3756816478314
 51
24.62431835215973
  0
ARC
  5
F8
330
2
100
AcDbEntity
  8
0
100
AcDbCircle
 10
16.5998044224327
 20
24.77848405047538
 30
0.0
 40
0.1409999999999853
100
AcDbArc
 50
270.0000000000212
 51
313.0093571662697
  0
ARC
  5
F9
330
2
100
AcDbEntity
  8
0
100
AcDbCircle
 10
16.5998044224327
 20
24.4964840504754
 30
0.0
 40
0.1409999999999982
100
AcDbArc
 50
89.99999999997068
 51
155.3756816478052
  0
ARC
  5
FA
330
2
100
AcDbEntity
  8
0
100
AcDbCircle
 10
16.42302772713609
 20
24.77848405037633
 30
0.0
 40
0.1409999999999853
100
AcDbArc
 50
270.0000000000212
 51
313.0093571662697
  0
ARC
  5
FB
330
2
100
AcDbEntity
  8
0
100
AcDbCircle
 10
16.42302772713606
 20
24.49648405037635
 30
0.0
 40
0.1409999999999982
100
AcDbArc
 50
89.99999999997068
 51
109.1198637819453
  0
ARC
  5
FC
330
2
100
AcDbEntity
  8
0
100
AcDbCircle
 10
16.59980442243267
 20
23.58948405047549
 30
0.0
 40
0.140999999999984
100
AcDbArc
 50
46.99064283373085
 51
89.99999999997883
  0
ARC
  5
FD
330
2
100
AcDbEntity
  8
0
100
AcDbCircle
 10
16.59980442243273
 20
23.87148405047542
 30
0.0
 40
0.1409999999999477
100
AcDbArc
 50
204.6243183521814
 51
270.0000000000179
  0
ARC
  5
FE
330
2
100
AcDbEntity
  8
0
100
AcDbCircle
 10
16.42302772713603
 20
23.58948405037643
 30
0.0
 40
0.140999999999984
100
AcDbArc
 50
46.99064283373085
 51
89.99999999997883
  0
ARC
  5
FF
330
2
100
AcDbEntity
  8
0
100
AcDbCircle
 10
16.9775894910542
 20
24.1839840503764
 30
0.0
 40
0.6720000000000288
100
AcDbArc
 50
226.9906428337511
 51
259.2798656387478
  0
ARC
  5
100
330
2
100
AcDbEntity
  8
0
100
AcDbCircle
 10
17.15436618635087
 20
24.18398405047546
 30
0.0
 40
0.6720000000000288
100
AcDbArc
 50
226.9906428337511
 51
251.4856484794919
  0
ARC
  5
101
330
2
100
AcDbEntity
  8
0
100
AcDbCircle
 10
16.42302772713609
 20
23.87148405037637
 30
0.0
 40
0.1409999999999477
100
AcDbArc
 50
250.8801362180359
 51
270.0000000000179
  0
ARC
  5
102
330
2
100
AcDbEntity
  8
0
100
AcDbCircle
 10
17.28159892959755
 20
24.1839840504755
 30
0.0
 40
0.8910000000000734
100
AcDbArc
 50
155.3756816478403
 51
204.6243183521686
  0
ARC
  5
103
330
2
100
AcDbEntity
  8
0
100
AcDbCircle
 10
16.72758949105892
 20
24.1839840503764
 30
0.0
 40
0.6720000000000288
100
AcDbArc
 50
280.7201343612522
 51
313.0093571662489
  0
ELLIPSE
  5
104
330
2
100
AcDbEntity
  8
0
100
AcDbEllipse
 10
13.75275168828458
 20
25.97567992458993
 30
0.0
 11
0.0
 21
-0.140500000000003
 31
0.0
210
0.0
220
0.0
230
-1.0
 40
0.7071067811865207
 41
0.0
 42
6.283185307179586
  0
ELLIPSE
  5
105
330
2
100
AcDbEntity
  8
0
100
AcDbEllipse
 10
14.24527739668906
 20
26.76275646384607
 30
0.0
 11
0.0
 21
-0.140500000000003
 31
0.0
210
0.0
220
0.0
230
-1.0
 40
0.7071067811865207
 41
0.0
 42
6.283185307179586
  0
ELLIPSE
  5
106
330
2
100
AcDbEntity
  8
0
100
AcDbEllipse
 10
16.21538090569896
 20
26.86114106314357
 30
0.0
 11
0.0
 21
-0.140500000000003
 31
0.0
210
0.0
220
0.0
230
-1.0
 40
0.7071067811865207
 41
0.0
 42
6.283185307179586
  0
ELLIPSE
  5
107
330
2
100
AcDbEntity
  8
0
100
AcDbEllipse
 10
15.03331880029302
 20
27.25467933277164
 30
0.0
 11
0.0
 21
-0.140500000000003
 31
0.0
210
0.0
220
0.0
230
-1.0
 40
0.7071067811865207
 41
0.0
 42
6.283185307179586
  0
ELLIPSE
  5
108
330
2
100
AcDbEntity
  8
0
100
AcDbEllipse
 10
15.32883427036185
 20
26.56598739281304
 30
0.0
 11
0.0
 21
-0.140500000000003
 31
0.0
210
0.0
220
0.0
230
-1.0
 40
0.7071067811865207
 41
0.0
 42
6.283185307179586
  0
LINE
  5
109
330
2
100
AcDbEntity
  8
0
100
AcDbLine
 10
14.77936623686756
 20
28.80733239968943
 30
0.0
 11
14.60258954157092
 21
28.80733239968942
 31
0.0
  0
ELLIPSE
  5
10A
330
2
100
AcDbEntity
  8
0
100
AcDbEllipse
 10
19.56455675845049
 20
24.00798857644963
 30
0.0
 11
0.0
 21
-0.140500000000003
 31
0.0
210
0.0
220
0.0
230
-1.0
 40
0.7071067811865207
 41
0.0
 42
6.283185307179586
  0
ELLIPSE
  5
10B
330
2
100
AcDbEntity
  8
0
100
AcDbEllipse
 10
18.97352559318222
 20
24.0079885764496
 30
0.0
 11
0.0
 21
-0.140500000000003
 31
0.0
210
0.0
220
0.0
230
-1.0
 40
0.7071067811865207
 41
0.0
 42
6.283185307179586
  0
LINE
  5
10C
330
2
100
AcDbEntity
  8
0
100
AcDbLine
 10
21.57754874558052
 20
23.72451289113529
 30
0.0
 11
21.40077205028391
 21
23.72451289113528
 31
0.0
  0
ELLIPSE
  5
10D
330
2
100
AcDbEntity
  8
0
100
AcDbEllipse
 10
20.54960862552073
 20
23.81121937785456
 30
0.0
 11
0.0
 21
-0.140500000000003
 31
0.0
210
0.0
220
0.0
230
-1.0
 40
0.7071067811865207
 41
0.0
 42
6.283185307179586
  0
ENDSEC
  0
SECTION
  2
OBJECTS
  0
DICTIONARY
  5
9
330
0
100
AcDbDictionary
281
     1
  3
ACAD_COLOR
350
115
  3
ACAD_GROUP
350
24
  3
ACAD_LAYOUT
350
D
  3
ACAD_MATERIAL
350
114
  3
ACAD_MLINESTYLE
350
25
  3
ACAD_PLOTSETTINGS
350
26
  3
ACAD_PLOTSTYLENAME
350
8
  3
ACAD_TABLESTYLE
350
116
  3
ACDBHEADERROUNDTRIPXREC
350
123
  3
AcDbVariableDictionary
350
A1
  0
DICTIONARY
  5
115
102
{ACAD_REACTORS
330
9
102
}
330
9
100
AcDbDictionary
281
     1
  0
DICTIONARY
  5
24
102
{ACAD_REACTORS
330
9
102
}
330
9
100
AcDbDictionary
281
     1
  0
DICTIONARY
  5
D
102
{ACAD_REACTORS
330
9
102
}
330
9
100
AcDbDictionary
281
     1
  3
Layout1
350
13
  3
Model
350
C
  0
DICTIONARY
  5
114
102
{ACAD_REACTORS
330
9
102
}
330
9
100
AcDbDictionary
281
     1
  0
DICTIONARY
  5
25
102
{ACAD_REACTORS
330
9
102
}
330
9
100
AcDbDictionary
281
     1
  3
STANDARD
350
29
  0
DICTIONARY
  5
26
102
{ACAD_REACTORS
330
9
102
}
330
9
100
AcDbDictionary
281
     1
  0
ACDBDICTIONARYWDFLT
  5
8
102
{ACAD_REACTORS
330
9
102
}
330
9
100
AcDbDictionary
281
     1
  3
Normal
350
7
100
AcDbDictionaryWithDefault
340
7
  0
DICTIONARY
  5
116
102
{ACAD_REACTORS
330
9
102
}
330
9
100
AcDbDictionary
281
     1
  3
Standard
350
117
  0
DICTIONARY
  5
123
102
{ACAD_REACTORS
330
9
102
}
330
9
100
AcDbDictionary
281
     1
  3
COLORDICT
350
124
  3
MATERIALDICT
350
125
  0
DICTIONARY
  5
A1
102
{ACAD_REACTORS
330
9
102
}
330
9
100
AcDbDictionary
281
     1
  3
CTABLESTYLE
350
120
  3
HIDETEXT
350
122
  0
LAYOUT
  5
13
102
{ACAD_REACTORS
330
D
102
}
102
{ACAD_XDICTIONARY
360
126
102
}
330
D
100
AcDbPlotSettings
  1

  2
HP LaserJet 2100 Series PS
  4

  6

 40
0.0
 41
0.0
 42
0.0
 43
0.0
 44
0.0
 45
0.0
 46
0.0
 47
0.0
 48
0.0
 49
0.0
140
0.0
141
0.0
142
1.0
143
1.0
 70
   688
 72
     0
 73
     0
 74
     5
  7

 75
    16
147
1.0
148
0.0
149
0.0
100
AcDbLayout
  1
Layout1
 70
     0
 71
     1
 10
0.0
 20
0.0
 11
12.0
 21
9.0
 12
0.0
 22
0.0
 32
0.0
 14
1.000000000000000E+20
 24
1.000000000000000E+20
 34
1.000000000000000E+20
 15
-1.000000000000000E+20
 25
-1.000000000000000E+20
 35
-1.000000000000000E+20
146
0.0
 13
0.0
 23
0.0
 33
0.0
 16
1.0
 26
0.0
 36
0.0
 17
0.0
 27
1.0
 37
0.0
 76
     0
330
E
  0
LAYOUT
  5
C
102
{ACAD_REACTORS
330
D
102
}
102
{ACAD_XDICTIONARY
360
128
102
}
330
D
100
AcDbPlotSettings
  1

  2
HP LaserJet 2100 Series PS
  4
Letter
  6

 40
5.365749835968018
 41
5.408084392547607
 42
5.4080810546875
 43
5.365753173828125
 44
215.8999938964844
 45
279.3999938964844
 46
0.0
 47
0.0
 48
0.0
 49
0.0
140
0.0
141
0.0
142
1.0
143
1.0
 70
 11952
 72
     0
 73
     1
 74
     0
  7

 75
     0
147
1.0
148
-112.8483051747091
149
7.90070028046011
100
AcDbLayout
  1
Model
 70
     1
 71
     0
 10
0.0
 20
0.0
 11
12.0
 21
9.0
 12
0.0
 22
0.0
 32
0.0
 14
0.0
 24
0.0
 34
0.0
 15
0.0
 25
0.0
 35
0.0
146
0.0
 13
0.0
 23
0.0
 33
0.0
 16
1.0
 26
0.0
 36
0.0
 17
0.0
 27
1.0
 37
0.0
 76
     0
330
2
  0
MLINESTYLE
  5
29
102
{ACAD_REACTORS
330
25
102
}
330
25
100
AcDbMlineStyle
  2
STANDARD
 70
     0
  3

 62
   256
 51
90.0
 52
90.0
 71
     2
 49
0.5
 62
   256
  6
BYLAYER
 49
-0.5
 62
   256
  6
BYLAYER
  0
ACDBPLACEHOLDER
  5
7
102
{ACAD_REACTORS
330
8
102
}
330
8
  0
ACAD_PROXY_OBJECT
  5
117
102
{ACAD_REACTORS
330
116
102
}
330
116
100
AcDbProxyObject
 90
      499
 91
      533
 95
   983063
 70
     0
 93
     1841
310
4214DD185B99185C9928B81E85EB51B8AE3F2E07A17AD46E2B8FC02B5E8DC0F42B1CFD028000000C1008070000C3001FDFF8000000C1003FBFF000000182007F7FE00000030400FEFFC00000060801FDFF8000000C1003FBFF00000018200000000000000681FA0B0000001820100E000186003FBFF000000182007F7FE000
310
00030400FEFFC00000060801FDFF8000000C1003FBFF000000182007F7FE000000304000AD7A3703D0AC73F4160000003040201C00030C007F7FE00000030400FEFFC00000060801FDFF8000000C1003FBFF000000182007F7FE00000030400FEFFC000000608000
340
16
340
16
340
16
 94
        0
  0
XRECORD
  5
124
102
{ACAD_REACTORS
330
123
102
}
330
123
100
AcDbXrecord
340
115
  0
XRECORD
  5
125
102
{ACAD_REACTORS
330
123
102
}
330
123
100
AcDbXrecord
340
114
  0
DICTIONARYVAR
  5
120
102
{ACAD_REACTORS
330
A1
102
}
330
A1
100
DictionaryVariables
280
     0
  1
STANDARD
  0
DICTIONARYVAR
  5
122
102
{ACAD_REACTORS
330
A1
102
}
330
A1
100
DictionaryVariables
280
     0
  1
0
  0
DICTIONARY
  5
126
330
13
100
AcDbDictionary
280
     1
281
     1
  3
ACAD_XREC_ROUNDTRIP
360
127
  0
DICTIONARY
  5
128
330
C
100
AcDbDictionary
280
     1
281
     1
  3
ACAD_XREC_ROUNDTRIP
360
129
  0
XRECORD
  5
127
102
{ACAD_REACTORS
330
126
102
}
330
126
100
AcDbXrecord
102
SHADEPLOT
 70
     0
102
SHADEPLOTRESLEVEL
 70
     2
102
SHADEPLOTCUSTOMDPI
 70
   300
  0
XRECORD
  5
129
102
{ACAD_REACTORS
330
128
102
}
330
128
100
AcDbXrecord
102
SHADEPLOT
 70
     0
102
SHADEPLOTRESLEVEL
 70
     2
102
SHADEPLOTCUSTOMDPI
 70
   300
  0
ENDSEC
  0
EOF
