  0
SECTION
  2
HEADER
  9
$ACADVER
  1
AC1018
  9
$ACADMAINTVER
 70
     6
  9
$DWGCODEPAGE
  3
ANSI_1252
  9
$INSBASE
 10
0.0
 20
0.0
 30
0.0
  9
$EXTMIN
 10
-10.66619002185989
 20
-0.0724873734152653
 30
0.0
  9
$EXTMAX
 10
10.66619002185989
 20
13.35774753179724
 30
0.0
  9
$LIMMIN
 10
0.0
 20
0.0
  9
$LIMMAX
 10
31.5
 20
24.0
  9
$ORTHOMODE
 70
     1
  9
$REGENMODE
 70
     1
  9
$FILLMODE
 70
     1
  9
$QTEXTMODE
 70
     0
  9
$MIRRTEXT
 70
     0
  9
$LTSCALE
 40
0.75
  9
$ATTMODE
 70
     1
  9
$TEXTSIZE
 40
0.225
  9
$TRACEWID
 40
0.05
  9
$TEXTSTYLE
  7
STANDARD
  9
$CLAYER
  8
0
  9
$CELTYPE
  6
BYLAYER
  9
$CECOLOR
 62
   256
  9
$CELTSCALE
 40
1.0
  9
$DISPSILH
 70
     0
  9
$DIMSCALE
 40
2.5
  9
$DIMASZ
 40
0.125
  9
$DIMEXO
 40
0.062
  9
$DIMDLI
 40
0.375
  9
$DIMRND
 40
0.0
  9
$DIMDLE
 40
0.0
  9
$DIMEXE
 40
0.08
  9
$DIMTP
 40
0.0
  9
$DIMTM
 40
0.0
  9
$DIMTXT
 40
0.09
  9
$DIMCEN
 40
-0.0313
  9
$DIMTSZ
 40
0.0
  9
$DIMTOL
 70
     0
  9
$DIMLIM
 70
     0
  9
$DIMTIH
 70
     1
  9
$DIMTOH
 70
     1
  9
$DIMSE1
 70
     0
  9
$DIMSE2
 70
     0
  9
$DIMTAD
 70
     0
  9
$DIMZIN
 70
     0
  9
$DIMBLK
  1

  9
$DIMASO
 70
     1
  9
$DIMSHO
 70
     0
  9
$DIMPOST
  1

  9
$DIMAPOST
  1

  9
$DIMALT
 70
     0
  9
$DIMALTD
 70
     2
  9
$DIMALTF
 40
25.4
  9
$DIMLFAC
 40
1.0
  9
$DIMTOFL
 70
     0
  9
$DIMTVP
 40
0.0
  9
$DIMTIX
 70
     0
  9
$DIMSOXD
 70
     0
  9
$DIMSAH
 70
     0
  9
$DIMBLK1
  1

  9
$DIMBLK2
  1

  9
$DIMSTYLE
  2
STANDARD
  9
$DIMCLRD
 70
     0
  9
$DIMCLRE
 70
     0
  9
$DIMCLRT
 70
     0
  9
$DIMTFAC
 40
1.0
  9
$DIMGAP
 40
0.09
  9
$DIMJUST
 70
     0
  9
$DIMSD1
 70
     0
  9
$DIMSD2
 70
     0
  9
$DIMTOLJ
 70
     1
  9
$DIMTZIN
 70
     0
  9
$DIMALTZ
 70
     0
  9
$DIMALTTZ
 70
     0
  9
$DIMUPT
 70
     0
  9
$DIMDEC
 70
     5
  9
$DIMTDEC
 70
     4
  9
$DIMALTU
 70
     2
  9
$DIMALTTD
 70
     2
  9
$DIMTXSTY
  7
STANDARD
  9
$DIMAUNIT
 70
     0
  9
$DIMADEC
 70
     0
  9
$DIMALTRND
 40
0.0
  9
$DIMAZIN
 70
     0
  9
$DIMDSEP
 70
    46
  9
$DIMATFIT
 70
     3
  9
$DIMFRAC
 70
     2
  9
$DIMLDRBLK
  1

  9
$DIMLUNIT
 70
     5
  9
$DIMLWD
 70
    -2
  9
$DIMLWE
 70
    -2
  9
$DIMTMOVE
 70
     2
  9
$LUNITS
 70
     2
  9
$LUPREC
 70
     4
  9
$SKETCHINC
 40
0.1
  9
$FILLETRAD
 40
0.0
  9
$AUNITS
 70
     0
  9
$AUPREC
 70
     0
  9
$MENU
  1
qa
  9
$ELEVATION
 40
0.0
  9
$PELEVATION
 40
0.0
  9
$THICKNESS
 40
0.0
  9
$LIMCHECK
 70
     0
  9
$CHAMFERA
 40
0.0
  9
$CHAMFERB
 40
0.0
  9
$CHAMFERC
 40
0.0
  9
$CHAMFERD
 40
0.0
  9
$SKPOLY
 70
     0
  9
$TDCREATE
 40
2449686.855226157
  9
$TDUCREATE
 40
2449687.188559491
  9
$TDUPDATE
 40
2454417.833203472
  9
$TDUUPDATE
 40
2454418.166536806
  9
$TDINDWG
 40
0.5811926852
  9
$TDUSRTIMER
 40
0.5811926852
  9
$USRTIMER
 70
     1
  9
$ANGBASE
 50
0.0
  9
$ANGDIR
 70
     0
  9
$PDMODE
 70
     0
  9
$PDSIZE
 40
0.0
  9
$PLINEWID
 40
0.0
  9
$SPLFRAME
 70
     0
  9
$SPLINETYPE
 70
     6
  9
$SPLINESEGS
 70
     8
  9
$HANDSEED
  5
2D44
  9
$SURFTAB1
 70
     6
  9
$SURFTAB2
 70
     6
  9
$SURFTYPE
 70
     6
  9
$SURFU
 70
     6
  9
$SURFV
 70
     6
  9
$UCSBASE
  2

  9
$UCSNAME
  2

  9
$UCSORG
 10
0.0
 20
0.0
 30
0.0
  9
$UCSXDIR
 10
1.0
 20
0.0
 30
0.0
  9
$UCSYDIR
 10
0.0
 20
1.0
 30
0.0
  9
$UCSORTHOREF
  2

  9
$UCSORTHOVIEW
 70
     0
  9
$UCSORGTOP
 10
0.0
 20
0.0
 30
0.0
  9
$UCSORGBOTTOM
 10
0.0
 20
0.0
 30
0.0
  9
$UCSORGLEFT
 10
0.0
 20
0.0
 30
0.0
  9
$UCSORGRIGHT
 10
0.0
 20
0.0
 30
0.0
  9
$UCSORGFRONT
 10
0.0
 20
0.0
 30
0.0
  9
$UCSORGBACK
 10
0.0
 20
0.0
 30
0.0
  9
$PUCSBASE
  2

  9
$PUCSNAME
  2

  9
$PUCSORG
 10
0.0
 20
0.0
 30
0.0
  9
$PUCSXDIR
 10
1.0
 20
0.0
 30
0.0
  9
$PUCSYDIR
 10
0.0
 20
1.0
 30
0.0
  9
$PUCSORTHOREF
  2

  9
$PUCSORTHOVIEW
 70
     0
  9
$PUCSORGTOP
 10
0.0
 20
0.0
 30
0.0
  9
$PUCSORGBOTTOM
 10
0.0
 20
0.0
 30
0.0
  9
$PUCSORGLEFT
 10
0.0
 20
0.0
 30
0.0
  9
$PUCSORGRIGHT
 10
0.0
 20
0.0
 30
0.0
  9
$PUCSORGFRONT
 10
0.0
 20
0.0
 30
0.0
  9
$PUCSORGBACK
 10
0.0
 20
0.0
 30
0.0
  9
$USERI1
 70
     0
  9
$USERI2
 70
     0
  9
$USERI3
 70
     0
  9
$USERI4
 70
     0
  9
$USERI5
 70
     0
  9
$USERR1
 40
0.0
  9
$USERR2
 40
0.0
  9
$USERR3
 40
0.0
  9
$USERR4
 40
0.0
  9
$USERR5
 40
0.0
  9
$WORLDVIEW
 70
     1
  9
$SHADEDGE
 70
     3
  9
$SHADEDIF
 70
    70
  9
$TILEMODE
 70
     1
  9
$MAXACTVP
 70
    16
  9
$PINSBASE
 10
0.0
 20
0.0
 30
0.0
  9
$PLIMCHECK
 70
     0
  9
$PEXTMIN
 10
1.000000000000000E+20
 20
1.000000000000000E+20
 30
1.000000000000000E+20
  9
$PEXTMAX
 10
-1.000000000000000E+20
 20
-1.000000000000000E+20
 30
-1.000000000000000E+20
  9
$PLIMMIN
 10
0.0
 20
0.0
  9
$PLIMMAX
 10
12.0
 20
9.0
  9
$UNITMODE
 70
     0
  9
$VISRETAIN
 70
     0
  9
$PLINEGEN
 70
     0
  9
$PSLTSCALE
 70
     0
  9
$TREEDEPTH
 70
  3020
  9
$CMLSTYLE
  2
STANDARD
  9
$CMLJUST
 70
     0
  9
$CMLSCALE
 40
1.0
  9
$PROXYGRAPHICS
 70
     1
  9
$MEASUREMENT
 70
     0
  9
$CELWEIGHT
370
    -1
  9
$ENDCAPS
280
     0
  9
$JOINSTYLE
280
     0
  9
$LWDISPLAY
290
     0
  9
$INSUNITS
 70
     0
  9
$HYPERLINKBASE
  1

  9
$STYLESHEET
  1
monochrome.ctb
  9
$XEDIT
290
     1
  9
$CEPSNTYPE
380
     0
  9
$PSTYLEMODE
290
     1
  9
$FINGERPRINTGUID
  2
{6373DD03-55A5-11D5-BE3F-00508B5FCD51}
  9
$VERSIONGUID
  2
{D46D32C2-063A-47AA-8AC1-BC5567E48B98}
  9
$EXTNAMES
290
     1
  9
$PSVPSCALE
 40
0.0
  9
$OLESTARTUP
290
     0
  9
$SORTENTS
280
   127
  9
$INDEXCTL
280
     0
  9
$HIDETEXT
280
     1
  9
$XCLIPFRAME
290
     0
  9
$HALOGAP
280
     0
  9
$OBSCOLOR
 70
   257
  9
$OBSLTYPE
280
     0
  9
$INTERSECTIONDISPLAY
280
     0
  9
$INTERSECTIONCOLOR
 70
   257
  9
$DIMASSOC
280
     1
  9
$PROJECTNAME
  1

  0
ENDSEC
  0
SECTION
  2
CLASSES
  0
CLASS
  1
DICTIONARYVAR
  2
AcDbDictionaryVar
  3
AutoCAD 2000
 90
        0
 91
        1
280
     0
281
     0
  0
CLASS
  1
LWPOLYLINE
  2
AcDbPolyline
  3
AutoCAD 2000
 90
        0
 91
        7
280
     0
281
     1
  0
CLASS
  1
ACDBDICTIONARYWDFLT
  2
AcDbDictionaryWithDefault
  3
AutoCAD 2000
 90
        0
 91
        1
280
     0
281
     0
  0
CLASS
  1
ACDBPLACEHOLDER
  2
AcDbPlaceHolder
  3
ObjectDBX Classes
 90
        0
 91
        3
280
     0
281
     0
  0
CLASS
  1
LAYOUT
  2
AcDbLayout
  3
ObjectDBX Classes
 90
        0
 91
        3
280
     0
281
     0
  0
CLASS
  1
LONG_TRANSACTION
  2
AcDbLongTransaction
  3
ObjectDBX Classes
 90
   -65536
 91
        4
280
     1
281
     0
  0
CLASS
  1
LWPOLYLINE
  2
AcDbPolyline
  3
AutoCAD 2000
 90
        0
 91
        7
280
     0
281
     1
  0
CLASS
  1
HATCH
  2
AcDbHatch
  3
AutoCAD 2000
 90
        0
 91
        6
280
     0
281
     1
  0
CLASS
  1
XRECORD
  2
AcDbXrecord
  3
AutoCAD 2000
 90
        0
 91
        6
280
     0
281
     0
  0
CLASS
  1
LONG_TRANSACTION
  2
AcDbLongTransaction
  3
ObjectDBX Classes
 90
   -65536
 91
        4
280
     1
281
     0
  0
CLASS
  1
LWPOLYLINE
  2
AcDbPolyline
  3
AutoCAD 2000
 90
        0
 91
        7
280
     0
281
     1
  0
CLASS
  1
HATCH
  2
AcDbHatch
  3
AutoCAD 2000
 90
        0
 91
        6
280
     0
281
     1
  0
CLASS
  1
XRECORD
  2
AcDbXrecord
  3
AutoCAD 2000
 90
        0
 91
        6
280
     0
281
     0
  0
CLASS
  1
LONG_TRANSACTION
  2
AcDbLongTransaction
  3
ObjectDBX Classes
 90
   -65536
 91
        4
280
     1
281
     0
  0
CLASS
  1
LWPOLYLINE
  2
AcDbPolyline
  3
AutoCAD 2000
 90
        0
 91
        7
280
     0
281
     1
  0
CLASS
  1
HATCH
  2
AcDbHatch
  3
AutoCAD 2000
 90
        0
 91
        6
280
     0
281
     1
  0
CLASS
  1
XRECORD
  2
AcDbXrecord
  3
AutoCAD 2000
 90
        0
 91
        6
280
     0
281
     0
  0
CLASS
  1
LONG_TRANSACTION
  2
AcDbLongTransaction
  3
ObjectDBX Classes
 90
   -65536
 91
        4
280
     1
281
     0
  0
CLASS
  1
LWPOLYLINE
  2
AcDbPolyline
  3
AutoCAD 2000
 90
        0
 91
        7
280
     0
281
     1
  0
CLASS
  1
HATCH
  2
AcDbHatch
  3
AutoCAD 2000
 90
        0
 91
        6
280
     0
281
     1
  0
CLASS
  1
XRECORD
  2
AcDbXrecord
  3
AutoCAD 2000
 90
        0
 91
        6
280
     0
281
     0
  0
CLASS
  1
TABLESTYLE
  2
AcDbTableStyle
  3
ObjectDBX Classes
 90
     2047
 91
        2
280
     1
281
     0
  0
CLASS
  1
SORTENTSTABLE
  2
AcDbSortentsTable
  3
AutoCAD 2000
 90
        0
 91
        1
280
     0
281
     0
  0
ENDSEC
  0
SECTION
  2
TABLES
  0
TABLE
  2
VPORT
  5
8
330
0
100
AcDbSymbolTable
 70
     3
  0
VPORT
  5
2D3E
330
8
100
AcDbSymbolTableRecord
100
AcDbViewportTableRecord
  2
*Active
 70
     0
 10
0.0
 20
0.0
 11
1.0
 21
1.0
 12
4.042885455370097
 22
8.521640931441223
 13
0.0
 23
0.0
 14
0.063
 24
0.063
 15
0.25
 25
0.25
 16
0.0
 26
0.0
 36
1.0
 17
0.0
 27
0.0
 37
0.0
 40
24.29498860612269
 41
1.78118609406953
 42
50.0
 43
0.0
 44
0.0
 50
0.0
 51
0.0
 71
     0
 72
   100
 73
     1
 74
     0
 75
     0
 76
     0
 77
     0
 78
     0
281
     0
 65
     1
110
0.0
120
0.0
130
0.0
111
1.0
121
0.0
131
0.0
112
0.0
122
1.0
132
0.0
 79
     0
146
0.0
  0
ENDTAB
  0
TABLE
  2
LTYPE
  5
5
330
0
100
AcDbSymbolTable
 70
     2
  0
LTYPE
  5
11
330
5
100
AcDbSymbolTableRecord
100
AcDbLinetypeTableRecord
  2
BYBLOCK
 70
     0
  3

 72
    65
 73
     0
 40
0.0
  0
LTYPE
  5
12
330
5
100
AcDbSymbolTableRecord
100
AcDbLinetypeTableRecord
  2
BYLAYER
 70
     0
  3

 72
    65
 73
     0
 40
0.0
  0
LTYPE
  5
13
330
5
100
AcDbSymbolTableRecord
100
AcDbLinetypeTableRecord
  2
CONTINUOUS
 70
     0
  3
Solid line
 72
    65
 73
     0
 40
0.0
  0
LTYPE
  5
2337
330
5
100
AcDbSymbolTableRecord
100
AcDbLinetypeTableRecord
  2
HIDDENX2
 70
     0
  3
Hidden (2x) ____ ____ ____ ____ ____ ____ ____
 72
    65
 73
     2
 40
0.75
 49
0.5
 74
     0
 49
-0.25
 74
     0
  0
ENDTAB
  0
TABLE
  2
LAYER
  5
2
102
{ACAD_XDICTIONARY
360
2C74
102
}
330
0
100
AcDbSymbolTable
 70
     3
  0
LAYER
  5
E
330
2
100
AcDbSymbolTableRecord
100
AcDbLayerTableRecord
  2
0
 70
     0
 62
     7
  6
CONTINUOUS
370
    -3
390
1C88
  0
LAYER
  5
37
330
2
100
AcDbSymbolTableRecord
100
AcDbLayerTableRecord
  2
DIM
 70
     0
 62
     5
  6
CONTINUOUS
370
    -3
390
1C88
  0
LAYER
  5
42
330
2
100
AcDbSymbolTableRecord
100
AcDbLayerTableRecord
  2
DEFPOINTS
 70
     0
 62
     7
  6
CONTINUOUS
290
     0
370
    -3
390
1C88
  0
ENDTAB
  0
TABLE
  2
STYLE
  5
3
330
0
100
AcDbSymbolTable
 70
     1
  0
STYLE
  5
F
330
3
100
AcDbSymbolTableRecord
100
AcDbTextStyleTableRecord
  2
STANDARD
 70
     0
 40
0.0
 41
1.0
 50
0.0
 71
     0
 42
0.225
  3
TXT
  4

  0
ENDTAB
  0
TABLE
  2
VIEW
  5
6
330
0
100
AcDbSymbolTable
 70
     0
  0
ENDTAB
  0
TABLE
  2
UCS
  5
7
330
0
100
AcDbSymbolTable
 70
     0
  0
ENDTAB
  0
TABLE
  2
APPID
  5
9
330
0
100
AcDbSymbolTable
 70
     4
  0
APPID
  5
10
330
9
100
AcDbSymbolTableRecord
100
AcDbRegAppTableRecord
  2
ACAD
 70
     0
  0
APPID
  5
BAB
330
9
100
AcDbSymbolTableRecord
100
AcDbRegAppTableRecord
  2
RAK
 70
     0
  0
APPID
  5
2C4B
330
9
100
AcDbSymbolTableRecord
100
AcDbRegAppTableRecord
  2
DCO15
 70
     0
  0
APPID
  5
2C73
330
9
100
AcDbSymbolTableRecord
100
AcDbRegAppTableRecord
  2
ACAD_PSEXT
 70
     0
  0
ENDTAB
  0
TABLE
  2
DIMSTYLE
  5
A
330
0
100
AcDbSymbolTable
 70
     1
100
AcDbDimStyleTable
  0
DIMSTYLE
105
4F1
330
A
100
AcDbSymbolTableRecord
100
AcDbDimStyleTableRecord
  2
STANDARD
 70
     0
  3

  4

340
F
  0
ENDTAB
  0
TABLE
  2
BLOCK_RECORD
  5
1
330
0
100
AcDbSymbolTable
 70
     0
  0
BLOCK_RECORD
  5
17
330
1
100
AcDbSymbolTableRecord
100
AcDbBlockTableRecord
  2
*MODEL_SPACE
340
1C8B
  0
BLOCK_RECORD
  5
14
330
1
100
AcDbSymbolTableRecord
100
AcDbBlockTableRecord
  2
*PAPER_SPACE
340
1C8C
  0
ENDTAB
  0
ENDSEC
  0
SECTION
  2
BLOCKS
  0
BLOCK
  5
46
330
17
100
AcDbEntity
  8
0
100
AcDbBlockBegin
  2
*MODEL_SPACE
 70
     0
 10
0.0
 20
0.0
 30
0.0
  3
*MODEL_SPACE
  1

  4

  0
ENDBLK
  5
47
330
17
100
AcDbEntity
  8
0
100
AcDbBlockEnd
  0
BLOCK
  5
44
330
14
100
AcDbEntity
 67
     1
  8
0
100
AcDbBlockBegin
  2
*PAPER_SPACE
 70
     0
 10
0.0
 20
0.0
 30
0.0
  3
*PAPER_SPACE
  1

  4

  0
ENDBLK
  5
45
330
14
100
AcDbEntity
 67
     1
  8
0
100
AcDbBlockEnd
  0
ENDSEC
  0
SECTION
  2
ENTITIES
  0
TEXT
  5
452
330
17
100
AcDbEntity
  8
DIM
100
AcDbText
 10
4.963078137820027
 20
11.48520864041386
 30
0.0
 40
0.225
  1
   
 11
4.963078137820027
 21
11.59770864041386
 31
0.0
100
AcDbText
 73
     2
  0
TEXT
  5
4D3
330
17
100
AcDbEntity
  8
DIM
100
AcDbText
 10
17.51184083110283
 20
8.531399736162047
 30
0.0
 40
0.225
  1
   
 72
     1
 11
17.84934083110283
 21
8.643899736162048
 31
0.0
100
AcDbText
 73
     2
  0
LINE
  5
2CF4
330
17
100
AcDbEntity
  8
0
100
AcDbLine
 10
1.5625
 20
0.0000000000000071
 30
0.0
 11
0.3125000000002274
 21
0.0000000000000071
 31
0.0
  0
LINE
  5
2CF5
330
17
100
AcDbEntity
  8
0
  6
Continuous
100
AcDbLine
 10
1.662499999999966
 20
0.1000000000000085
 30
0.0
 11
-1.662499999999966
 21
0.1000000000000085
 31
0.0
  0
LINE
  5
2CF6
330
17
100
AcDbEntity
  8
0
100
AcDbLine
 10
1.662499999999966
 20
0.0
 30
0.0
 11
-1.662499999999966
 21
0.0
 31
0.0
  0
LINE
  5
2CF7
330
17
100
AcDbEntity
  8
0
100
AcDbLine
 10
-1.912499999999966
 20
5.600000000000005
 30
0.0
 11
1.912500000000023
 21
5.600000000000009
 31
0.0
  0
LINE
  5
2CF8
330
17
100
AcDbEntity
  8
0
100
AcDbLine
 10
1.912500000000023
 20
5.600000000000009
 30
0.0
 11
1.912500000000023
 21
0.3500000000000085
 31
0.0
  0
LINE
  5
2CF9
330
17
100
AcDbEntity
  8
0
  6
HIDDENX2
100
AcDbLine
 10
1.8125
 20
5.600000000000009
 30
0.0
 11
1.8125
 21
0.3500000000000085
 31
0.0
  0
ARC
  5
2CFA
330
17
100
AcDbEntity
  8
0
100
AcDbCircle
 10
1.5625
 20
0.3500000000000085
 30
0.0
 40
0.35
100
AcDbArc
 50
270.0
 51
0.000000000000007
  0
ARC
  5
2CFB
330
17
100
AcDbEntity
  8
0
100
AcDbCircle
 10
1.5625
 20
0.3500000000000085
 30
0.0
 40
0.25
100
AcDbArc
 50
270.0
 51
0.000000000000007
  0
ARC
  5
2CFC
330
17
100
AcDbEntity
  8
0
100
AcDbCircle
 10
1.8125
 20
0.2000000000000028
 30
0.0
 40
0.15
100
AcDbArc
 50
90.0
 51
180.0
  0
LINE
  5
2CFD
330
17
100
AcDbEntity
  8
0
100
AcDbLine
 10
1.662499999999966
 20
0.1000000000000085
 30
0.0
 11
1.662499999999966
 21
0.2000000000000028
 31
0.0
  0
LINE
  5
2CFE
330
17
100
AcDbEntity
  8
0
100
AcDbLine
 10
1.8125
 20
0.3500000000000085
 30
0.0
 11
1.912500000000023
 21
0.3500000000000085
 31
0.0
  0
LINE
  5
2CFF
330
17
100
AcDbEntity
  8
0
100
AcDbLine
 10
1.662499999999966
 20
0.1000000000000085
 30
0.0
 11
1.662499999999966
 21
0.0
 31
0.0
  0
CIRCLE
  5
2D00
330
17
100
AcDbEntity
  8
0
100
AcDbCircle
 10
0.0
 20
2.100000000000016
 30
0.0
 40
0.1325
  0
LINE
  5
2D01
330
17
100
AcDbEntity
  8
0
  6
HIDDENX2
100
AcDbLine
 10
-1.8125
 20
0.3500000000000085
 30
0.0
 11
-1.8125
 21
5.600000000000005
 31
0.0
  0
LINE
  5
2D02
330
17
100
AcDbEntity
  8
0
100
AcDbLine
 10
-1.912500000000023
 20
0.3500000000000085
 30
0.0
 11
-1.912499999999966
 21
5.600000000000005
 31
0.0
  0
LINE
  5
2D03
330
17
100
AcDbEntity
  8
0
100
AcDbLine
 10
-0.3125000000002274
 20
0.0000000000000142
 30
0.0
 11
-1.5625
 21
0.0000000000000142
 31
0.0
  0
LINE
  5
2D04
330
17
100
AcDbEntity
  8
0
100
AcDbLine
 10
0.3125000000002274
 20
0.1000000000000085
 30
0.0
 11
0.3125000000002274
 21
0.0000000000000071
 31
0.0
  0
LINE
  5
2D05
330
17
100
AcDbEntity
  8
0
100
AcDbLine
 10
-0.3125000000002274
 20
0.0000000000000142
 30
0.0
 11
-0.3125000000002274
 21
0.1000000000000156
 31
0.0
  0
LINE
  5
2D06
330
17
100
AcDbEntity
  8
0
100
AcDbLine
 10
-1.8125
 20
0.3500000000000085
 30
0.0
 11
-1.912500000000023
 21
0.3500000000000085
 31
0.0
  0
LINE
  5
2D07
330
17
100
AcDbEntity
  8
0
100
AcDbLine
 10
-1.662500000000023
 20
0.1000000000000085
 30
0.0
 11
-1.662500000000023
 21
0.2000000000000028
 31
0.0
  0
ARC
  5
2D08
330
17
100
AcDbEntity
  8
0
100
AcDbCircle
 10
-1.8125
 20
0.2000000000000028
 30
0.0
 40
0.15
100
AcDbArc
 50
0.000000000000007
 51
90.0
  0
LINE
  5
2D09
330
17
100
AcDbEntity
  8
0
100
AcDbLine
 10
-1.662499999999966
 20
0.1000000000000085
 30
0.0
 11
-1.662499999999966
 21
0.0
 31
0.0
  0
ARC
  5
2D0A
330
17
100
AcDbEntity
  8
0
100
AcDbCircle
 10
-1.5625
 20
0.3500000000000156
 30
0.0
 40
0.25
100
AcDbArc
 50
180.0
 51
270.0
  0
ARC
  5
2D0B
330
17
100
AcDbEntity
  8
0
100
AcDbCircle
 10
-1.5625
 20
0.3500000000000156
 30
0.0
 40
0.35
100
AcDbArc
 50
180.0
 51
270.0
  0
LINE
  5
2D0C
330
17
100
AcDbEntity
  8
0
100
AcDbLine
 10
0.59375
 20
0.6937499999999801
 30
0.0
 11
0.34375
 21
0.6937499999999801
 31
0.0
  0
LINE
  5
2D0D
330
17
100
AcDbEntity
  8
0
100
AcDbLine
 10
0.46875
 20
2.318749999999984
 30
0.0
 11
0.59375
 21
2.318749999999984
 31
0.0
  0
LINE
  5
2D0E
330
17
100
AcDbEntity
  8
0
100
AcDbLine
 10
0.34375
 20
2.131249999999984
 30
0.0
 11
0.46875
 21
2.318749999999984
 31
0.0
  0
LINE
  5
2D0F
330
17
100
AcDbEntity
  8
0
100
AcDbLine
 10
0.34375
 20
0.6937499999999801
 30
0.0
 11
0.34375
 21
2.131249999999984
 31
0.0
  0
LINE
  5
2D10
330
17
100
AcDbEntity
  8
0
  6
HIDDENX2
100
AcDbLine
 10
0.59375
 20
0.6937499999999801
 30
0.0
 11
0.59375
 21
2.318749999999984
 31
0.0
  0
LINE
  5
2D11
330
17
100
AcDbEntity
  8
0
100
AcDbLine
 10
-0.59375
 20
0.6937499999999801
 30
0.0
 11
-0.34375
 21
0.6937499999999801
 31
0.0
  0
LINE
  5
2D12
330
17
100
AcDbEntity
  8
0
100
AcDbLine
 10
-0.46875
 20
2.318749999999984
 30
0.0
 11
-0.59375
 21
2.318749999999984
 31
0.0
  0
LINE
  5
2D13
330
17
100
AcDbEntity
  8
0
100
AcDbLine
 10
-0.34375
 20
2.131249999999984
 30
0.0
 11
-0.46875
 21
2.318749999999984
 31
0.0
  0
LINE
  5
2D14
330
17
100
AcDbEntity
  8
0
  6
HIDDENX2
100
AcDbLine
 10
-0.59375
 20
0.6937499999999801
 30
0.0
 11
-0.59375
 21
2.318749999999984
 31
0.0
  0
LINE
  5
2D15
330
17
100
AcDbEntity
  8
0
100
AcDbLine
 10
-0.34375
 20
0.6937499999999801
 30
0.0
 11
-0.34375
 21
2.131249999999984
 31
0.0
  0
LINE
  5
2D16
330
17
100
AcDbEntity
  8
0
  6
HIDDENX2
100
AcDbLine
 10
-0.59375
 20
3.381249999999984
 30
0.0
 11
-0.59375
 21
5.006249999999984
 31
0.0
  0
LINE
  5
2D17
330
17
100
AcDbEntity
  8
0
100
AcDbLine
 10
-0.34375
 20
4.818749999999984
 30
0.0
 11
-0.34375
 21
3.381249999999984
 31
0.0
  0
LINE
  5
2D18
330
17
100
AcDbEntity
  8
0
100
AcDbLine
 10
0.34375
 20
3.381249999999984
 30
0.0
 11
0.34375
 21
4.818749999999984
 31
0.0
  0
LINE
  5
2D19
330
17
100
AcDbEntity
  8
0
  6
HIDDENX2
100
AcDbLine
 10
0.59375
 20
5.006249999999984
 30
0.0
 11
0.59375
 21
3.381249999999984
 31
0.0
  0
LINE
  5
2D1A
330
17
100
AcDbEntity
  8
0
100
AcDbLine
 10
0.59375
 20
3.381249999999984
 30
0.0
 11
0.34375
 21
3.381249999999984
 31
0.0
  0
CIRCLE
  5
2D1B
330
17
100
AcDbEntity
  8
0
100
AcDbCircle
 10
0.9375
 20
3.600000000000016
 30
0.0
 40
0.1325
  0
CIRCLE
  5
2D1C
330
17
100
AcDbEntity
  8
0
100
AcDbCircle
 10
-0.875
 20
3.100000000000016
 30
0.0
 40
0.1325
  0
LINE
  5
2D1D
330
17
100
AcDbEntity
  8
0
100
AcDbLine
 10
-0.34375
 20
3.381249999999984
 30
0.0
 11
-0.59375
 21
3.381249999999984
 31
0.0
  0
LINE
  5
2D1E
330
17
100
AcDbEntity
  8
0
100
AcDbLine
 10
0.46875
 20
5.006249999999984
 30
0.0
 11
0.59375
 21
5.006249999999984
 31
0.0
  0
LINE
  5
2D1F
330
17
100
AcDbEntity
  8
0
100
AcDbLine
 10
0.34375
 20
4.818749999999984
 30
0.0
 11
0.46875
 21
5.006249999999984
 31
0.0
  0
CIRCLE
  5
2D20
330
17
100
AcDbEntity
  8
0
100
AcDbCircle
 10
0.0
 20
4.600000000000016
 30
0.0
 40
0.1325
  0
LINE
  5
2D21
330
17
100
AcDbEntity
  8
0
100
AcDbLine
 10
-0.59375
 20
5.006249999999984
 30
0.0
 11
-0.46875
 21
5.006249999999984
 31
0.0
  0
LINE
  5
2D22
330
17
100
AcDbEntity
  8
0
100
AcDbLine
 10
-0.46875
 20
5.006249999999984
 30
0.0
 11
-0.34375
 21
4.818749999999984
 31
0.0
  0
ENDSEC
  0
SECTION
  2
OBJECTS
  0
DICTIONARY
  5
C
330
0
100
AcDbDictionary
281
     1
  3
ACAD_COLOR
350
2C63
  3
ACAD_GROUP
350
D
  3
ACAD_LAYOUT
350
1C89
  3
ACAD_MATERIAL
350
2C62
  3
ACAD_MLINESTYLE
350
1A
  3
ACAD_PLOTSETTINGS
350
1C8A
  3
ACAD_PLOTSTYLENAME
350
1C87
  3
ACAD_TABLESTYLE
350
2C64
  3
ACDBVARIABLEDICTIONARY
350
48
  3
ASE_INDEX_DICTIONARY
350
2C4A
  0
DICTIONARY
  5
2C74
330
2
100
AcDbDictionary
280
     1
281
     1
  3
ACAD_LAYERFILTERS
360
2D2C
  3
ACAD_LAYERSTATES
360
2C75
  3
ACLYDICTIONARY
360
2D2B
  0
DICTIONARY
  5
2C63
102
{ACAD_REACTORS
330
C
102
}
330
C
100
AcDbDictionary
281
     1
  0
DICTIONARY
  5
D
102
{ACAD_REACTORS
330
C
102
}
330
C
100
AcDbDictionary
281
     1
  0
DICTIONARY
  5
1C89
102
{ACAD_REACTORS
330
C
102
}
330
C
100
AcDbDictionary
281
     1
  3
Layout1
350
1C8C
  3
Model
350
1C8B
  0
DICTIONARY
  5
2C62
102
{ACAD_REACTORS
330
C
102
}
330
C
100
AcDbDictionary
281
     1
  0
DICTIONARY
  5
1A
102
{ACAD_REACTORS
330
C
102
}
330
C
100
AcDbDictionary
281
     1
  3
STANDARD
350
1B
  0
DICTIONARY
  5
1C8A
102
{ACAD_REACTORS
330
C
102
}
330
C
100
AcDbDictionary
281
     1
  0
ACDBDICTIONARYWDFLT
  5
1C87
102
{ACAD_REACTORS
330
C
102
}
330
C
100
AcDbDictionary
281
     1
  3
Normal
350
1C88
100
AcDbDictionaryWithDefault
340
1C88
  0
DICTIONARY
  5
2C64
102
{ACAD_REACTORS
330
C
102
}
330
C
100
AcDbDictionary
281
     1
  3
Standard
350
2C65
  0
DICTIONARY
  5
48
102
{ACAD_REACTORS
330
C
102
}
330
C
100
AcDbDictionary
281
     1
  3
CTABLESTYLE
350
2CE6
  3
DIMADEC
350
49
  3
DIMASSOC
350
2CEE
  0
DICTIONARY
  5
2C4A
102
{ACAD_REACTORS
330
C
102
}
330
C
100
AcDbDictionary
281
     1
  3
ASEBlockHierarchyIndexRecord
350
2C4C
1001
DCO15
1040
1577589709.667
  0
DICTIONARY
  5
2D2C
102
{ACAD_REACTORS
330
2C74
102
}
330
2C74
100
AcDbDictionary
281
     1
  0
DICTIONARY
  5
2C75
102
{ACAD_REACTORS
330
2C74
102
}
330
2C74
100
AcDbDictionary
281
     1
  0
DICTIONARY
  5
2D2B
102
{ACAD_REACTORS
330
2C74
102
}
330
2C74
100
AcDbDictionary
281
     1
1001
ACAD
1000
<All
  0
LAYOUT
  5
1C8C
102
{ACAD_REACTORS
330
1C89
102
}
330
1C89
100
AcDbPlotSettings
  1

  2
HP LaserJet 2100 Series PS
  4

  6

 40
0.0
 41
0.0
 42
0.0
 43
0.0
 44
0.0
 45
0.0
 46
0.0
 47
0.0
 48
0.0
 49
0.0
140
0.0
141
0.0
142
1.0
143
1.0
 70
   688
 72
     0
 73
     0
 74
     5
  7
monochrome.ctb
 75
    16
 76
     0
 77
     2
 78
   300
147
1.0
148
0.0
149
0.0
100
AcDbLayout
  1
Layout1
 70
     0
 71
     1
 10
0.0
 20
0.0
 11
12.0
 21
9.0
 12
0.0
 22
0.0
 32
0.0
 14
1.000000000000000E+20
 24
1.000000000000000E+20
 34
1.000000000000000E+20
 15
-1.000000000000000E+20
 25
-1.000000000000000E+20
 35
-1.000000000000000E+20
146
0.0
 13
0.0
 23
0.0
 33
0.0
 16
1.0
 26
0.0
 36
0.0
 17
0.0
 27
1.0
 37
0.0
 76
     0
330
14
  0
LAYOUT
  5
1C8B
102
{ACAD_REACTORS
330
1C89
102
}
330
1C89
100
AcDbPlotSettings
  1

  2
HP LaserJet 2100 Series PS
  4
Letter
  6

 40
5.365749835968018
 41
5.408073902130127
 42
5.132904052734375
 43
5.090576171875
 44
215.8999938964844
 45
279.3999938964844
 46
0.0
 47
0.0
 48
0.0
 49
0.0
140
0.0
141
0.0
142
1.0
143
2.975440689981091
 70
 11952
 72
     0
 73
     1
 74
     2
  7
monochrome.ctb
 75
     0
 76
     0
 77
     2
 78
   300
147
0.3360846691944497
148
0.0
149
0.0
100
AcDbLayout
  1
Model
 70
     1
 71
     0
 10
0.0
 20
0.0
 11
12.0
 21
9.0
 12
0.0
 22
0.0
 32
0.0
 14
0.0
 24
0.0
 34
0.0
 15
0.0
 25
0.0
 35
0.0
146
0.0
 13
0.0
 23
0.0
 33
0.0
 16
1.0
 26
0.0
 36
0.0
 17
0.0
 27
1.0
 37
0.0
 76
     0
330
17
  0
MLINESTYLE
  5
1B
102
{ACAD_REACTORS
330
1A
102
}
330
1A
100
AcDbMlineStyle
  2
STANDARD
 70
     0
  3

 62
   256
 51
90.0
 52
90.0
 71
     2
 49
0.5
 62
   256
  6
BYLAYER
 49
-0.5
 62
   256
  6
BYLAYER
  0
ACDBPLACEHOLDER
  5
1C88
102
{ACAD_REACTORS
330
1C87
102
}
330
1C87
  0
ACAD_PROXY_OBJECT
  5
2C65
102
{ACAD_REACTORS
330
2C64
102
}
330
2C64
100
AcDbProxyObject
 90
      499
 91
      521
 95
   983063
 70
     0
 93
     1841
310
4214DD185B99185C9928B81E85EB51B8AE3F2E07A17AD46E2B8FC02B5E8DC0F42B1CFD028000000C1008070000C3001FDFF8000000C1003FBFF000000182007F7FE00000030400FEFFC00000060801FDFF8000000C1003FBFF00000018200000000000000681FA0B0000001820100E000186003FBFF000000182007F7FE000
310
00030400FEFFC00000060801FDFF8000000C1003FBFF000000182007F7FE000000304000AD7A3703D0AC73F4160000003040201C00030C007F7FE00000030400FEFFC00000060801FDFF8000000C1003FBFF000000182007F7FE00000030400FEFFC000000608000
340
F
340
F
340
F
 94
        0
  0
DICTIONARYVAR
  5
2CE6
102
{ACAD_REACTORS
330
48
102
}
330
48
100
DictionaryVariables
280
     0
  1
STANDARD
  0
DICTIONARYVAR
  5
49
102
{ACAD_REACTORS
330
48
102
}
330
48
100
DictionaryVariables
280
     0
  1
0
  0
DICTIONARYVAR
  5
2CEE
102
{ACAD_REACTORS
330
48
102
}
330
48
100
DictionaryVariables
280
     0
  1
1
  0
XRECORD
  5
2C4C
102
{ACAD_REACTORS
330
2C4A
102
}
330
2C4A
100
AcDbXrecord
280
     1
330
0
330
0
330
0
  0
ENDSEC
  0
EOF
