  0
SECTION
  2
HEADER
  9
$ACADVER
  1
AC1018
  9
$ACADMAINTVER
 70
     6
  9
$DWGCODEPAGE
  3
ANSI_1252
  9
$INSBASE
 10
0.0
 20
0.0
 30
0.0
  9
$EXTMIN
 10
-11.15772565400756
 20
0.0
 30
0.0
  9
$EXTMAX
 10
11.09204022905828
 20
42.92557481628301
 30
0.0
  9
$LIMMIN
 10
0.0
 20
0.0
  9
$LIMMAX
 10
40.00000000000039
 20
52.50000000000051
  9
$ORTHOMODE
 70
     1
  9
$REGENMODE
 70
     1
  9
$FILLMODE
 70
     1
  9
$QTEXTMODE
 70
     0
  9
$MIRRTEXT
 70
     1
  9
$LTSCALE
 40
1.0
  9
$ATTMODE
 70
     1
  9
$TEXTSIZE
 40
0.45
  9
$TRACEWID
 40
0.05
  9
$TEXTSTYLE
  7
STANDARD
  9
$CLAYER
  8
0
  9
$CELTYPE
  6
BYLAYER
  9
$CECOLOR
 62
   256
  9
$CELTSCALE
 40
1.0
  9
$DISPSILH
 70
     0
  9
$DIMSCALE
 40
1.0
  9
$DIMASZ
 40
0.625000000000004
  9
$DIMEXO
 40
0.0625
  9
$DIMDLI
 40
0.375
  9
$DIMRND
 40
0.0
  9
$DIMDLE
 40
0.0
  9
$DIMEXE
 40
0.400000000000004
  9
$DIMTP
 40
0.0
  9
$DIMTM
 40
0.0
  9
$DIMTXT
 40
0.4000000000000039
  9
$DIMCEN
 40
-0.03125
  9
$DIMTSZ
 40
0.0
  9
$DIMTOL
 70
     0
  9
$DIMLIM
 70
     0
  9
$DIMTIH
 70
     1
  9
$DIMTOH
 70
     1
  9
$DIMSE1
 70
     0
  9
$DIMSE2
 70
     0
  9
$DIMTAD
 70
     0
  9
$DIMZIN
 70
     0
  9
$DIMBLK
  1

  9
$DIMASO
 70
     0
  9
$DIMSHO
 70
     0
  9
$DIMPOST
  1

  9
$DIMAPOST
  1

  9
$DIMALT
 70
     0
  9
$DIMALTD
 70
     2
  9
$DIMALTF
 40
25.4
  9
$DIMLFAC
 40
1.0
  9
$DIMTOFL
 70
     0
  9
$DIMTVP
 40
0.0
  9
$DIMTIX
 70
     0
  9
$DIMSOXD
 70
     0
  9
$DIMSAH
 70
     0
  9
$DIMBLK1
  1

  9
$DIMBLK2
  1

  9
$DIMSTYLE
  2
STANDARD
  9
$DIMCLRD
 70
     0
  9
$DIMCLRE
 70
     0
  9
$DIMCLRT
 70
     0
  9
$DIMTFAC
 40
1.0
  9
$DIMGAP
 40
0.09
  9
$DIMJUST
 70
     0
  9
$DIMSD1
 70
     0
  9
$DIMSD2
 70
     0
  9
$DIMTOLJ
 70
     1
  9
$DIMTZIN
 70
     0
  9
$DIMALTZ
 70
     0
  9
$DIMALTTZ
 70
     0
  9
$DIMUPT
 70
     0
  9
$DIMDEC
 70
     3
  9
$DIMTDEC
 70
     3
  9
$DIMALTU
 70
     2
  9
$DIMALTTD
 70
     2
  9
$DIMTXSTY
  7
STANDARD
  9
$DIMAUNIT
 70
     0
  9
$DIMADEC
 70
     0
  9
$DIMALTRND
 40
0.0
  9
$DIMAZIN
 70
     0
  9
$DIMDSEP
 70
    46
  9
$DIMATFIT
 70
     3
  9
$DIMFRAC
 70
     2
  9
$DIMLDRBLK
  1

  9
$DIMLUNIT
 70
     2
  9
$DIMLWD
 70
    -2
  9
$DIMLWE
 70
    -2
  9
$DIMTMOVE
 70
     2
  9
$LUNITS
 70
     2
  9
$LUPREC
 70
     3
  9
$SKETCHINC
 40
0.1
  9
$FILLETRAD
 40
0.0
  9
$AUNITS
 70
     0
  9
$AUPREC
 70
     0
  9
$MENU
  1
ACAD
  9
$ELEVATION
 40
0.0
  9
$PELEVATION
 40
0.0
  9
$THICKNESS
 40
0.0
  9
$LIMCHECK
 70
     0
  9
$CHAMFERA
 40
0.0
  9
$CHAMFERB
 40
0.0
  9
$CHAMFERC
 40
0.0
  9
$CHAMFERD
 40
0.0
  9
$SKPOLY
 70
     0
  9
$TDCREATE
 40
2449470.935140857
  9
$TDUCREATE
 40
2449471.26847419
  9
$TDUPDATE
 40
2454417.845512222
  9
$TDUUPDATE
 40
2454418.178845556
  9
$TDINDWG
 40
0.2748266204
  9
$TDUSRTIMER
 40
0.2748266204
  9
$USRTIMER
 70
     1
  9
$ANGBASE
 50
0.0
  9
$ANGDIR
 70
     0
  9
$PDMODE
 70
     0
  9
$PDSIZE
 40
0.0
  9
$PLINEWID
 40
0.0
  9
$SPLFRAME
 70
     0
  9
$SPLINETYPE
 70
     6
  9
$SPLINESEGS
 70
     8
  9
$HANDSEED
  5
180A
  9
$SURFTAB1
 70
     6
  9
$SURFTAB2
 70
     6
  9
$SURFTYPE
 70
     6
  9
$SURFU
 70
     6
  9
$SURFV
 70
     6
  9
$UCSBASE
  2

  9
$UCSNAME
  2

  9
$UCSORG
 10
0.0
 20
0.0
 30
0.0
  9
$UCSXDIR
 10
1.0
 20
0.0
 30
0.0
  9
$UCSYDIR
 10
0.0
 20
1.0
 30
0.0
  9
$UCSORTHOREF
  2

  9
$UCSORTHOVIEW
 70
     0
  9
$UCSORGTOP
 10
0.0
 20
0.0
 30
0.0
  9
$UCSORGBOTTOM
 10
0.0
 20
0.0
 30
0.0
  9
$UCSORGLEFT
 10
0.0
 20
0.0
 30
0.0
  9
$UCSORGRIGHT
 10
0.0
 20
0.0
 30
0.0
  9
$UCSORGFRONT
 10
0.0
 20
0.0
 30
0.0
  9
$UCSORGBACK
 10
0.0
 20
0.0
 30
0.0
  9
$PUCSBASE
  2

  9
$PUCSNAME
  2

  9
$PUCSORG
 10
0.0
 20
0.0
 30
0.0
  9
$PUCSXDIR
 10
1.0
 20
0.0
 30
0.0
  9
$PUCSYDIR
 10
0.0
 20
1.0
 30
0.0
  9
$PUCSORTHOREF
  2

  9
$PUCSORTHOVIEW
 70
     0
  9
$PUCSORGTOP
 10
0.0
 20
0.0
 30
0.0
  9
$PUCSORGBOTTOM
 10
0.0
 20
0.0
 30
0.0
  9
$PUCSORGLEFT
 10
0.0
 20
0.0
 30
0.0
  9
$PUCSORGRIGHT
 10
0.0
 20
0.0
 30
0.0
  9
$PUCSORGFRONT
 10
0.0
 20
0.0
 30
0.0
  9
$PUCSORGBACK
 10
0.0
 20
0.0
 30
0.0
  9
$USERI1
 70
     0
  9
$USERI2
 70
     0
  9
$USERI3
 70
     0
  9
$USERI4
 70
     0
  9
$USERI5
 70
     0
  9
$USERR1
 40
0.0
  9
$USERR2
 40
0.0
  9
$USERR3
 40
0.0
  9
$USERR4
 40
0.0
  9
$USERR5
 40
0.0
  9
$WORLDVIEW
 70
     1
  9
$SHADEDGE
 70
     3
  9
$SHADEDIF
 70
    70
  9
$TILEMODE
 70
     1
  9
$MAXACTVP
 70
    16
  9
$PINSBASE
 10
0.0
 20
0.0
 30
0.0
  9
$PLIMCHECK
 70
     0
  9
$PEXTMIN
 10
1.000000000000000E+20
 20
1.000000000000000E+20
 30
1.000000000000000E+20
  9
$PEXTMAX
 10
-1.000000000000000E+20
 20
-1.000000000000000E+20
 30
-1.000000000000000E+20
  9
$PLIMMIN
 10
0.0
 20
0.0
  9
$PLIMMAX
 10
12.0
 20
9.0
  9
$UNITMODE
 70
     0
  9
$VISRETAIN
 70
     0
  9
$PLINEGEN
 70
     1
  9
$PSLTSCALE
 70
     0
  9
$TREEDEPTH
 70
  3020
  9
$CMLSTYLE
  2
STANDARD
  9
$CMLJUST
 70
     0
  9
$CMLSCALE
 40
1.0
  9
$PROXYGRAPHICS
 70
     1
  9
$MEASUREMENT
 70
     0
  9
$CELWEIGHT
370
    -1
  9
$ENDCAPS
280
     0
  9
$JOINSTYLE
280
     0
  9
$LWDISPLAY
290
     0
  9
$INSUNITS
 70
     0
  9
$HYPERLINKBASE
  1

  9
$STYLESHEET
  1
monochrome.ctb
  9
$XEDIT
290
     1
  9
$CEPSNTYPE
380
     0
  9
$PSTYLEMODE
290
     1
  9
$FINGERPRINTGUID
  2
{FF15D867-C4A4-11D5-BE3F-00508B5FCD51}
  9
$VERSIONGUID
  2
{D19B339E-BE3A-42CE-821C-2FCAAE6AD289}
  9
$EXTNAMES
290
     1
  9
$PSVPSCALE
 40
0.0
  9
$OLESTARTUP
290
     0
  9
$SORTENTS
280
   127
  9
$INDEXCTL
280
     0
  9
$HIDETEXT
280
     1
  9
$XCLIPFRAME
290
     0
  9
$HALOGAP
280
     0
  9
$OBSCOLOR
 70
   257
  9
$OBSLTYPE
280
     0
  9
$INTERSECTIONDISPLAY
280
     0
  9
$INTERSECTIONCOLOR
 70
   257
  9
$DIMASSOC
280
     0
  9
$PROJECTNAME
  1

  0
ENDSEC
  0
SECTION
  2
CLASSES
  0
CLASS
  1
DICTIONARYVAR
  2
AcDbDictionaryVar
  3
AutoCAD 2000
 90
        0
 91
        1
280
     0
281
     0
  0
CLASS
  1
LWPOLYLINE
  2
AcDbPolyline
  3
AutoCAD 2000
 90
        0
 91
        8
280
     0
281
     1
  0
CLASS
  1
ACDBDICTIONARYWDFLT
  2
AcDbDictionaryWithDefault
  3
AutoCAD 2000
 90
        0
 91
        1
280
     0
281
     0
  0
CLASS
  1
ACDBPLACEHOLDER
  2
AcDbPlaceHolder
  3
ObjectDBX Classes
 90
        0
 91
        3
280
     0
281
     0
  0
CLASS
  1
LAYOUT
  2
AcDbLayout
  3
ObjectDBX Classes
 90
        0
 91
        3
280
     0
281
     0
  0
CLASS
  1
LONG_TRANSACTION
  2
AcDbLongTransaction
  3
ObjectDBX Classes
 90
   -65536
 91
        5
280
     1
281
     0
  0
CLASS
  1
LWPOLYLINE
  2
AcDbPolyline
  3
AutoCAD 2000
 90
        0
 91
        8
280
     0
281
     1
  0
CLASS
  1
HATCH
  2
AcDbHatch
  3
AutoCAD 2000
 90
        0
 91
        7
280
     0
281
     1
  0
CLASS
  1
XRECORD
  2
AcDbXrecord
  3
AutoCAD 2000
 90
        0
 91
        7
280
     0
281
     0
  0
CLASS
  1
LONG_TRANSACTION
  2
AcDbLongTransaction
  3
ObjectDBX Classes
 90
   -65536
 91
        5
280
     1
281
     0
  0
CLASS
  1
LWPOLYLINE
  2
AcDbPolyline
  3
AutoCAD 2000
 90
        0
 91
        8
280
     0
281
     1
  0
CLASS
  1
HATCH
  2
AcDbHatch
  3
AutoCAD 2000
 90
        0
 91
        7
280
     0
281
     1
  0
CLASS
  1
XRECORD
  2
AcDbXrecord
  3
AutoCAD 2000
 90
        0
 91
        7
280
     0
281
     0
  0
CLASS
  1
LONG_TRANSACTION
  2
AcDbLongTransaction
  3
ObjectDBX Classes
 90
   -65536
 91
        5
280
     1
281
     0
  0
CLASS
  1
LWPOLYLINE
  2
AcDbPolyline
  3
AutoCAD 2000
 90
        0
 91
        8
280
     0
281
     1
  0
CLASS
  1
HATCH
  2
AcDbHatch
  3
AutoCAD 2000
 90
        0
 91
        7
280
     0
281
     1
  0
CLASS
  1
XRECORD
  2
AcDbXrecord
  3
AutoCAD 2000
 90
        0
 91
        7
280
     0
281
     0
  0
CLASS
  1
LONG_TRANSACTION
  2
AcDbLongTransaction
  3
ObjectDBX Classes
 90
   -65536
 91
        5
280
     1
281
     0
  0
CLASS
  1
LWPOLYLINE
  2
AcDbPolyline
  3
AutoCAD 2000
 90
        0
 91
        8
280
     0
281
     1
  0
CLASS
  1
HATCH
  2
AcDbHatch
  3
AutoCAD 2000
 90
        0
 91
        7
280
     0
281
     1
  0
CLASS
  1
XRECORD
  2
AcDbXrecord
  3
AutoCAD 2000
 90
        0
 91
        7
280
     0
281
     0
  0
CLASS
  1
LONG_TRANSACTION
  2
AcDbLongTransaction
  3
ObjectDBX Classes
 90
   -65536
 91
        5
280
     1
281
     0
  0
CLASS
  1
LWPOLYLINE
  2
AcDbPolyline
  3
AutoCAD 2000
 90
        0
 91
        8
280
     0
281
     1
  0
CLASS
  1
HATCH
  2
AcDbHatch
  3
AutoCAD 2000
 90
        0
 91
        7
280
     0
281
     1
  0
CLASS
  1
XRECORD
  2
AcDbXrecord
  3
AutoCAD 2000
 90
        0
 91
        7
280
     0
281
     0
  0
CLASS
  1
TABLESTYLE
  2
AcDbTableStyle
  3
ObjectDBX Classes
 90
     2047
 91
        2
280
     1
281
     0
  0
CLASS
  1
SORTENTSTABLE
  2
AcDbSortentsTable
  3
AutoCAD 2000
 90
        0
 91
        1
280
     0
281
     0
  0
ENDSEC
  0
SECTION
  2
TABLES
  0
TABLE
  2
VPORT
  5
8
330
0
100
AcDbSymbolTable
 70
     3
  0
VPORT
  5
1804
330
8
100
AcDbSymbolTableRecord
100
AcDbViewportTableRecord
  2
*Active
 70
     0
 10
0.0
 20
0.0
 11
1.0
 21
1.0
 12
5.88999534886166
 22
20.25997393111731
 13
0.0
 23
0.0
 14
0.0625
 24
0.0625
 15
0.25
 25
0.25
 16
0.0
 26
0.0
 36
1.0
 17
0.0
 27
0.0
 37
0.0
 40
57.95453417186304
 41
1.78118609406953
 42
50.0
 43
0.0
 44
0.0
 50
0.0
 51
0.0
 71
     0
 72
   100
 73
     1
 74
     0
 75
     0
 76
     0
 77
     0
 78
     2
281
     0
 65
     1
110
0.0
120
0.0
130
0.0
111
1.0
121
0.0
131
0.0
112
0.0
122
1.0
132
0.0
 79
     0
146
0.0
  0
ENDTAB
  0
TABLE
  2
LTYPE
  5
5
330
0
100
AcDbSymbolTable
 70
     4
  0
LTYPE
  5
11
330
5
100
AcDbSymbolTableRecord
100
AcDbLinetypeTableRecord
  2
BYBLOCK
 70
     0
  3

 72
    65
 73
     0
 40
0.0
  0
LTYPE
  5
12
330
5
100
AcDbSymbolTableRecord
100
AcDbLinetypeTableRecord
  2
BYLAYER
 70
     0
  3

 72
    65
 73
     0
 40
0.0
  0
LTYPE
  5
13
330
5
100
AcDbSymbolTableRecord
100
AcDbLinetypeTableRecord
  2
CONTINUOUS
 70
     0
  3
Solid line
 72
    65
 73
     0
 40
0.0
  0
LTYPE
  5
31
330
5
100
AcDbSymbolTableRecord
100
AcDbLinetypeTableRecord
  2
HIDDEN
 70
     0
  3
_ _ _ _ _ _ _ _ _ _ _ _ _ _ _ _ _ _ _ _ _ _ _
 72
    65
 73
     2
 40
0.375
 49
0.25
 74
     0
 49
-0.125
 74
     0
  0
LTYPE
  5
E36
330
5
100
AcDbSymbolTableRecord
100
AcDbLinetypeTableRecord
  2
HIDDEN2
 70
     0
  3
Hidden (.5x) _ _ _ _ _ _ _ _ _ _ _ _ _ _ _ _ _
 72
    65
 73
     2
 40
0.1875
 49
0.125
 74
     0
 49
-0.0625
 74
     0
  0
LTYPE
  5
E37
330
5
100
AcDbSymbolTableRecord
100
AcDbLinetypeTableRecord
  2
HIDDENX2
 70
     0
  3
Hidden (2x) ____ ____ ____ ____ ____ ____ ____
 72
    65
 73
     2
 40
0.75
 49
0.5
 74
     0
 49
-0.25
 74
     0
  0
ENDTAB
  0
TABLE
  2
LAYER
  5
2
102
{ACAD_XDICTIONARY
360
1719
102
}
330
0
100
AcDbSymbolTable
 70
     2
  0
LAYER
  5
E
330
2
100
AcDbSymbolTableRecord
100
AcDbLayerTableRecord
  2
0
 70
     0
 62
     7
  6
CONTINUOUS
370
    -3
390
77F
  0
LAYER
  5
44
330
2
100
AcDbSymbolTableRecord
100
AcDbLayerTableRecord
  2
REV
 70
     0
 62
     1
  6
CONTINUOUS
370
    -3
390
77F
  0
ENDTAB
  0
TABLE
  2
STYLE
  5
3
330
0
100
AcDbSymbolTable
 70
     1
  0
STYLE
  5
F
330
3
100
AcDbSymbolTableRecord
100
AcDbTextStyleTableRecord
  2
STANDARD
 70
     0
 40
0.0
 41
1.0
 50
0.0
 71
     0
 42
0.45
  3
TXT
  4

  0
ENDTAB
  0
TABLE
  2
VIEW
  5
6
330
0
100
AcDbSymbolTable
 70
     4
  0
VIEW
  5
36
330
6
100
AcDbSymbolTableRecord
100
AcDbViewTableRecord
  2
OFFICE
 70
     0
 40
29.48222486767885
 10
17.06329679325278
 20
33.92007789039313
 41
1.0
 11
0.0
 21
0.0
 31
1.0
 12
0.0
 22
0.0
 32
0.0
 42
50.0
 43
0.0
 44
0.0
 50
0.0
 71
     0
281
     0
 72
     0
  0
VIEW
  5
37
330
6
100
AcDbSymbolTableRecord
100
AcDbViewTableRecord
  2
ENTRY
 70
     0
 40
16.29324250401398
 10
11.76005157754474
 20
14.85268778713302
 41
1.0
 11
0.0
 21
0.0
 31
1.0
 12
0.0
 22
0.0
 32
0.0
 42
50.0
 43
0.0
 44
0.0
 50
0.0
 71
     0
281
     0
 72
     0
  0
VIEW
  5
38
330
6
100
AcDbSymbolTableRecord
100
AcDbViewTableRecord
  2
MEN
 70
     0
 40
7.375
 10
14.84375
 20
48.8125
 41
9.4375
 11
0.0
 21
0.0
 31
1.0
 12
0.0
 22
0.0
 32
0.0
 42
50.0
 43
0.0
 44
0.0
 50
0.0
 71
     0
281
     0
 72
     0
  0
VIEW
  5
39
330
6
100
AcDbSymbolTableRecord
100
AcDbViewTableRecord
  2
PRINTER
 70
     0
 40
52.5
 10
20.15625
 20
26.25
 41
40.3125
 11
0.0
 21
0.0
 31
1.0
 12
0.0
 22
0.0
 32
0.0
 42
50.0
 43
0.0
 44
0.0
 50
0.0
 71
     0
281
     0
 72
     0
  0
ENDTAB
  0
TABLE
  2
UCS
  5
7
330
0
100
AcDbSymbolTable
 70
     0
  0
ENDTAB
  0
TABLE
  2
APPID
  5
9
330
0
100
AcDbSymbolTable
 70
     3
  0
APPID
  5
10
330
9
100
AcDbSymbolTableRecord
100
AcDbRegAppTableRecord
  2
ACAD
 70
     0
  0
APPID
  5
140B
330
9
100
AcDbSymbolTableRecord
100
AcDbRegAppTableRecord
  2
DCO15
 70
     0
  0
APPID
  5
146D
330
9
100
AcDbSymbolTableRecord
100
AcDbRegAppTableRecord
  2
ACAD_PSEXT
 70
     0
  0
ENDTAB
  0
TABLE
  2
DIMSTYLE
  5
A
330
0
100
AcDbSymbolTable
 70
     1
100
AcDbDimStyleTable
  0
DIMSTYLE
105
73B
330
A
100
AcDbSymbolTableRecord
100
AcDbDimStyleTableRecord
  2
STANDARD
 70
     0
  3

  4

340
F
  0
ENDTAB
  0
TABLE
  2
BLOCK_RECORD
  5
1
330
0
100
AcDbSymbolTable
 70
     0
  0
BLOCK_RECORD
  5
17
330
1
100
AcDbSymbolTableRecord
100
AcDbBlockTableRecord
  2
*MODEL_SPACE
340
782
  0
BLOCK_RECORD
  5
14
330
1
100
AcDbSymbolTableRecord
100
AcDbBlockTableRecord
  2
*PAPER_SPACE
340
783
  0
ENDTAB
  0
ENDSEC
  0
SECTION
  2
BLOCKS
  0
BLOCK
  5
5A
330
17
100
AcDbEntity
  8
0
100
AcDbBlockBegin
  2
*MODEL_SPACE
 70
     0
 10
0.0
 20
0.0
 30
0.0
  3
*MODEL_SPACE
  1

  4

  0
ENDBLK
  5
5B
330
17
100
AcDbEntity
  8
0
100
AcDbBlockEnd
  0
BLOCK
  5
58
330
14
100
AcDbEntity
 67
     1
  8
0
100
AcDbBlockBegin
  2
*PAPER_SPACE
 70
     0
 10
0.0
 20
0.0
 30
0.0
  3
*PAPER_SPACE
  1

  4

  0
ENDBLK
  5
59
330
14
100
AcDbEntity
 67
     1
  8
0
100
AcDbBlockEnd
  0
ENDSEC
  0
SECTION
  2
ENTITIES
  0
TEXT
  5
725
330
17
100
AcDbEntity
  8
REV
100
AcDbText
 10
30.9943797431806
 20
8.303825210395837
 30
0.0
 40
0.4
  1

100
AcDbText
  0
CIRCLE
  5
108E
330
17
100
AcDbEntity
  8
0
100
AcDbCircle
 10
-1.33400527481227
 20
33.87499999999994
 30
0.0
 40
0.1325
  0
CIRCLE
  5
1091
330
17
100
AcDbEntity
  8
0
100
AcDbCircle
 10
-0.6465052748122702
 20
31.24999999999994
 30
0.0
 40
0.1325
  0
CIRCLE
  5
1096
330
17
100
AcDbEntity
  8
0
100
AcDbCircle
 10
-0.2090052748122702
 20
32.86306876064479
 30
0.0
 40
0.28125
  0
LINE
  5
10D0
330
17
100
AcDbEntity
  8
0
100
AcDbLine
 10
-2.12153027481223
 20
34.87499999999995
 30
0.0
 11
-2.12153027481223
 21
29.52499999999996
 31
0.0
  0
LINE
  5
10D1
330
17
100
AcDbEntity
  8
0
100
AcDbLine
 10
-2.021530274812236
 20
34.87499999999994
 30
0.0
 11
-2.021530274812236
 21
29.52499999999996
 31
0.0
  0
LINE
  5
10D2
330
17
100
AcDbEntity
  8
0
100
AcDbLine
 10
1.640969725187759
 20
34.87499999999994
 30
0.0
 11
1.640969725187745
 21
29.52499999999998
 31
0.0
  0
LINE
  5
10D3
330
17
100
AcDbEntity
  8
0
  6
HIDDENX2
100
AcDbLine
 10
1.540969725187765
 20
34.87499999999994
 30
0.0
 11
1.54096972518775
 21
29.52499999999998
 31
0.0
  0
LINE
  5
10D4
330
17
100
AcDbEntity
  8
0
  6
Continuous
 48
0.25
100
AcDbLine
 10
1.143791965793213
 20
29.37500000000001
 30
0.0
 11
-1.592738252977881
 21
29.375
 31
0.0
  0
LINE
  5
10D5
330
17
100
AcDbEntity
  8
0
100
AcDbLine
 10
0.3909947251877526
 20
28.992994885844
 30
0.0
 11
-0.8715052748122787
 21
28.992994885844
 31
0.0
  0
ARC
  5
10D6
330
17
100
AcDbEntity
  8
0
100
AcDbCircle
 10
1.390969725187745
 20
29.52499999999996
 30
0.0
 40
0.25
100
AcDbArc
 50
284.9999999999995
 51
0.000000000000007
  0
LINE
  5
10D7
330
17
100
AcDbEntity
  8
0
100
AcDbLine
 10
1.64096972518773
 20
29.52499999999996
 30
0.0
 11
1.390994725187738
 21
29.52499999999999
 31
0.0
  0
LINE
  5
10D8
330
17
100
AcDbEntity
  8
0
  6
HIDDEN
100
AcDbLine
 10
1.429792581953137
 20
29.3801111260566
 30
0.0
 11
0.3455435310500263
 21
29.08958746847291
 31
0.0
  0
LINE
  5
10D9
330
17
100
AcDbEntity
  8
0
100
AcDbLine
 10
1.455674486463366
 20
29.28351854342768
 30
0.0
 11
0.3714254355602691
 21
28.992994885844
 31
0.0
  0
LINE
  5
10DA
330
17
100
AcDbEntity
  8
0
100
AcDbLine
 10
1.390994725187738
 20
29.37499999999993
 30
0.0
 11
0.3909947251877526
 21
28.992994885844
 31
0.0
  0
ARC
  5
10DB
330
17
100
AcDbEntity
  8
0
100
AcDbCircle
 10
1.390969725187745
 20
29.52499999999996
 30
0.0
 40
0.15
100
AcDbArc
 50
285.0000000000004
 51
0.000000000000007
  0
LINE
  5
10DC
330
17
100
AcDbEntity
  8
0
100
AcDbLine
 10
1.390994725187738
 20
29.52499999999999
 30
0.0
 11
1.390994725187738
 21
29.37499999999993
 31
0.0
  0
LINE
  5
10DD
330
17
100
AcDbEntity
  8
0
  6
HIDDEN
100
AcDbLine
 10
0.3714254355602691
 20
28.992994885844
 30
0.0
 11
0.3455435310500263
 21
29.08958746847291
 31
0.0
  0
LINE
  5
10DE
330
17
100
AcDbEntity
  8
0
  6
HIDDEN
100
AcDbLine
 10
-1.910353131577622
 20
29.3801111260566
 30
0.0
 11
-0.8261040806745115
 21
29.08958746847291
 31
0.0
  0
LINE
  5
10DF
330
17
100
AcDbEntity
  8
0
100
AcDbLine
 10
-1.871555274812224
 20
29.37499999999993
 30
0.0
 11
-0.8715052748122787
 21
28.992994885844
 31
0.0
  0
LINE
  5
10E0
330
17
100
AcDbEntity
  8
0
100
AcDbLine
 10
-1.936235036087837
 20
29.28351854342768
 30
0.0
 11
-0.8519859851847542
 21
28.992994885844
 31
0.0
  0
LINE
  5
10E1
330
17
100
AcDbEntity
  8
0
  6
HIDDEN
100
AcDbLine
 10
-0.8519859851847542
 20
28.992994885844
 30
0.0
 11
-0.8261040806745115
 21
29.08958746847291
 31
0.0
  0
LINE
  5
10E2
330
17
100
AcDbEntity
  8
0
100
AcDbLine
 10
-1.871555274812224
 20
29.52499999999999
 30
0.0
 11
-1.871555274812224
 21
29.37499999999993
 31
0.0
  0
LINE
  5
10E3
330
17
100
AcDbEntity
  8
0
100
AcDbLine
 10
-2.121530274812216
 20
29.52499999999996
 30
0.0
 11
-1.871555274812224
 21
29.52499999999999
 31
0.0
  0
ARC
  5
10E4
330
17
100
AcDbEntity
  8
0
100
AcDbCircle
 10
-1.87153027481223
 20
29.52499999999996
 30
0.0
 40
0.15
100
AcDbArc
 50
180.0
 51
254.9999999999996
  0
ARC
  5
10E5
330
17
100
AcDbEntity
  8
0
100
AcDbCircle
 10
-1.87153027481223
 20
29.52499999999996
 30
0.0
 40
0.25
100
AcDbArc
 50
180.0
 51
255.0000000000005
  0
CIRCLE
  5
10E7
330
17
100
AcDbEntity
  8
0
  6
HIDDEN2
100
AcDbCircle
 10
0.4784947251877298
 20
31.49999999999996
 30
0.0
 40
0.1145
  0
CIRCLE
  5
10E9
330
17
100
AcDbEntity
  8
0
  6
HIDDEN2
100
AcDbCircle
 10
-0.959005274812256
 20
31.49999999999996
 30
0.0
 40
0.1145
  0
LINE
  5
10EC
330
17
100
AcDbEntity
  8
0
100
AcDbLine
 10
-2.12153027481223
 20
34.87499999999995
 30
0.0
 11
1.640969725187745
 21
34.87499999999994
 31
0.0
  0
CIRCLE
  5
10ED
330
17
100
AcDbEntity
  8
0
  6
HIDDEN2
100
AcDbCircle
 10
0.4784947251877298
 20
34.12499999999996
 30
0.0
 40
0.1145
  0
CIRCLE
  5
10F0
330
17
100
AcDbEntity
  8
0
  6
HIDDEN2
100
AcDbCircle
 10
-0.959005274812256
 20
34.12499999999996
 30
0.0
 40
0.1145
  0
LINE
  5
10F1
330
17
100
AcDbEntity
  8
0
 48
0.25
100
AcDbLine
 10
-1.509080274812206
 20
34.87499999999994
 30
0.0
 11
-2.009080274812206
 21
34.37499999999994
 31
0.0
  0
CIRCLE
  5
1271
330
17
100
AcDbEntity
  8
0
100
AcDbCircle
 10
0.4784947251877298
 20
31.49999999999996
 30
0.0
 40
0.156
  0
CIRCLE
  5
1273
330
17
100
AcDbEntity
  8
0
100
AcDbCircle
 10
-0.959005274812256
 20
31.49999999999996
 30
0.0
 40
0.156
  0
CIRCLE
  5
1274
330
17
100
AcDbEntity
  8
0
100
AcDbCircle
 10
0.4784947251877298
 20
34.12499999999996
 30
0.0
 40
0.156
  0
CIRCLE
  5
1275
330
17
100
AcDbEntity
  8
0
100
AcDbCircle
 10
-0.959005274812256
 20
34.12499999999996
 30
0.0
 40
0.156
  0
LINE
  5
1776
330
17
100
AcDbEntity
  8
0
100
AcDbLine
 10
-1.709851325933428
 20
29.2313302272023
 30
0.0
 11
-0.5224446465236952
 21
0.0
 31
0.0
  0
LINE
  5
1777
330
17
100
AcDbEntity
  8
0
100
AcDbLine
 10
-0.5931553246425665
 20
0.0
 30
0.0
 11
-1.781340114593771
 21
29.25048559039171
 31
0.0
  0
LINE
  5
1778
330
17
100
AcDbEntity
  8
0
100
AcDbLine
 10
-0.2415087248470229
 20
29.375
 30
0.0
 11
-0.2415087248470087
 21
13.01515847033037
 31
0.0
  0
LINE
  5
1779
330
17
100
AcDbEntity
  8
0
  6
HIDDENX2
100
AcDbLine
 10
-0.341508724847003
 20
29.375
 30
0.0
 11
-0.3415087248469888
 21
0.0
 31
0.0
  0
LINE
  5
177A
330
17
100
AcDbEntity
  8
0
  6
HIDDENX2
100
AcDbLine
 10
-0.0758232998977917
 20
29.375
 30
0.0
 11
-0.0758232998977917
 21
0.0
 31
0.0
  0
LINE
  5
177B
330
17
100
AcDbEntity
  8
0
100
AcDbLine
 10
-0.1758232998977576
 20
29.375
 30
0.0
 11
-0.1758232998977718
 21
13.01515847033037
 31
0.0
  0
LINE
  5
177C
330
17
100
AcDbEntity
  8
0
100
AcDbLine
 10
0.175823299897786
 20
0.0
 30
0.0
 11
1.36400808984898
 21
29.25048559039173
 31
0.0
  0
LINE
  5
177D
330
17
100
AcDbEntity
  8
0
100
AcDbLine
 10
1.292519301188634
 20
29.23133022720232
 30
0.0
 11
0.1051126217789147
 21
0.0
 31
0.0
  0
LINE
  5
177E
330
17
100
AcDbEntity
  8
0
100
AcDbLine
 10
0.175823299897786
 20
0.0
 30
0.0
 11
-0.175823299897786
 21
0.0
 31
0.0
  0
LINE
  5
177F
330
17
100
AcDbEntity
  8
0
100
AcDbLine
 10
-0.5931553246425665
 20
0.0
 30
0.0
 11
-0.2415087248469945
 21
0.0
 31
0.0
  0
ARC
  5
1780
330
17
100
AcDbEntity
  8
0
100
AcDbCircle
 10
-0.1391535532844657
 20
12.09654492450355
 30
0.0
 40
0.1440914856623236
100
AcDbArc
 50
91.51187957473381
 51
180.3198368415856
  0
ARC
  5
1781
330
17
100
AcDbEntity
  8
0
100
AcDbCircle
 10
-0.1391535532844657
 20
11.94157983951855
 30
0.0
 40
0.1440914856623236
100
AcDbArc
 50
91.51187957473381
 51
180.3198368415856
  0
ARC
  5
1782
330
17
100
AcDbEntity
  8
0
100
AcDbCircle
 10
-0.139153553284455
 20
11.78661475453355
 30
0.0
 40
0.1440914856623236
100
AcDbArc
 50
91.51187957473381
 51
180.3198368415856
  0
ARC
  5
1783
330
17
100
AcDbEntity
  8
0
100
AcDbCircle
 10
-0.1391535532844657
 20
12.71640526444356
 30
0.0
 40
0.1440914856623236
100
AcDbArc
 50
91.51187957473381
 51
180.3198368415856
  0
ARC
  5
1784
330
17
100
AcDbEntity
  8
0
100
AcDbCircle
 10
-0.1391535532844728
 20
12.25151000948856
 30
0.0
 40
0.1440914856623236
100
AcDbArc
 50
91.51187957473381
 51
180.3198368415856
  0
ARC
  5
1785
330
17
100
AcDbEntity
  8
0
100
AcDbCircle
 10
-0.1391535532844657
 20
12.56144017945856
 30
0.0
 40
0.1440914856623236
100
AcDbArc
 50
91.51187957473381
 51
180.3198368415856
  0
ARC
  5
1786
330
17
100
AcDbEntity
  8
0
100
AcDbCircle
 10
-0.139153553284455
 20
12.40647509447356
 30
0.0
 40
0.1440914856623236
100
AcDbArc
 50
91.51187957473381
 51
180.3198368415856
  0
ARC
  5
1787
330
17
100
AcDbEntity
  8
0
100
AcDbCircle
 10
-0.1391535532844728
 20
12.87137034942856
 30
0.0
 40
0.1440914856623236
100
AcDbArc
 50
91.51187957473381
 51
180.3198368415856
  0
ARC
  5
1788
330
17
100
AcDbEntity
  8
0
100
AcDbCircle
 10
-0.1391535532844515
 20
11.01178932960855
 30
0.0
 40
0.1440914856623236
100
AcDbArc
 50
91.51187957473381
 51
180.3198368415856
  0
ARC
  5
1789
330
17
100
AcDbEntity
  8
0
100
AcDbCircle
 10
-0.139153553284455
 20
11.16675441459355
 30
0.0
 40
0.1440914856623236
100
AcDbArc
 50
91.51187957473381
 51
180.3198368415856
  0
ARC
  5
178A
330
17
100
AcDbEntity
  8
0
100
AcDbCircle
 10
-0.139153553284455
 20
11.32171949957855
 30
0.0
 40
0.1440914856623236
100
AcDbArc
 50
91.51187957473381
 51
180.3198368415856
  0
ARC
  5
178B
330
17
100
AcDbEntity
  8
0
100
AcDbCircle
 10
-0.1391535532844657
 20
11.47668458456355
 30
0.0
 40
0.1440914856623236
100
AcDbArc
 50
91.51187957473381
 51
180.3198368415856
  0
ARC
  5
178C
330
17
100
AcDbEntity
  8
0
100
AcDbCircle
 10
-0.1391535532844515
 20
11.63164966954855
 30
0.0
 40
0.1440914856623236
100
AcDbArc
 50
91.51187957473381
 51
180.3198368415856
  0
ARC
  5
178D
330
17
100
AcDbEntity
  8
0
100
AcDbCircle
 10
-0.1295127795531386
 20
0.3305377185405831
 30
0.0
 40
0.1440914856623236
100
AcDbArc
 50
91.51187957473381
 51
180.3198368415856
  0
ARC
  5
178E
330
17
100
AcDbEntity
  8
0
100
AcDbCircle
 10
-0.1295127795531244
 20
0.020607548570581
 30
0.0
 40
0.1440914856623236
100
AcDbArc
 50
91.51187957473381
 51
180.3198368415856
  0
ARC
  5
178F
330
17
100
AcDbEntity
  8
0
100
AcDbCircle
 10
-0.1295127795531386
 20
0.1755726335555821
 30
0.0
 40
0.1440914856623236
100
AcDbArc
 50
91.51187957473381
 51
180.3198368415856
  0
ARC
  5
1790
330
17
100
AcDbEntity
  8
0
100
AcDbCircle
 10
-0.1295127795531599
 20
1.725223483405593
 30
0.0
 40
0.1440914856623236
100
AcDbArc
 50
91.51187957473381
 51
180.3198368415856
  0
ARC
  5
1791
330
17
100
AcDbEntity
  8
0
100
AcDbCircle
 10
-0.1295127795531528
 20
1.415293313435591
 30
0.0
 40
0.1440914856623236
100
AcDbArc
 50
91.51187957473381
 51
180.3198368415856
  0
ARC
  5
1792
330
17
100
AcDbEntity
  8
0
100
AcDbCircle
 10
-0.1295127795531528
 20
1.570258398420592
 30
0.0
 40
0.1440914856623236
100
AcDbArc
 50
91.51187957473381
 51
180.3198368415856
  0
ARC
  5
1793
330
17
100
AcDbEntity
  8
0
100
AcDbCircle
 10
-0.1295127795531421
 20
1.880188568390594
 30
0.0
 40
0.1440914856623236
100
AcDbArc
 50
91.51187957473381
 51
180.3198368415856
  0
ARC
  5
1794
330
17
100
AcDbEntity
  8
0
100
AcDbCircle
 10
-0.1295127795531421
 20
1.105363143465588
 30
0.0
 40
0.1440914856623236
100
AcDbArc
 50
91.51187957473381
 51
180.3198368415856
  0
ARC
  5
1795
330
17
100
AcDbEntity
  8
0
100
AcDbCircle
 10
-0.1295127795531244
 20
0.6404678885105852
 30
0.0
 40
0.1440914856623236
100
AcDbArc
 50
91.51187957473381
 51
180.3198368415856
  0
ARC
  5
1796
330
17
100
AcDbEntity
  8
0
100
AcDbCircle
 10
-0.1295127795531386
 20
0.7954329734955863
 30
0.0
 40
0.1440914856623236
100
AcDbArc
 50
91.51187957473381
 51
180.3198368415856
  0
ARC
  5
1797
330
17
100
AcDbEntity
  8
0
100
AcDbCircle
 10
-0.1295127795531421
 20
0.4855028035255842
 30
0.0
 40
0.1440914856623236
100
AcDbArc
 50
91.51187957473381
 51
180.3198368415856
  0
ARC
  5
1798
330
17
100
AcDbEntity
  8
0
100
AcDbCircle
 10
-0.1295127795531386
 20
0.9503980584805873
 30
0.0
 40
0.1440914856623236
100
AcDbArc
 50
91.51187957473381
 51
180.3198368415856
  0
ARC
  5
1799
330
17
100
AcDbEntity
  8
0
100
AcDbCircle
 10
-0.1295127795531421
 20
1.260328228450589
 30
0.0
 40
0.1440914856623236
100
AcDbArc
 50
91.51187957473381
 51
180.3198368415856
  0
LINE
  5
179A
330
17
100
AcDbEntity
  8
0
100
AcDbLine
 10
-0.1758232998977753
 20
10.99421860307606
 30
0.0
 11
-0.175823299897786
 21
2.043499809556927
 31
0.0
  0
LINE
  5
179B
330
17
100
AcDbEntity
  8
0
100
AcDbLine
 10
-0.2415087248470051
 20
10.99421860307606
 30
0.0
 11
-0.2415087248469945
 21
2.043499809556927
 31
0.0
  0
LINE
  5
179C
330
17
100
AcDbEntity
  8
0
100
AcDbLine
 10
-0.2415087248469945
 20
0.0253799350904416
 30
0.0
 11
-0.2415087248469945
 21
0.0
 31
0.0
  0
LINE
  5
179D
330
17
100
AcDbEntity
  8
0
100
AcDbLine
 10
-0.175823299897786
 20
0.0953859985324286
 30
0.0
 11
-0.175823299897786
 21
0.0
 31
0.0
  0
ENDSEC
  0
SECTION
  2
OBJECTS
  0
DICTIONARY
  5
C
330
0
100
AcDbDictionary
281
     1
  3
ACAD_COLOR
350
1416
  3
ACAD_GROUP
350
D
  3
ACAD_LAYOUT
350
780
  3
ACAD_MATERIAL
350
1415
  3
ACAD_MLINESTYLE
350
1A
  3
ACAD_PLOTSETTINGS
350
781
  3
ACAD_PLOTSTYLENAME
350
77E
  3
ACAD_TABLESTYLE
350
1417
  3
ACDBVARIABLEDICTIONARY
350
5C
  3
ASE_INDEX_DICTIONARY
350
172C
  0
DICTIONARY
  5
1719
330
2
100
AcDbDictionary
280
     1
281
     1
  3
ACAD_LAYERFILTERS
360
179F
  3
ACAD_LAYERSTATES
360
1754
  3
ACLYDICTIONARY
360
179E
  0
DICTIONARY
  5
1416
102
{ACAD_REACTORS
330
C
102
}
330
C
100
AcDbDictionary
281
     1
  0
DICTIONARY
  5
D
102
{ACAD_REACTORS
330
C
102
}
330
C
100
AcDbDictionary
281
     1
  0
DICTIONARY
  5
780
102
{ACAD_REACTORS
330
C
102
}
330
C
100
AcDbDictionary
281
     1
  3
Layout1
350
783
  3
Model
350
782
  0
DICTIONARY
  5
1415
102
{ACAD_REACTORS
330
C
102
}
330
C
100
AcDbDictionary
281
     1
  0
DICTIONARY
  5
1A
102
{ACAD_REACTORS
330
C
102
}
330
C
100
AcDbDictionary
281
     1
  3
STANDARD
350
1B
  0
DICTIONARY
  5
781
102
{ACAD_REACTORS
330
C
102
}
330
C
100
AcDbDictionary
281
     1
  0
ACDBDICTIONARYWDFLT
  5
77E
102
{ACAD_REACTORS
330
C
102
}
330
C
100
AcDbDictionary
281
     1
  3
Normal
350
77F
100
AcDbDictionaryWithDefault
340
77F
  0
DICTIONARY
  5
1417
102
{ACAD_REACTORS
330
C
102
}
330
C
100
AcDbDictionary
281
     1
  3
Standard
350
1418
  0
DICTIONARY
  5
5C
102
{ACAD_REACTORS
330
C
102
}
330
C
100
AcDbDictionary
281
     1
  3
CTABLESTYLE
350
1439
  3
DIMADEC
350
5D
  3
DIMASSOC
350
1440
  0
DICTIONARY
  5
172C
102
{ACAD_REACTORS
330
C
102
}
330
C
100
AcDbDictionary
281
     1
  3
ASEBlockHierarchyIndexRecord
350
172D
1001
DCO15
1040
1592042784.196
  0
DICTIONARY
  5
179F
102
{ACAD_REACTORS
330
1719
102
}
330
1719
100
AcDbDictionary
281
     1
  0
DICTIONARY
  5
1754
102
{ACAD_REACTORS
330
1719
102
}
330
1719
100
AcDbDictionary
281
     1
  0
DICTIONARY
  5
179E
102
{ACAD_REACTORS
330
1719
102
}
330
1719
100
AcDbDictionary
281
     1
1001
ACAD
1000
<All
  0
LAYOUT
  5
783
102
{ACAD_REACTORS
330
780
102
}
330
780
100
AcDbPlotSettings
  1

  2
HP LaserJet 2100 Series PS
  4

  6

 40
0.0
 41
0.0
 42
0.0
 43
0.0
 44
0.0
 45
0.0
 46
0.0
 47
0.0
 48
0.0
 49
0.0
140
0.0
141
0.0
142
1.0
143
1.0
 70
   688
 72
     0
 73
     0
 74
     5
  7
monochrome.ctb
 75
    16
 76
     0
 77
     2
 78
   300
147
1.0
148
0.0
149
0.0
100
AcDbLayout
  1
Layout1
 70
     0
 71
     1
 10
0.0
 20
0.0
 11
12.0
 21
9.0
 12
0.0
 22
0.0
 32
0.0
 14
1.000000000000000E+20
 24
1.000000000000000E+20
 34
1.000000000000000E+20
 15
-1.000000000000000E+20
 25
-1.000000000000000E+20
 35
-1.000000000000000E+20
146
0.0
 13
0.0
 23
0.0
 33
0.0
 16
1.0
 26
0.0
 36
0.0
 17
0.0
 27
1.0
 37
0.0
 76
     0
330
14
  0
LAYOUT
  5
782
102
{ACAD_REACTORS
330
780
102
}
330
780
100
AcDbPlotSettings
  1

  2
HP LaserJet 2100 Series PS
  4
Letter
  6
ENTRY
 40
5.365749835968018
 41
5.408073902130127
 42
5.132904052734375
 43
5.090576171875
 44
215.8999938964844
 45
279.3999938964844
 46
0.0
 47
0.0
 48
0.0
 49
0.0
140
0.0
141
0.0
142
1.0
143
4.959067816635199
 70
 11952
 72
     0
 73
     2
 74
     2
  7
monochrome.ctb
 75
     0
 76
     0
 77
     2
 78
   300
147
0.2016508015166679
148
0.0
149
0.0
100
AcDbLayout
  1
Model
 70
     1
 71
     0
 10
0.0
 20
0.0
 11
12.0
 21
9.0
 12
0.0
 22
0.0
 32
0.0
 14
0.0
 24
0.0
 34
0.0
 15
0.0
 25
0.0
 35
0.0
146
0.0
 13
0.0
 23
0.0
 33
0.0
 16
1.0
 26
0.0
 36
0.0
 17
0.0
 27
1.0
 37
0.0
 76
     0
330
17
1001
ACAD_PSEXT
1000
HP LaserJet 2100 Series PS
1000
HP LaserJet 2100 Series PS
1000
LPT1:
1000

1070
     0
  0
MLINESTYLE
  5
1B
102
{ACAD_REACTORS
330
1A
102
}
330
1A
100
AcDbMlineStyle
  2
STANDARD
 70
     0
  3

 62
   256
 51
90.0
 52
90.0
 71
     2
 49
0.5
 62
   256
  6
BYLAYER
 49
-0.5
 62
   256
  6
BYLAYER
  0
ACDBPLACEHOLDER
  5
77F
102
{ACAD_REACTORS
330
77E
102
}
330
77E
  0
ACAD_PROXY_OBJECT
  5
1418
102
{ACAD_REACTORS
330
1417
102
}
330
1417
100
AcDbProxyObject
 90
      499
 91
      525
 95
   983063
 70
     0
 93
     1841
310
4214DD185B99185C9928B81E85EB51B8AE3F2E07A17AD46E2B8FC02B5E8DC0F42B1CFD028000000C1008070000C3001FDFF8000000C1003FBFF000000182007F7FE00000030400FEFFC00000060801FDFF8000000C1003FBFF00000018200000000000000681FA0B0000001820100E000186003FBFF000000182007F7FE000
310
00030400FEFFC00000060801FDFF8000000C1003FBFF000000182007F7FE000000304000AD7A3703D0AC73F4160000003040201C00030C007F7FE00000030400FEFFC00000060801FDFF8000000C1003FBFF000000182007F7FE00000030400FEFFC000000608000
340
F
340
F
340
F
 94
        0
  0
DICTIONARYVAR
  5
1439
102
{ACAD_REACTORS
330
5C
102
}
330
5C
100
DictionaryVariables
280
     0
  1
STANDARD
  0
DICTIONARYVAR
  5
5D
102
{ACAD_REACTORS
330
5C
102
}
330
5C
100
DictionaryVariables
280
     0
  1
0
  0
DICTIONARYVAR
  5
1440
102
{ACAD_REACTORS
330
5C
102
}
330
5C
100
DictionaryVariables
280
     0
  1
0
  0
XRECORD
  5
172D
102
{ACAD_REACTORS
330
172C
102
}
330
172C
100
AcDbXrecord
280
     1
330
0
330
0
330
0
  0
ENDSEC
  0
EOF
