  0
SECTION
  2
HEADER
  9
$ACADVER
  1
AC1018
  9
$ACADMAINTVER
 70
     6
  9
$DWGCODEPAGE
  3
ANSI_1252
  9
$INSBASE
 10
0.0
 20
0.0
 30
0.0
  9
$EXTMIN
 10
-11.15772565400756
 20
-0.0015988723747
 30
-0.0000000000000129
  9
$EXTMAX
 10
11.09459147916523
 20
42.92788980350541
 30
0.0000000000000023
  9
$LIMMIN
 10
0.0
 20
0.0
  9
$LIMMAX
 10
40.00000000000039
 20
52.50000000000051
  9
$ORTHOMODE
 70
     1
  9
$REGENMODE
 70
     1
  9
$FILLMODE
 70
     1
  9
$QTEXTMODE
 70
     0
  9
$MIRRTEXT
 70
     1
  9
$LTSCALE
 40
1.0
  9
$ATTMODE
 70
     1
  9
$TEXTSIZE
 40
0.45
  9
$TRACEWID
 40
0.05
  9
$TEXTSTYLE
  7
STANDARD
  9
$CLAYER
  8
0
  9
$CELTYPE
  6
BYLAYER
  9
$CECOLOR
 62
   256
  9
$CELTSCALE
 40
1.0
  9
$DISPSILH
 70
     0
  9
$DIMSCALE
 40
1.0
  9
$DIMASZ
 40
0.625000000000004
  9
$DIMEXO
 40
0.0625
  9
$DIMDLI
 40
0.375
  9
$DIMRND
 40
0.0
  9
$DIMDLE
 40
0.0
  9
$DIMEXE
 40
0.400000000000004
  9
$DIMTP
 40
0.0
  9
$DIMTM
 40
0.0
  9
$DIMTXT
 40
0.4000000000000039
  9
$DIMCEN
 40
-0.03125
  9
$DIMTSZ
 40
0.0
  9
$DIMTOL
 70
     0
  9
$DIMLIM
 70
     0
  9
$DIMTIH
 70
     1
  9
$DIMTOH
 70
     1
  9
$DIMSE1
 70
     0
  9
$DIMSE2
 70
     0
  9
$DIMTAD
 70
     0
  9
$DIMZIN
 70
     0
  9
$DIMBLK
  1

  9
$DIMASO
 70
     0
  9
$DIMSHO
 70
     0
  9
$DIMPOST
  1

  9
$DIMAPOST
  1

  9
$DIMALT
 70
     0
  9
$DIMALTD
 70
     2
  9
$DIMALTF
 40
25.4
  9
$DIMLFAC
 40
1.0
  9
$DIMTOFL
 70
     0
  9
$DIMTVP
 40
0.0
  9
$DIMTIX
 70
     0
  9
$DIMSOXD
 70
     0
  9
$DIMSAH
 70
     0
  9
$DIMBLK1
  1

  9
$DIMBLK2
  1

  9
$DIMSTYLE
  2
STANDARD
  9
$DIMCLRD
 70
     0
  9
$DIMCLRE
 70
     0
  9
$DIMCLRT
 70
     0
  9
$DIMTFAC
 40
1.0
  9
$DIMGAP
 40
0.09
  9
$DIMJUST
 70
     0
  9
$DIMSD1
 70
     0
  9
$DIMSD2
 70
     0
  9
$DIMTOLJ
 70
     1
  9
$DIMTZIN
 70
     0
  9
$DIMALTZ
 70
     0
  9
$DIMALTTZ
 70
     0
  9
$DIMUPT
 70
     0
  9
$DIMDEC
 70
     3
  9
$DIMTDEC
 70
     3
  9
$DIMALTU
 70
     2
  9
$DIMALTTD
 70
     2
  9
$DIMTXSTY
  7
STANDARD
  9
$DIMAUNIT
 70
     0
  9
$DIMADEC
 70
     0
  9
$DIMALTRND
 40
0.0
  9
$DIMAZIN
 70
     0
  9
$DIMDSEP
 70
    46
  9
$DIMATFIT
 70
     3
  9
$DIMFRAC
 70
     2
  9
$DIMLDRBLK
  1

  9
$DIMLUNIT
 70
     2
  9
$DIMLWD
 70
    -2
  9
$DIMLWE
 70
    -2
  9
$DIMTMOVE
 70
     2
  9
$LUNITS
 70
     2
  9
$LUPREC
 70
     3
  9
$SKETCHINC
 40
0.1
  9
$FILLETRAD
 40
0.0
  9
$AUNITS
 70
     0
  9
$AUPREC
 70
     0
  9
$MENU
  1
ACAD
  9
$ELEVATION
 40
0.0
  9
$PELEVATION
 40
0.0
  9
$THICKNESS
 40
0.0
  9
$LIMCHECK
 70
     0
  9
$CHAMFERA
 40
0.0
  9
$CHAMFERB
 40
0.0
  9
$CHAMFERC
 40
0.0
  9
$CHAMFERD
 40
0.0
  9
$SKPOLY
 70
     0
  9
$TDCREATE
 40
2449470.935140857
  9
$TDUCREATE
 40
2449471.26847419
  9
$TDUPDATE
 40
2454417.844547049
  9
$TDUUPDATE
 40
2454418.177880382
  9
$TDINDWG
 40
0.2744826505
  9
$TDUSRTIMER
 40
0.2744826505
  9
$USRTIMER
 70
     1
  9
$ANGBASE
 50
0.0
  9
$ANGDIR
 70
     0
  9
$PDMODE
 70
     0
  9
$PDSIZE
 40
0.0
  9
$PLINEWID
 40
0.0
  9
$SPLFRAME
 70
     0
  9
$SPLINETYPE
 70
     6
  9
$SPLINESEGS
 70
     8
  9
$HANDSEED
  5
17FB
  9
$SURFTAB1
 70
     6
  9
$SURFTAB2
 70
     6
  9
$SURFTYPE
 70
     6
  9
$SURFU
 70
     6
  9
$SURFV
 70
     6
  9
$UCSBASE
  2

  9
$UCSNAME
  2

  9
$UCSORG
 10
0.0
 20
0.0
 30
0.0
  9
$UCSXDIR
 10
1.0
 20
0.0
 30
0.0
  9
$UCSYDIR
 10
0.0
 20
1.0
 30
0.0
  9
$UCSORTHOREF
  2

  9
$UCSORTHOVIEW
 70
     0
  9
$UCSORGTOP
 10
0.0
 20
0.0
 30
0.0
  9
$UCSORGBOTTOM
 10
0.0
 20
0.0
 30
0.0
  9
$UCSORGLEFT
 10
0.0
 20
0.0
 30
0.0
  9
$UCSORGRIGHT
 10
0.0
 20
0.0
 30
0.0
  9
$UCSORGFRONT
 10
0.0
 20
0.0
 30
0.0
  9
$UCSORGBACK
 10
0.0
 20
0.0
 30
0.0
  9
$PUCSBASE
  2

  9
$PUCSNAME
  2

  9
$PUCSORG
 10
0.0
 20
0.0
 30
0.0
  9
$PUCSXDIR
 10
1.0
 20
0.0
 30
0.0
  9
$PUCSYDIR
 10
0.0
 20
1.0
 30
0.0
  9
$PUCSORTHOREF
  2

  9
$PUCSORTHOVIEW
 70
     0
  9
$PUCSORGTOP
 10
0.0
 20
0.0
 30
0.0
  9
$PUCSORGBOTTOM
 10
0.0
 20
0.0
 30
0.0
  9
$PUCSORGLEFT
 10
0.0
 20
0.0
 30
0.0
  9
$PUCSORGRIGHT
 10
0.0
 20
0.0
 30
0.0
  9
$PUCSORGFRONT
 10
0.0
 20
0.0
 30
0.0
  9
$PUCSORGBACK
 10
0.0
 20
0.0
 30
0.0
  9
$USERI1
 70
     0
  9
$USERI2
 70
     0
  9
$USERI3
 70
     0
  9
$USERI4
 70
     0
  9
$USERI5
 70
     0
  9
$USERR1
 40
0.0
  9
$USERR2
 40
0.0
  9
$USERR3
 40
0.0
  9
$USERR4
 40
0.0
  9
$USERR5
 40
0.0
  9
$WORLDVIEW
 70
     1
  9
$SHADEDGE
 70
     3
  9
$SHADEDIF
 70
    70
  9
$TILEMODE
 70
     1
  9
$MAXACTVP
 70
    16
  9
$PINSBASE
 10
0.0
 20
0.0
 30
0.0
  9
$PLIMCHECK
 70
     0
  9
$PEXTMIN
 10
1.000000000000000E+20
 20
1.000000000000000E+20
 30
1.000000000000000E+20
  9
$PEXTMAX
 10
-1.000000000000000E+20
 20
-1.000000000000000E+20
 30
-1.000000000000000E+20
  9
$PLIMMIN
 10
0.0
 20
0.0
  9
$PLIMMAX
 10
12.0
 20
9.0
  9
$UNITMODE
 70
     0
  9
$VISRETAIN
 70
     0
  9
$PLINEGEN
 70
     1
  9
$PSLTSCALE
 70
     0
  9
$TREEDEPTH
 70
  3020
  9
$CMLSTYLE
  2
STANDARD
  9
$CMLJUST
 70
     0
  9
$CMLSCALE
 40
1.0
  9
$PROXYGRAPHICS
 70
     1
  9
$MEASUREMENT
 70
     0
  9
$CELWEIGHT
370
    -1
  9
$ENDCAPS
280
     0
  9
$JOINSTYLE
280
     0
  9
$LWDISPLAY
290
     0
  9
$INSUNITS
 70
     0
  9
$HYPERLINKBASE
  1

  9
$STYLESHEET
  1
monochrome.ctb
  9
$XEDIT
290
     1
  9
$CEPSNTYPE
380
     0
  9
$PSTYLEMODE
290
     1
  9
$FINGERPRINTGUID
  2
{FF15D867-C4A4-11D5-BE3F-00508B5FCD51}
  9
$VERSIONGUID
  2
{00454EB3-8FC2-4948-BA5D-18BFD434BA1D}
  9
$EXTNAMES
290
     1
  9
$PSVPSCALE
 40
0.0
  9
$OLESTARTUP
290
     0
  9
$SORTENTS
280
   127
  9
$INDEXCTL
280
     0
  9
$HIDETEXT
280
     1
  9
$XCLIPFRAME
290
     0
  9
$HALOGAP
280
     0
  9
$OBSCOLOR
 70
   257
  9
$OBSLTYPE
280
     0
  9
$INTERSECTIONDISPLAY
280
     0
  9
$INTERSECTIONCOLOR
 70
   257
  9
$DIMASSOC
280
     0
  9
$PROJECTNAME
  1

  0
ENDSEC
  0
SECTION
  2
CLASSES
  0
CLASS
  1
DICTIONARYVAR
  2
AcDbDictionaryVar
  3
AutoCAD 2000
 90
        0
 91
        1
280
     0
281
     0
  0
CLASS
  1
LWPOLYLINE
  2
AcDbPolyline
  3
AutoCAD 2000
 90
        0
 91
        8
280
     0
281
     1
  0
CLASS
  1
ACDBDICTIONARYWDFLT
  2
AcDbDictionaryWithDefault
  3
AutoCAD 2000
 90
        0
 91
        1
280
     0
281
     0
  0
CLASS
  1
ACDBPLACEHOLDER
  2
AcDbPlaceHolder
  3
ObjectDBX Classes
 90
        0
 91
        3
280
     0
281
     0
  0
CLASS
  1
LAYOUT
  2
AcDbLayout
  3
ObjectDBX Classes
 90
        0
 91
        3
280
     0
281
     0
  0
CLASS
  1
LONG_TRANSACTION
  2
AcDbLongTransaction
  3
ObjectDBX Classes
 90
   -65536
 91
        5
280
     1
281
     0
  0
CLASS
  1
LWPOLYLINE
  2
AcDbPolyline
  3
AutoCAD 2000
 90
        0
 91
        8
280
     0
281
     1
  0
CLASS
  1
HATCH
  2
AcDbHatch
  3
AutoCAD 2000
 90
        0
 91
        7
280
     0
281
     1
  0
CLASS
  1
XRECORD
  2
AcDbXrecord
  3
AutoCAD 2000
 90
        0
 91
        7
280
     0
281
     0
  0
CLASS
  1
LONG_TRANSACTION
  2
AcDbLongTransaction
  3
ObjectDBX Classes
 90
   -65536
 91
        5
280
     1
281
     0
  0
CLASS
  1
LWPOLYLINE
  2
AcDbPolyline
  3
AutoCAD 2000
 90
        0
 91
        8
280
     0
281
     1
  0
CLASS
  1
HATCH
  2
AcDbHatch
  3
AutoCAD 2000
 90
        0
 91
        7
280
     0
281
     1
  0
CLASS
  1
XRECORD
  2
AcDbXrecord
  3
AutoCAD 2000
 90
        0
 91
        7
280
     0
281
     0
  0
CLASS
  1
LONG_TRANSACTION
  2
AcDbLongTransaction
  3
ObjectDBX Classes
 90
   -65536
 91
        5
280
     1
281
     0
  0
CLASS
  1
LWPOLYLINE
  2
AcDbPolyline
  3
AutoCAD 2000
 90
        0
 91
        8
280
     0
281
     1
  0
CLASS
  1
HATCH
  2
AcDbHatch
  3
AutoCAD 2000
 90
        0
 91
        7
280
     0
281
     1
  0
CLASS
  1
XRECORD
  2
AcDbXrecord
  3
AutoCAD 2000
 90
        0
 91
        7
280
     0
281
     0
  0
CLASS
  1
LONG_TRANSACTION
  2
AcDbLongTransaction
  3
ObjectDBX Classes
 90
   -65536
 91
        5
280
     1
281
     0
  0
CLASS
  1
LWPOLYLINE
  2
AcDbPolyline
  3
AutoCAD 2000
 90
        0
 91
        8
280
     0
281
     1
  0
CLASS
  1
HATCH
  2
AcDbHatch
  3
AutoCAD 2000
 90
        0
 91
        7
280
     0
281
     1
  0
CLASS
  1
XRECORD
  2
AcDbXrecord
  3
AutoCAD 2000
 90
        0
 91
        7
280
     0
281
     0
  0
CLASS
  1
LONG_TRANSACTION
  2
AcDbLongTransaction
  3
ObjectDBX Classes
 90
   -65536
 91
        5
280
     1
281
     0
  0
CLASS
  1
LWPOLYLINE
  2
AcDbPolyline
  3
AutoCAD 2000
 90
        0
 91
        8
280
     0
281
     1
  0
CLASS
  1
HATCH
  2
AcDbHatch
  3
AutoCAD 2000
 90
        0
 91
        7
280
     0
281
     1
  0
CLASS
  1
XRECORD
  2
AcDbXrecord
  3
AutoCAD 2000
 90
        0
 91
        7
280
     0
281
     0
  0
CLASS
  1
TABLESTYLE
  2
AcDbTableStyle
  3
ObjectDBX Classes
 90
     2047
 91
        2
280
     1
281
     0
  0
CLASS
  1
SORTENTSTABLE
  2
AcDbSortentsTable
  3
AutoCAD 2000
 90
        0
 91
        1
280
     0
281
     0
  0
ENDSEC
  0
SECTION
  2
TABLES
  0
TABLE
  2
VPORT
  5
8
330
0
100
AcDbSymbolTable
 70
     3
  0
VPORT
  5
17F3
330
8
100
AcDbSymbolTableRecord
100
AcDbViewportTableRecord
  2
*Active
 70
     0
 10
0.0
 20
0.0
 11
1.0
 21
1.0
 12
5.88999534886166
 22
20.25997393111731
 13
0.0
 23
0.0
 14
0.0625
 24
0.0625
 15
0.25
 25
0.25
 16
0.0
 26
0.0
 36
1.0
 17
0.0
 27
0.0
 37
0.0
 40
57.95453417186304
 41
1.78118609406953
 42
50.0
 43
0.0
 44
0.0
 50
0.0
 51
0.0
 71
     0
 72
   100
 73
     1
 74
     0
 75
     0
 76
     0
 77
     0
 78
     2
281
     0
 65
     1
110
0.0
120
0.0
130
0.0
111
1.0
121
0.0
131
0.0
112
0.0
122
1.0
132
0.0
 79
     0
146
0.0
  0
ENDTAB
  0
TABLE
  2
LTYPE
  5
5
330
0
100
AcDbSymbolTable
 70
     5
  0
LTYPE
  5
11
330
5
100
AcDbSymbolTableRecord
100
AcDbLinetypeTableRecord
  2
BYBLOCK
 70
     0
  3

 72
    65
 73
     0
 40
0.0
  0
LTYPE
  5
12
330
5
100
AcDbSymbolTableRecord
100
AcDbLinetypeTableRecord
  2
BYLAYER
 70
     0
  3

 72
    65
 73
     0
 40
0.0
  0
LTYPE
  5
13
330
5
100
AcDbSymbolTableRecord
100
AcDbLinetypeTableRecord
  2
CONTINUOUS
 70
     0
  3
Solid line
 72
    65
 73
     0
 40
0.0
  0
LTYPE
  5
31
330
5
100
AcDbSymbolTableRecord
100
AcDbLinetypeTableRecord
  2
HIDDEN
 70
     0
  3
_ _ _ _ _ _ _ _ _ _ _ _ _ _ _ _ _ _ _ _ _ _ _
 72
    65
 73
     2
 40
0.375
 49
0.25
 74
     0
 49
-0.125
 74
     0
  0
LTYPE
  5
E36
330
5
100
AcDbSymbolTableRecord
100
AcDbLinetypeTableRecord
  2
HIDDEN2
 70
     0
  3
Hidden (.5x) _ _ _ _ _ _ _ _ _ _ _ _ _ _ _ _ _
 72
    65
 73
     2
 40
0.1875
 49
0.125
 74
     0
 49
-0.0625
 74
     0
  0
LTYPE
  5
E37
330
5
100
AcDbSymbolTableRecord
100
AcDbLinetypeTableRecord
  2
HIDDENX2
 70
     0
  3
Hidden (2x) ____ ____ ____ ____ ____ ____ ____
 72
    65
 73
     2
 40
0.75
 49
0.5
 74
     0
 49
-0.25
 74
     0
  0
ENDTAB
  0
TABLE
  2
LAYER
  5
2
102
{ACAD_XDICTIONARY
360
1719
102
}
330
0
100
AcDbSymbolTable
 70
     9
  0
LAYER
  5
E
330
2
100
AcDbSymbolTableRecord
100
AcDbLayerTableRecord
  2
0
 70
     0
 62
     7
  6
CONTINUOUS
370
    -3
390
77F
  0
LAYER
  5
44
330
2
100
AcDbSymbolTableRecord
100
AcDbLayerTableRecord
  2
REV
 70
     0
 62
     1
  6
CONTINUOUS
370
    -3
390
77F
  0
ENDTAB
  0
TABLE
  2
STYLE
  5
3
330
0
100
AcDbSymbolTable
 70
     4
  0
STYLE
  5
F
330
3
100
AcDbSymbolTableRecord
100
AcDbTextStyleTableRecord
  2
STANDARD
 70
     0
 40
0.0
 41
1.0
 50
0.0
 71
     0
 42
0.45
  3
TXT
  4

  0
ENDTAB
  0
TABLE
  2
VIEW
  5
6
330
0
100
AcDbSymbolTable
 70
     4
  0
VIEW
  5
36
330
6
100
AcDbSymbolTableRecord
100
AcDbViewTableRecord
  2
OFFICE
 70
     0
 40
29.48222486767885
 10
17.06329679325278
 20
33.92007789039313
 41
1.0
 11
0.0
 21
0.0
 31
1.0
 12
0.0
 22
0.0
 32
0.0
 42
50.0
 43
0.0
 44
0.0
 50
0.0
 71
     0
281
     0
 72
     0
  0
VIEW
  5
37
330
6
100
AcDbSymbolTableRecord
100
AcDbViewTableRecord
  2
ENTRY
 70
     0
 40
16.29324250401398
 10
11.76005157754474
 20
14.85268778713302
 41
1.0
 11
0.0
 21
0.0
 31
1.0
 12
0.0
 22
0.0
 32
0.0
 42
50.0
 43
0.0
 44
0.0
 50
0.0
 71
     0
281
     0
 72
     0
  0
VIEW
  5
38
330
6
100
AcDbSymbolTableRecord
100
AcDbViewTableRecord
  2
MEN
 70
     0
 40
7.375
 10
14.84375
 20
48.8125
 41
9.4375
 11
0.0
 21
0.0
 31
1.0
 12
0.0
 22
0.0
 32
0.0
 42
50.0
 43
0.0
 44
0.0
 50
0.0
 71
     0
281
     0
 72
     0
  0
VIEW
  5
39
330
6
100
AcDbSymbolTableRecord
100
AcDbViewTableRecord
  2
PRINTER
 70
     0
 40
52.5
 10
20.15625
 20
26.25
 41
40.3125
 11
0.0
 21
0.0
 31
1.0
 12
0.0
 22
0.0
 32
0.0
 42
50.0
 43
0.0
 44
0.0
 50
0.0
 71
     0
281
     0
 72
     0
  0
ENDTAB
  0
TABLE
  2
UCS
  5
7
330
0
100
AcDbSymbolTable
 70
     0
  0
ENDTAB
  0
TABLE
  2
APPID
  5
9
330
0
100
AcDbSymbolTable
 70
     3
  0
APPID
  5
10
330
9
100
AcDbSymbolTableRecord
100
AcDbRegAppTableRecord
  2
ACAD
 70
     0
  0
APPID
  5
140B
330
9
100
AcDbSymbolTableRecord
100
AcDbRegAppTableRecord
  2
DCO15
 70
     0
  0
APPID
  5
146D
330
9
100
AcDbSymbolTableRecord
100
AcDbRegAppTableRecord
  2
ACAD_PSEXT
 70
     0
  0
ENDTAB
  0
TABLE
  2
DIMSTYLE
  5
A
330
0
100
AcDbSymbolTable
 70
     1
100
AcDbDimStyleTable
  0
DIMSTYLE
105
73B
330
A
100
AcDbSymbolTableRecord
100
AcDbDimStyleTableRecord
  2
STANDARD
 70
     0
  3

  4

340
F
  0
ENDTAB
  0
TABLE
  2
BLOCK_RECORD
  5
1
330
0
100
AcDbSymbolTable
 70
    10
  0
BLOCK_RECORD
  5
17
330
1
100
AcDbSymbolTableRecord
100
AcDbBlockTableRecord
  2
*MODEL_SPACE
340
782
  0
BLOCK_RECORD
  5
14
330
1
100
AcDbSymbolTableRecord
100
AcDbBlockTableRecord
  2
*PAPER_SPACE
340
783
  0
ENDTAB
  0
ENDSEC
  0
SECTION
  2
BLOCKS
  0
BLOCK
  5
5A
330
17
100
AcDbEntity
  8
0
100
AcDbBlockBegin
  2
*MODEL_SPACE
 70
     0
 10
0.0
 20
0.0
 30
0.0
  3
*MODEL_SPACE
  1

  4

  0
ENDBLK
  5
5B
330
17
100
AcDbEntity
  8
0
100
AcDbBlockEnd
  0
BLOCK
  5
58
330
14
100
AcDbEntity
 67
     1
  8
0
100
AcDbBlockBegin
  2
*PAPER_SPACE
 70
     0
 10
0.0
 20
0.0
 30
0.0
  3
*PAPER_SPACE
  1

  4

  0
ENDBLK
  5
59
330
14
100
AcDbEntity
 67
     1
  8
0
100
AcDbBlockEnd
  0
ENDSEC
  0
SECTION
  2
ENTITIES
  0
TEXT
  5
725
330
17
100
AcDbEntity
  8
REV
100
AcDbText
 10
30.9943797431806
 20
8.303825210395837
 30
0.0
 40
0.4
  1

100
AcDbText
  0
LINE
  5
F2F
330
17
100
AcDbEntity
  8
0
100
AcDbLine
 10
-1.534028026035642
 20
29.2313302272023
 30
0.0
 11
-0.3466213466259092
 21
0.0
 31
0.0
  0
LINE
  5
F30
330
17
100
AcDbEntity
  8
0
100
AcDbLine
 10
-0.4173320247447805
 20
0.0
 30
0.0
 11
-1.605516814695985
 21
29.25048559039171
 31
0.0
  0
LINE
  5
F31
330
17
100
AcDbEntity
  8
0
100
AcDbLine
 10
-0.0656854249492369
 20
29.375
 30
0.0
 11
-0.0656854249492209
 21
13.01515847033037
 31
0.0
  0
LINE
  5
F32
330
17
100
AcDbEntity
  8
0
  6
HIDDENX2
100
AcDbLine
 10
-0.165685424949217
 20
29.375
 30
0.0
 11
-0.1656854249492028
 21
0.0
 31
0.0
  0
LINE
  5
F33
330
17
100
AcDbEntity
  8
0
  6
HIDDENX2
100
AcDbLine
 10
0.0999999999999943
 20
29.375
 30
0.0
 11
0.0999999999999943
 21
0.0
 31
0.0
  0
LINE
  5
F34
330
17
100
AcDbEntity
  8
0
100
AcDbLine
 10
0.0000000000000284
 20
29.375
 30
0.0
 11
0.0000000000000124
 21
13.01515847033037
 31
0.0
  0
LINE
  5
F35
330
17
100
AcDbEntity
  8
0
100
AcDbLine
 10
0.351646599795572
 20
0.0
 30
0.0
 11
1.539831389746764
 21
29.25048559039173
 31
0.0
  0
LINE
  5
F36
330
17
100
AcDbEntity
  8
0
100
AcDbLine
 10
1.46834260108642
 20
29.23133022720232
 30
0.0
 11
0.2809359216767007
 21
0.0
 31
0.0
  0
LINE
  5
F9B
330
17
100
AcDbEntity
  8
0
100
AcDbLine
 10
0.351646599795572
 20
0.0
 30
0.0
 11
0.0
 21
0.0
 31
0.0
  0
LINE
  5
F9C
330
17
100
AcDbEntity
  8
0
100
AcDbLine
 10
-0.4173320247447805
 20
0.0
 30
0.0
 11
-0.0656854249492085
 21
0.0
 31
0.0
  0
LINE
  5
FB0
330
17
100
AcDbEntity
  8
0
100
AcDbLine
 10
-1.69534271247467
 20
42.77379812098636
 30
0.0
 11
-0.6953427124746696
 21
41.77379812098637
 31
0.0
  0
LINE
  5
FB1
330
17
100
AcDbEntity
  8
0
100
AcDbLine
 10
-1.539864039878481
 20
42.53903012650885
 30
0.0
 11
-0.1389087296526412
 21
41.138074816283
 31
0.0
  0
LINE
  5
FB2
330
17
100
AcDbEntity
  8
0
100
AcDbLine
 10
-1.610574717997125
 20
42.46831944839022
 30
0.0
 11
-0.2096194077712852
 21
41.06736413816435
 31
0.0
  0
LINE
  5
FB6
330
17
100
AcDbEntity
  8
0
100
AcDbLine
 10
-1.69534271247467
 20
39.14879812098641
 30
0.0
 11
-0.6953427124746696
 21
40.1487981209864
 31
0.0
  0
LINE
  5
FB7
330
17
100
AcDbEntity
  8
0
100
AcDbLine
 10
-0.2096194077712568
 20
40.85523210380839
 30
0.0
 11
-1.610574717997125
 21
39.45427679358254
 31
0.0
  0
LINE
  5
FB8
330
17
100
AcDbEntity
  8
0
100
AcDbLine
 10
-0.1389087296526128
 20
40.78452142568972
 30
0.0
 11
-1.539864039878481
 21
39.38356611546388
 31
0.0
  0
LINE
  5
FB9
330
17
100
AcDbEntity
  8
0
100
AcDbLine
 10
1.629657287525347
 20
42.77379812098636
 30
0.0
 11
-1.695342712474641
 21
42.77379812098639
 31
0.0
  0
LINE
  5
FBA
330
17
100
AcDbEntity
  8
0
100
AcDbLine
 10
1.629657287525347
 20
42.87379812098635
 30
0.0
 11
-1.695342712474641
 21
42.87379812098638
 31
0.0
  0
LINE
  5
FBB
330
17
100
AcDbEntity
  8
0
100
AcDbLine
 10
1.767207287525352
 20
39.04879812098636
 30
0.0
 11
-1.695342712474641
 21
39.04879812098636
 31
0.0
  0
LINE
  5
FBC
330
17
100
AcDbEntity
  8
0
100
AcDbLine
 10
1.767207287525324
 20
39.14879812098636
 30
0.0
 11
-1.695342712474641
 21
39.14879812098639
 31
0.0
  0
CIRCLE
  5
FBF
330
17
100
AcDbEntity
  8
0
  6
HIDDEN2
100
AcDbCircle
 10
-0.7516177124746122
 20
34.12499999999996
 30
0.0
 40
0.1145
  0
LINE
  5
FC0
330
17
100
AcDbEntity
  8
0
100
AcDbLine
 10
1.848407287525347
 20
34.87499999999995
 30
0.0
 11
-1.914092712474627
 21
34.87499999999994
 31
0.0
  0
CIRCLE
  5
FC1
330
17
100
AcDbEntity
  8
0
  6
HIDDEN2
100
AcDbCircle
 10
-0.7516177124746122
 20
31.49999999999996
 30
0.0
 40
0.1145
  0
LINE
  5
FC3
330
17
100
AcDbEntity
  8
0
100
AcDbLine
 10
-1.664117712474621
 20
29.37499999999993
 30
0.0
 11
-0.6641177124746349
 21
28.992994885844
 31
0.0
  0
LINE
  5
FC4
330
17
100
AcDbEntity
  8
0
100
AcDbLine
 10
-1.728797473750248
 20
29.28351854342768
 30
0.0
 11
-0.6445484228471514
 21
28.992994885844
 31
0.0
  0
LINE
  5
FC5
330
17
100
AcDbEntity
  8
0
  6
HIDDEN
100
AcDbLine
 10
-1.70291556924002
 20
29.3801111260566
 30
0.0
 11
-0.6186665183369087
 21
29.08958746847291
 31
0.0
  0
LINE
  5
FC6
330
17
100
AcDbEntity
  8
0
  6
Continuous
 48
0.25
100
AcDbLine
 10
-1.416914953080095
 20
29.37500000000001
 30
0.0
 11
1.319615265690999
 21
29.375
 31
0.0
  0
LINE
  5
FC7
330
17
100
AcDbEntity
  8
0
  6
HIDDENX2
100
AcDbLine
 10
-1.814092712474647
 20
34.87499999999994
 30
0.0
 11
-1.814092712474633
 21
29.52499999999998
 31
0.0
  0
LINE
  5
FC8
330
17
100
AcDbEntity
  8
0
100
AcDbLine
 10
-1.914092712474641
 20
34.87499999999994
 30
0.0
 11
-1.914092712474627
 21
29.52499999999998
 31
0.0
  0
LINE
  5
FC9
330
17
100
AcDbEntity
  8
0
100
AcDbLine
 10
-1.664117712474621
 20
29.49374999999999
 30
0.0
 11
-1.664117712474621
 21
29.37499999999993
 31
0.0
  0
LINE
  5
FCA
330
17
100
AcDbEntity
  8
0
100
AcDbLine
 10
-1.914092712474613
 20
29.49374999999996
 30
0.0
 11
-1.664117712474621
 21
29.49374999999999
 31
0.0
  0
ARC
  5
FCB
330
17
100
AcDbEntity
  8
0
100
AcDbCircle
 10
-1.664092712474627
 20
29.52499999999996
 30
0.0
 40
0.25
100
AcDbArc
 50
180.0
 51
255.0000000000005
  0
ARC
  5
FCC
330
17
100
AcDbEntity
  8
0
100
AcDbCircle
 10
-1.664092712474627
 20
29.52499999999996
 30
0.0
 40
0.15
100
AcDbArc
 50
180.0
 51
254.9999999999996
  0
LINE
  5
FCD
330
17
100
AcDbEntity
  8
0
100
AcDbLine
 10
-1.845342712474647
 20
42.62379812098638
 30
0.0
 11
-1.845342712474647
 21
39.29879812098639
 31
0.0
  0
LINE
  5
FCE
330
17
100
AcDbEntity
  8
0
100
AcDbLine
 10
-1.945342712474641
 20
42.62379812098638
 30
0.0
 11
-1.945342712474641
 21
39.29879812098639
 31
0.0
  0
LINE
  5
FCF
330
17
100
AcDbEntity
  8
0
100
AcDbLine
 10
-1.845342712474647
 20
39.29879812098633
 30
0.0
 11
-0.8453427124746753
 21
40.29879812098633
 31
0.0
  0
ARC
  5
FD0
330
17
100
AcDbEntity
  8
0
100
AcDbCircle
 10
-1.695342712474641
 20
39.29879812098638
 30
0.0
 40
0.15
100
AcDbArc
 50
180.0
 51
269.9999999999992
  0
ARC
  5
FD1
330
17
100
AcDbEntity
  8
0
100
AcDbCircle
 10
-1.695342712474641
 20
39.29879812098638
 30
0.0
 40
0.25
100
AcDbArc
 50
180.0
 51
270.0
  0
LINE
  5
FD2
330
17
100
AcDbEntity
  8
0
100
AcDbLine
 10
-1.610574717997125
 20
39.45427679358254
 30
0.0
 11
-1.539864039878481
 21
39.38356611546388
 31
0.0
  0
LINE
  5
FD3
330
17
100
AcDbEntity
  8
0
100
AcDbLine
 10
-0.8453427124746753
 20
41.62379812098638
 30
0.0
 11
-0.8453427124746753
 21
40.29879812098633
 31
0.0
  0
ARC
  5
FD4
330
17
100
AcDbEntity
  8
0
100
AcDbCircle
 10
-2.039092712474641
 20
40.18004812098634
 30
0.0
 40
0.225
100
AcDbArc
 50
329.4415682140615
 51
30.5584317859385
  0
ARC
  5
FD6
330
17
100
AcDbEntity
  8
0
100
AcDbCircle
 10
-2.039092712474641
 20
40.18004812098634
 30
0.0
 40
0.225
100
AcDbArc
 50
329.4415682140639
 51
30.55843178593612
  0
ARC
  5
FD7
330
17
100
AcDbEntity
  8
0
100
AcDbCircle
 10
-1.695342712474641
 20
42.62379812098637
 30
0.0
 40
0.15
100
AcDbArc
 50
89.99999999999919
 51
180.0
  0
ARC
  5
FD8
330
17
100
AcDbEntity
  8
0
100
AcDbCircle
 10
-1.695342712474641
 20
42.62379812098637
 30
0.0
 40
0.25
100
AcDbArc
 50
89.99999999999919
 51
180.0
  0
LINE
  5
FDB
330
17
100
AcDbEntity
  8
0
100
AcDbLine
 10
-1.539864039878481
 20
42.53903012650885
 30
0.0
 11
-1.610574717997125
 21
42.46831944839022
 31
0.0
  0
LINE
  5
FDD
330
17
100
AcDbEntity
  8
0
100
AcDbLine
 10
-1.845342712474675
 20
42.62379812098635
 30
0.0
 11
-0.8453427124746753
 21
41.62379812098638
 31
0.0
  0
LINE
  5
FE9
330
17
100
AcDbEntity
  8
0
 48
0.25
100
AcDbLine
 10
1.235957287525324
 20
34.87499999999994
 30
0.0
 11
1.735957287525324
 21
34.37499999999994
 31
0.0
  0
LINE
  5
FEA
330
17
100
AcDbEntity
  8
0
100
AcDbLine
 10
1.748407287525353
 20
34.87499999999994
 30
0.0
 11
1.748407287525353
 21
29.52499999999996
 31
0.0
  0
LINE
  5
FEB
330
17
100
AcDbEntity
  8
0
100
AcDbLine
 10
1.848407287525347
 20
34.87499999999995
 30
0.0
 11
1.848407287525347
 21
29.52499999999996
 31
0.0
  0
LINE
  5
FEC
330
17
100
AcDbEntity
  8
0
100
AcDbLine
 10
1.735957287525324
 20
34.37499999999994
 30
0.0
 11
1.735957287525352
 21
29.51257499999982
 31
0.0
  0
LINE
  5
FEE
330
17
100
AcDbEntity
  8
0
100
AcDbLine
 10
1.663112048800954
 20
29.28351854342768
 30
0.0
 11
0.5788629978978719
 21
28.992994885844
 31
0.0
  0
LINE
  5
FEF
330
17
100
AcDbEntity
  8
0
100
AcDbLine
 10
1.598432287525341
 20
29.37499999999993
 30
0.0
 11
0.5983822875253964
 21
28.992994885844
 31
0.0
  0
LINE
  5
FF0
330
17
100
AcDbEntity
  8
0
  6
HIDDEN
100
AcDbLine
 10
1.63723014429074
 20
29.3801111260566
 30
0.0
 11
0.5529810933876291
 21
29.08958746847291
 31
0.0
  0
LINE
  5
FF1
330
17
100
AcDbEntity
  8
0
  6
HIDDEN
100
AcDbLine
 10
-0.6445484228471514
 20
28.992994885844
 30
0.0
 11
-0.6186665183369087
 21
29.08958746847291
 31
0.0
  0
LINE
  5
FF2
330
17
100
AcDbEntity
  8
0
  6
HIDDEN
100
AcDbLine
 10
0.5788629978978719
 20
28.992994885844
 30
0.0
 11
0.5529810933876291
 21
29.08958746847291
 31
0.0
  0
LINE
  5
FF3
330
17
100
AcDbEntity
  8
0
100
AcDbLine
 10
-0.6641177124746349
 20
28.992994885844
 30
0.0
 11
0.5983822875253964
 21
28.992994885844
 31
0.0
  0
ARC
  5
FF9
330
17
100
AcDbEntity
  8
0
100
AcDbCircle
 10
1.598407287525347
 20
29.52499999999996
 30
0.0
 40
0.25
100
AcDbArc
 50
284.9999999999995
 51
0.0
  0
ARC
  5
FFA
330
17
100
AcDbEntity
  8
0
100
AcDbCircle
 10
1.598407287525347
 20
29.52499999999996
 30
0.0
 40
0.15
100
AcDbArc
 50
285.0000000000004
 51
0.0
  0
CIRCLE
  5
FFC
330
17
100
AcDbEntity
  8
0
  6
HIDDEN2
100
AcDbCircle
 10
0.6858822875253736
 20
31.49999999999996
 30
0.0
 40
0.1145
  0
CIRCLE
  5
FFD
330
17
100
AcDbEntity
  8
0
  6
HIDDEN2
100
AcDbCircle
 10
0.6858822875253736
 20
34.12499999999996
 30
0.0
 40
0.1145
  0
LINE
  5
FFF
330
17
100
AcDbEntity
  8
0
100
AcDbLine
 10
1.879657287525347
 20
42.62379812098635
 30
0.0
 11
1.879657287525347
 21
39.16124812098636
 31
0.0
  0
LINE
  5
1000
330
17
100
AcDbEntity
  8
0
100
AcDbLine
 10
1.779657287525353
 20
42.62379812098635
 30
0.0
 11
1.779657287525353
 21
39.16124812098636
 31
0.0
  0
LINE
  5
1001
330
17
100
AcDbEntity
  8
0
100
AcDbLine
 10
1.629657287525347
 20
39.14879812098641
 30
0.0
 11
0.6296572875253759
 21
40.14879812098641
 31
0.0
  0
LINE
  5
1002
330
17
100
AcDbEntity
  8
0
100
AcDbLine
 10
1.779657287525325
 20
39.29879812098633
 30
0.0
 11
0.7796572875253531
 21
40.29879812098633
 31
0.0
  0
LINE
  5
1003
330
17
100
AcDbEntity
  8
0
100
AcDbLine
 10
0.1439339828219914
 20
40.85523210380839
 30
0.0
 11
1.544889293047831
 21
39.45427679358254
 31
0.0
  0
LINE
  5
1004
330
17
100
AcDbEntity
  8
0
100
AcDbLine
 10
0.0732233047033475
 20
40.78452142568972
 30
0.0
 11
1.474178614929187
 21
39.38356611546388
 31
0.0
  0
LINE
  5
1008
330
17
100
AcDbEntity
  8
0
100
AcDbLine
 10
1.767207287525352
 20
39.04879812098636
 30
0.0
 11
1.767207287525324
 21
39.14879812098636
 31
0.0
  0
LINE
  5
1009
330
17
100
AcDbEntity
  8
0
100
AcDbLine
 10
1.779657287525353
 20
39.16124812098636
 30
0.0
 11
1.879657287525347
 21
39.16124812098636
 31
0.0
  0
LINE
  5
100A
330
17
100
AcDbEntity
  8
0
100
AcDbLine
 10
1.544889293047831
 20
39.45427679358254
 30
0.0
 11
1.474178614929187
 21
39.38356611546388
 31
0.0
  0
LINE
  5
100B
330
17
100
AcDbEntity
  8
0
100
AcDbLine
 10
0.7796572875253531
 20
41.62379812098638
 30
0.0
 11
0.7796572875253531
 21
40.29879812098633
 31
0.0
  0
LINE
  5
100C
330
17
100
AcDbEntity
  8
0
100
AcDbLine
 10
1.544889293047859
 20
42.46831944839022
 30
0.0
 11
0.1439339828219914
 21
41.06736413816435
 31
0.0
  0
LINE
  5
100D
330
17
100
AcDbEntity
  8
0
100
AcDbLine
 10
1.474178614929215
 20
42.53903012650885
 30
0.0
 11
0.0732233047033475
 21
41.138074816283
 31
0.0
  0
ARC
  5
100E
330
17
100
AcDbEntity
  8
0
100
AcDbCircle
 10
0.2499999999999716
 20
40.96129812098636
 30
0.0
 40
0.15
100
AcDbArc
 50
135.0000000000003
 51
224.9999999999997
  0
ARC
  5
100F
330
17
100
AcDbEntity
  8
0
100
AcDbCircle
 10
0.2499999999999716
 20
40.96129812098636
 30
0.0
 40
0.25
100
AcDbArc
 50
135.0000000000003
 51
224.9999999999997
  0
ARC
  5
1010
330
17
100
AcDbEntity
  8
0
100
AcDbCircle
 10
-0.3156854249492369
 20
40.96129812098636
 30
0.0
 40
0.25
100
AcDbArc
 50
315.0000000000003
 51
44.99999999999972
  0
ARC
  5
1011
330
17
100
AcDbEntity
  8
0
100
AcDbCircle
 10
-0.3156854249492369
 20
40.96129812098636
 30
0.0
 40
0.15
100
AcDbArc
 50
315.0000000000003
 51
44.99999999999972
  0
LINE
  5
1012
330
17
100
AcDbEntity
  8
0
100
AcDbLine
 10
0.6296572875253759
 20
40.14879812098641
 30
0.0
 11
-0.6953427124746696
 21
40.1487981209864
 31
0.0
  0
LINE
  5
1016
330
17
100
AcDbEntity
  8
0
100
AcDbLine
 10
1.629657287525347
 20
42.77379812098636
 30
0.0
 11
0.6296572875253759
 21
41.77379812098636
 31
0.0
  0
LINE
  5
1017
330
17
100
AcDbEntity
  8
0
100
AcDbLine
 10
1.779657287525353
 20
42.62379812098635
 30
0.0
 11
0.7796572875253531
 21
41.62379812098638
 31
0.0
  0
LINE
  5
101B
330
17
100
AcDbEntity
  8
0
100
AcDbLine
 10
0.6296572875253759
 20
41.77379812098636
 30
0.0
 11
-0.6953427124746696
 21
41.77379812098637
 31
0.0
  0
ARC
  5
101C
330
17
100
AcDbEntity
  8
0
100
AcDbCircle
 10
1.629657287525347
 20
42.62379812098634
 30
0.0
 40
0.15
100
AcDbArc
 50
0.0
 51
89.99999999999919
  0
ARC
  5
101D
330
17
100
AcDbEntity
  8
0
100
AcDbCircle
 10
1.629657287525347
 20
42.62379812098634
 30
0.0
 40
0.25
100
AcDbArc
 50
0.0
 51
89.99999999999919
  0
LINE
  5
1020
330
17
100
AcDbEntity
  8
0
100
AcDbLine
 10
1.474178614929215
 20
42.53903012650885
 30
0.0
 11
1.544889293047859
 21
42.46831944839022
 31
0.0
  0
CIRCLE
  5
108E
330
17
100
AcDbEntity
  8
0
100
AcDbCircle
 10
8.076079274623268
 20
33.95875114914423
 30
0.0
 40
0.1325
  0
CIRCLE
  5
1091
330
17
100
AcDbEntity
  8
0
100
AcDbCircle
 10
8.763579274623268
 20
31.33375114914423
 30
0.0
 40
0.1325
  0
CIRCLE
  5
1096
330
17
100
AcDbEntity
  8
0
100
AcDbCircle
 10
9.201079274623268
 20
32.94681990978909
 30
0.0
 40
0.28125
  0
CIRCLE
  5
10B4
330
17
100
AcDbEntity
  8
0
100
AcDbCircle
 10
0.3733822875252884
 20
30.87499999999993
 30
0.0
 40
0.1325
  0
CIRCLE
  5
10B7
330
17
100
AcDbEntity
  8
0
100
AcDbCircle
 10
1.060882287525288
 20
33.49999999999993
 30
0.0
 40
0.1325
  0
LINE
  5
10C4
330
17
100
AcDbEntity
  8
0
100
AcDbLine
 10
1.848407287525333
 20
29.49374999999996
 30
0.0
 11
1.598432287525341
 21
29.49374999999999
 31
0.0
  0
LINE
  5
10C5
330
17
100
AcDbEntity
  8
0
100
AcDbLine
 10
1.598432287525341
 20
29.49374999999999
 30
0.0
 11
1.598432287525341
 21
29.37499999999993
 31
0.0
  0
LINE
  5
10D0
330
17
100
AcDbEntity
  8
0
100
AcDbLine
 10
7.288554274623309
 20
34.95875114914424
 30
0.0
 11
7.288554274623309
 21
29.60875114914425
 31
0.0
  0
LINE
  5
10D1
330
17
100
AcDbEntity
  8
0
100
AcDbLine
 10
7.388554274623303
 20
34.95875114914423
 30
0.0
 11
7.388554274623303
 21
29.60875114914425
 31
0.0
  0
LINE
  5
10D2
330
17
100
AcDbEntity
  8
0
100
AcDbLine
 10
11.0510542746233
 20
34.95875114914423
 30
0.0
 11
11.05105427462328
 21
29.60875114914427
 31
0.0
  0
LINE
  5
10D3
330
17
100
AcDbEntity
  8
0
  6
HIDDENX2
100
AcDbLine
 10
10.9510542746233
 20
34.95875114914423
 30
0.0
 11
10.95105427462329
 21
29.60875114914427
 31
0.0
  0
LINE
  5
10D4
330
17
100
AcDbEntity
  8
0
  6
Continuous
 48
0.25
100
AcDbLine
 10
10.55387651522875
 20
29.4587511491443
 30
0.0
 11
7.817346296457657
 21
29.45875114914429
 31
0.0
  0
LINE
  5
10D5
330
17
100
AcDbEntity
  8
0
100
AcDbLine
 10
9.801079274623291
 20
29.07674603498829
 30
0.0
 11
8.53857927462326
 21
29.07674603498829
 31
0.0
  0
ARC
  5
10D6
330
17
100
AcDbEntity
  8
0
100
AcDbCircle
 10
10.80105427462328
 20
29.60875114914425
 30
0.0
 40
0.25
100
AcDbArc
 50
284.9999999999995
 51
0.000000000000007
  0
LINE
  5
10D7
330
17
100
AcDbEntity
  8
0
100
AcDbLine
 10
11.05105427462327
 20
29.60875114914425
 30
0.0
 11
10.80107927462328
 21
29.60875114914428
 31
0.0
  0
LINE
  5
10D8
330
17
100
AcDbEntity
  8
0
  6
HIDDEN
100
AcDbLine
 10
10.83987713138868
 20
29.46386227520089
 30
0.0
 11
9.755628080485565
 21
29.1733386176172
 31
0.0
  0
LINE
  5
10D9
330
17
100
AcDbEntity
  8
0
100
AcDbLine
 10
10.8657590358989
 20
29.36726969257197
 30
0.0
 11
9.781509984995807
 21
29.07674603498829
 31
0.0
  0
LINE
  5
10DA
330
17
100
AcDbEntity
  8
0
100
AcDbLine
 10
10.80107927462328
 20
29.45875114914422
 30
0.0
 11
9.801079274623291
 21
29.07674603498829
 31
0.0
  0
ARC
  5
10DB
330
17
100
AcDbEntity
  8
0
100
AcDbCircle
 10
10.80105427462328
 20
29.60875114914425
 30
0.0
 40
0.15
100
AcDbArc
 50
285.0000000000004
 51
0.000000000000007
  0
LINE
  5
10DC
330
17
100
AcDbEntity
  8
0
100
AcDbLine
 10
10.80107927462328
 20
29.60875114914428
 30
0.0
 11
10.80107927462328
 21
29.45875114914422
 31
0.0
  0
LINE
  5
10DD
330
17
100
AcDbEntity
  8
0
  6
HIDDEN
100
AcDbLine
 10
9.781509984995807
 20
29.07674603498829
 30
0.0
 11
9.755628080485565
 21
29.1733386176172
 31
0.0
  0
LINE
  5
10DE
330
17
100
AcDbEntity
  8
0
  6
HIDDEN
100
AcDbLine
 10
7.499731417857916
 20
29.46386227520089
 30
0.0
 11
8.583980468761027
 21
29.1733386176172
 31
0.0
  0
LINE
  5
10DF
330
17
100
AcDbEntity
  8
0
100
AcDbLine
 10
7.538529274623315
 20
29.45875114914422
 30
0.0
 11
8.53857927462326
 21
29.07674603498829
 31
0.0
  0
LINE
  5
10E0
330
17
100
AcDbEntity
  8
0
100
AcDbLine
 10
7.473849513347702
 20
29.36726969257197
 30
0.0
 11
8.558098564250784
 21
29.07674603498829
 31
0.0
  0
LINE
  5
10E1
330
17
100
AcDbEntity
  8
0
  6
HIDDEN
100
AcDbLine
 10
8.558098564250784
 20
29.07674603498829
 30
0.0
 11
8.583980468761027
 21
29.1733386176172
 31
0.0
  0
LINE
  5
10E2
330
17
100
AcDbEntity
  8
0
100
AcDbLine
 10
7.538529274623315
 20
29.60875114914428
 30
0.0
 11
7.538529274623315
 21
29.45875114914422
 31
0.0
  0
LINE
  5
10E3
330
17
100
AcDbEntity
  8
0
100
AcDbLine
 10
7.288554274623323
 20
29.60875114914425
 30
0.0
 11
7.538529274623315
 21
29.60875114914428
 31
0.0
  0
ARC
  5
10E4
330
17
100
AcDbEntity
  8
0
100
AcDbCircle
 10
7.538554274623309
 20
29.60875114914425
 30
0.0
 40
0.15
100
AcDbArc
 50
180.0
 51
254.9999999999996
  0
ARC
  5
10E5
330
17
100
AcDbEntity
  8
0
100
AcDbCircle
 10
7.538554274623309
 20
29.60875114914425
 30
0.0
 40
0.25
100
AcDbArc
 50
180.0
 51
255.0000000000005
  0
CIRCLE
  5
10E7
330
17
100
AcDbEntity
  8
0
  6
HIDDEN2
100
AcDbCircle
 10
9.888579274623268
 20
31.58375114914425
 30
0.0
 40
0.1145
  0
CIRCLE
  5
10E9
330
17
100
AcDbEntity
  8
0
  6
HIDDEN2
100
AcDbCircle
 10
8.451079274623282
 20
31.58375114914425
 30
0.0
 40
0.1145
  0
LINE
  5
10EC
330
17
100
AcDbEntity
  8
0
100
AcDbLine
 10
7.288554274623309
 20
34.95875114914424
 30
0.0
 11
11.05105427462328
 21
34.95875114914423
 31
0.0
  0
CIRCLE
  5
10ED
330
17
100
AcDbEntity
  8
0
  6
HIDDEN2
100
AcDbCircle
 10
9.888579274623268
 20
34.20875114914425
 30
0.0
 40
0.1145
  0
CIRCLE
  5
10F0
330
17
100
AcDbEntity
  8
0
  6
HIDDEN2
100
AcDbCircle
 10
8.451079274623282
 20
34.20875114914425
 30
0.0
 40
0.1145
  0
LINE
  5
10F1
330
17
100
AcDbEntity
  8
0
 48
0.25
100
AcDbLine
 10
7.901004274623332
 20
34.95875114914423
 30
0.0
 11
7.401004274623332
 21
34.45875114914423
 31
0.0
  0
CIRCLE
  5
1271
330
17
100
AcDbEntity
  8
0
100
AcDbCircle
 10
9.888579274623268
 20
31.58375114914425
 30
0.0
 40
0.156
  0
CIRCLE
  5
1273
330
17
100
AcDbEntity
  8
0
100
AcDbCircle
 10
8.451079274623282
 20
31.58375114914425
 30
0.0
 40
0.156
  0
CIRCLE
  5
1274
330
17
100
AcDbEntity
  8
0
100
AcDbCircle
 10
9.888579274623268
 20
34.20875114914425
 30
0.0
 40
0.156
  0
CIRCLE
  5
1275
330
17
100
AcDbEntity
  8
0
100
AcDbCircle
 10
8.451079274623282
 20
34.20875114914425
 30
0.0
 40
0.156
  0
CIRCLE
  5
1289
330
17
100
AcDbEntity
  8
0
100
AcDbCircle
 10
-0.7516177124746122
 20
34.12499999999996
 30
0.0
 40
0.156
  0
CIRCLE
  5
128A
330
17
100
AcDbEntity
  8
0
100
AcDbCircle
 10
0.6858822875253736
 20
34.12499999999996
 30
0.0
 40
0.156
  0
CIRCLE
  5
128B
330
17
100
AcDbEntity
  8
0
100
AcDbCircle
 10
-0.7516177124746122
 20
31.49999999999996
 30
0.0
 40
0.156
  0
CIRCLE
  5
128C
330
17
100
AcDbEntity
  8
0
100
AcDbCircle
 10
0.6858822875253736
 20
31.49999999999996
 30
0.0
 40
0.156
  0
ARC
  5
1329
330
17
100
AcDbEntity
  8
0
100
AcDbCircle
 10
0.0366697466133203
 20
12.09654492450355
 30
0.0
 40
0.1440914856623236
100
AcDbArc
 50
91.51187957473381
 51
180.3198368415856
  0
ARC
  5
132A
330
17
100
AcDbEntity
  8
0
100
AcDbCircle
 10
0.0366697466133203
 20
11.94157983951855
 30
0.0
 40
0.1440914856623236
100
AcDbArc
 50
91.51187957473381
 51
180.3198368415856
  0
ARC
  5
132B
330
17
100
AcDbEntity
  8
0
100
AcDbCircle
 10
0.036669746613331
 20
11.78661475453355
 30
0.0
 40
0.1440914856623236
100
AcDbArc
 50
91.51187957473381
 51
180.3198368415856
  0
ARC
  5
132C
330
17
100
AcDbEntity
  8
0
100
AcDbCircle
 10
0.0366697466133203
 20
12.71640526444356
 30
0.0
 40
0.1440914856623236
100
AcDbArc
 50
91.51187957473381
 51
180.3198368415856
  0
ARC
  5
132D
330
17
100
AcDbEntity
  8
0
100
AcDbCircle
 10
0.036669746613315
 20
12.25151000948856
 30
0.0
 40
0.1440914856623236
100
AcDbArc
 50
91.51187957473381
 51
180.3198368415856
  0
ARC
  5
132E
330
17
100
AcDbEntity
  8
0
100
AcDbCircle
 10
0.0366697466133203
 20
12.56144017945856
 30
0.0
 40
0.1440914856623236
100
AcDbArc
 50
91.51187957473381
 51
180.3198368415856
  0
ARC
  5
132F
330
17
100
AcDbEntity
  8
0
100
AcDbCircle
 10
0.036669746613331
 20
12.40647509447356
 30
0.0
 40
0.1440914856623236
100
AcDbArc
 50
91.51187957473381
 51
180.3198368415856
  0
ARC
  5
1330
330
17
100
AcDbEntity
  8
0
100
AcDbCircle
 10
0.036669746613315
 20
12.87137034942856
 30
0.0
 40
0.1440914856623236
100
AcDbArc
 50
91.51187957473381
 51
180.3198368415856
  0
ARC
  5
133A
330
17
100
AcDbEntity
  8
0
100
AcDbCircle
 10
0.0366697466133363
 20
11.01178932960855
 30
0.0
 40
0.1440914856623236
100
AcDbArc
 50
91.51187957473381
 51
180.3198368415856
  0
ARC
  5
133B
330
17
100
AcDbEntity
  8
0
100
AcDbCircle
 10
0.036669746613331
 20
11.16675441459355
 30
0.0
 40
0.1440914856623236
100
AcDbArc
 50
91.51187957473381
 51
180.3198368415856
  0
ARC
  5
133C
330
17
100
AcDbEntity
  8
0
100
AcDbCircle
 10
0.036669746613331
 20
11.32171949957855
 30
0.0
 40
0.1440914856623236
100
AcDbArc
 50
91.51187957473381
 51
180.3198368415856
  0
ARC
  5
133D
330
17
100
AcDbEntity
  8
0
100
AcDbCircle
 10
0.0366697466133203
 20
11.47668458456355
 30
0.0
 40
0.1440914856623236
100
AcDbArc
 50
91.51187957473381
 51
180.3198368415856
  0
ARC
  5
133E
330
17
100
AcDbEntity
  8
0
100
AcDbCircle
 10
0.0366697466133363
 20
11.63164966954855
 30
0.0
 40
0.1440914856623236
100
AcDbArc
 50
91.51187957473381
 51
180.3198368415856
  0
ARC
  5
134E
330
17
100
AcDbEntity
  8
0
100
AcDbCircle
 10
0.0463105203446492
 20
0.3305377185405831
 30
0.0
 40
0.1440914856623236
100
AcDbArc
 50
91.51187957473381
 51
180.3198368415856
  0
ARC
  5
1354
330
17
100
AcDbEntity
  8
0
100
AcDbCircle
 10
0.0463105203446599
 20
0.020607548570581
 30
0.0
 40
0.1440914856623236
100
AcDbArc
 50
91.51187957473381
 51
180.3198368415856
  0
ARC
  5
1355
330
17
100
AcDbEntity
  8
0
100
AcDbCircle
 10
0.0463105203446492
 20
0.1755726335555821
 30
0.0
 40
0.1440914856623236
100
AcDbArc
 50
91.51187957473381
 51
180.3198368415856
  0
ARC
  5
1359
330
17
100
AcDbEntity
  8
0
100
AcDbCircle
 10
0.0463105203446279
 20
1.725223483405593
 30
0.0
 40
0.1440914856623236
100
AcDbArc
 50
91.51187957473381
 51
180.3198368415856
  0
ARC
  5
135A
330
17
100
AcDbEntity
  8
0
100
AcDbCircle
 10
0.0463105203446332
 20
1.415293313435591
 30
0.0
 40
0.1440914856623236
100
AcDbArc
 50
91.51187957473381
 51
180.3198368415856
  0
ARC
  5
135B
330
17
100
AcDbEntity
  8
0
100
AcDbCircle
 10
0.0463105203446332
 20
1.570258398420592
 30
0.0
 40
0.1440914856623236
100
AcDbArc
 50
91.51187957473381
 51
180.3198368415856
  0
ARC
  5
135D
330
17
100
AcDbEntity
  8
0
100
AcDbCircle
 10
0.0463105203446439
 20
1.880188568390594
 30
0.0
 40
0.1440914856623236
100
AcDbArc
 50
91.51187957473381
 51
180.3198368415856
  0
ARC
  5
135F
330
17
100
AcDbEntity
  8
0
100
AcDbCircle
 10
0.0463105203446439
 20
1.105363143465588
 30
0.0
 40
0.1440914856623236
100
AcDbArc
 50
91.51187957473381
 51
180.3198368415856
  0
ARC
  5
1360
330
17
100
AcDbEntity
  8
0
100
AcDbCircle
 10
0.0463105203446599
 20
0.6404678885105852
 30
0.0
 40
0.1440914856623236
100
AcDbArc
 50
91.51187957473381
 51
180.3198368415856
  0
ARC
  5
1361
330
17
100
AcDbEntity
  8
0
100
AcDbCircle
 10
0.0463105203446492
 20
0.7954329734955863
 30
0.0
 40
0.1440914856623236
100
AcDbArc
 50
91.51187957473381
 51
180.3198368415856
  0
ARC
  5
1362
330
17
100
AcDbEntity
  8
0
100
AcDbCircle
 10
0.0463105203446439
 20
0.4855028035255842
 30
0.0
 40
0.1440914856623236
100
AcDbArc
 50
91.51187957473381
 51
180.3198368415856
  0
ARC
  5
1363
330
17
100
AcDbEntity
  8
0
100
AcDbCircle
 10
0.0463105203446492
 20
0.9503980584805873
 30
0.0
 40
0.1440914856623236
100
AcDbArc
 50
91.51187957473381
 51
180.3198368415856
  0
ARC
  5
1364
330
17
100
AcDbEntity
  8
0
100
AcDbCircle
 10
0.0463105203446439
 20
1.260328228450589
 30
0.0
 40
0.1440914856623236
100
AcDbArc
 50
91.51187957473381
 51
180.3198368415856
  0
LINE
  5
1399
330
17
100
AcDbEntity
  8
0
100
AcDbLine
 10
0.0000000000000107
 20
10.99421860307606
 30
0.0
 11
0.0000000000000018
 21
2.043499809556927
 31
0.0
  0
LINE
  5
139A
330
17
100
AcDbEntity
  8
0
100
AcDbLine
 10
-0.0656854249492191
 20
10.99421860307606
 30
0.0
 11
-0.0656854249492103
 21
2.043499809556927
 31
0.0
  0
LINE
  5
139B
330
17
100
AcDbEntity
  8
0
100
AcDbLine
 10
-0.0656854249492085
 20
0.0253799350904416
 30
0.0
 11
-0.0656854249492085
 21
0.0
 31
0.0
  0
LINE
  5
139C
330
17
100
AcDbEntity
  8
0
100
AcDbLine
 10
0.0000000000000018
 20
0.0953859985324286
 30
0.0
 11
0.0
 21
0.0
 31
0.0
  0
ARC
  5
13AA
330
17
100
AcDbEntity
  8
0
100
AcDbCircle
 10
-0.7540122056191052
 20
39.15072757541548
 30
0.0
 40
0.1536055072506677
100
AcDbArc
 50
15.91614773557819
 51
89.10680345528424
  0
ARC
  5
13AD
330
17
100
AcDbEntity
  8
0
100
AcDbCircle
 10
-0.5374462381351393
 20
39.22259653079509
 30
0.0
 40
0.0749999999999955
100
AcDbArc
 50
203.3663633913246
 51
259.7300879807808
  0
ARC
  5
13B1
330
17
100
AcDbEntity
  8
0
100
AcDbCircle
 10
-0.7540122056191034
 20
39.15072757541548
 30
0.0
 40
0.1536055072506677
100
AcDbArc
 50
89.10680345528425
 51
162.2974591749903
  0
ARC
  5
13B2
330
17
100
AcDbEntity
  8
0
100
AcDbCircle
 10
-0.9682325212877601
 20
39.22931269725444
 30
0.0
 40
0.0749999999999955
100
AcDbArc
 50
278.4835189297878
 51
334.8472435192439
  0
ARC
  5
13B3
330
17
100
AcDbEntity
  8
0
100
AcDbCircle
 10
0.6883267806698097
 20
39.15072757541548
 30
0.0
 40
0.1536055072506677
100
AcDbArc
 50
17.70254082500972
 51
90.89319654471576
  0
ARC
  5
13B4
330
17
100
AcDbEntity
  8
0
100
AcDbCircle
 10
0.6883267806698115
 20
39.15072757541548
 30
0.0
 40
0.1536055072506677
100
AcDbArc
 50
90.89319654471576
 51
164.0838522644218
  0
ARC
  5
13B5
330
17
100
AcDbEntity
  8
0
100
AcDbCircle
 10
0.9025470963384663
 20
39.22931269725444
 30
0.0
 40
0.0749999999999955
100
AcDbArc
 50
205.1527564807561
 51
261.5164810702123
  0
ARC
  5
13B6
330
17
100
AcDbEntity
  8
0
100
AcDbCircle
 10
0.4717608131858455
 20
39.22259653079509
 30
0.0
 40
0.0749999999999955
100
AcDbArc
 50
280.2699120192193
 51
336.6336366086754
  0
ARC
  5
13B7
330
17
100
AcDbEntity
  8
0
100
AcDbCircle
 10
1.777727833096247
 20
41.61369261413083
 30
0.0
 40
0.1536055072506677
100
AcDbArc
 50
180.8931965447158
 51
254.0838522644218
  0
ARC
  5
13B8
330
17
100
AcDbEntity
  8
0
100
AcDbCircle
 10
1.777727833096247
 20
41.61369261413083
 30
0.0
 40
0.1536055072506677
100
AcDbArc
 50
107.7025408250097
 51
180.8931965447158
  0
ARC
  5
13B9
330
17
100
AcDbEntity
  8
0
100
AcDbCircle
 10
1.777727833096247
 20
40.17135362784192
 30
0.0
 40
0.1536055072506677
100
AcDbArc
 50
179.1068034552843
 51
252.2974591749903
  0
ARC
  5
13BA
330
17
100
AcDbEntity
  8
0
100
AcDbCircle
 10
1.777727833096247
 20
40.17135362784192
 30
0.0
 40
0.1536055072506677
100
AcDbArc
 50
105.9161477355782
 51
179.1068034552843
  0
ARC
  5
13BB
330
17
100
AcDbEntity
  8
0
100
AcDbCircle
 10
1.70585887771664
 20
41.39712664664687
 30
0.0
 40
0.0749999999999955
100
AcDbArc
 50
10.26991201921923
 51
66.63363660867545
  0
ARC
  5
13BC
330
17
100
AcDbEntity
  8
0
100
AcDbCircle
 10
1.699142711257284
 20
39.95713331217326
 30
0.0
 40
0.0749999999999955
100
AcDbArc
 50
8.483518929787719
 51
64.84724351924393
  0
ARC
  5
13BD
330
17
100
AcDbEntity
  8
0
100
AcDbCircle
 10
1.70585887771664
 20
40.38791959532588
 30
0.0
 40
0.0749999999999955
100
AcDbArc
 50
293.3663633913246
 51
349.7300879807808
  0
ARC
  5
13BE
330
17
100
AcDbEntity
  8
0
100
AcDbCircle
 10
1.699142711257284
 20
41.82791292979949
 30
0.0
 40
0.0749999999999955
100
AcDbArc
 50
295.1527564807561
 51
351.5164810702123
  0
LINE
  5
1776
330
17
100
AcDbEntity
  8
0
100
AcDbLine
 10
7.70023322350211
 20
29.31508137634659
 30
0.0
 11
8.887639902911843
 21
0.083751149144291
 31
0.0
  0
LINE
  5
1777
330
17
100
AcDbEntity
  8
0
100
AcDbLine
 10
8.816929224792972
 20
0.083751149144291
 30
0.0
 11
7.628744434841767
 21
29.334236739536
 31
0.0
  0
LINE
  5
1778
330
17
100
AcDbEntity
  8
0
100
AcDbLine
 10
9.168575824588515
 20
29.45875114914429
 30
0.0
 11
9.16857582458853
 21
13.09890961947466
 31
0.0
  0
LINE
  5
1779
330
17
100
AcDbEntity
  8
0
  6
HIDDENX2
100
AcDbLine
 10
9.068575824588535
 20
29.45875114914429
 30
0.0
 11
9.06857582458855
 21
0.083751149144291
 31
0.0
  0
LINE
  5
177A
330
17
100
AcDbEntity
  8
0
  6
HIDDENX2
100
AcDbLine
 10
9.334261249537747
 20
29.45875114914429
 30
0.0
 11
9.334261249537747
 21
0.083751149144291
 31
0.0
  0
LINE
  5
177B
330
17
100
AcDbEntity
  8
0
100
AcDbLine
 10
9.234261249537781
 20
29.45875114914429
 30
0.0
 11
9.234261249537767
 21
13.09890961947466
 31
0.0
  0
LINE
  5
177C
330
17
100
AcDbEntity
  8
0
100
AcDbLine
 10
9.585907849333324
 20
0.083751149144291
 30
0.0
 11
10.77409263928452
 21
29.33423673953602
 31
0.0
  0
LINE
  5
177D
330
17
100
AcDbEntity
  8
0
100
AcDbLine
 10
10.70260385062417
 20
29.31508137634661
 30
0.0
 11
9.515197171214453
 21
0.083751149144291
 31
0.0
  0
LINE
  5
177E
330
17
100
AcDbEntity
  8
0
100
AcDbLine
 10
9.585907849333324
 20
0.083751149144291
 30
0.0
 11
9.234261249537752
 21
0.083751149144291
 31
0.0
  0
LINE
  5
177F
330
17
100
AcDbEntity
  8
0
100
AcDbLine
 10
8.816929224792972
 20
0.083751149144291
 30
0.0
 11
9.168575824588544
 21
0.083751149144291
 31
0.0
  0
ARC
  5
1780
330
17
100
AcDbEntity
  8
0
100
AcDbCircle
 10
9.270930996151073
 20
12.18029607364785
 30
0.0
 40
0.1440914856623236
100
AcDbArc
 50
91.51187957473381
 51
180.3198368415856
  0
ARC
  5
1781
330
17
100
AcDbEntity
  8
0
100
AcDbCircle
 10
9.270930996151073
 20
12.02533098866284
 30
0.0
 40
0.1440914856623236
100
AcDbArc
 50
91.51187957473381
 51
180.3198368415856
  0
ARC
  5
1782
330
17
100
AcDbEntity
  8
0
100
AcDbCircle
 10
9.270930996151083
 20
11.87036590367784
 30
0.0
 40
0.1440914856623236
100
AcDbArc
 50
91.51187957473381
 51
180.3198368415856
  0
ARC
  5
1783
330
17
100
AcDbEntity
  8
0
100
AcDbCircle
 10
9.270930996151073
 20
12.80015641358785
 30
0.0
 40
0.1440914856623236
100
AcDbArc
 50
91.51187957473381
 51
180.3198368415856
  0
ARC
  5
1784
330
17
100
AcDbEntity
  8
0
100
AcDbCircle
 10
9.270930996151066
 20
12.33526115863285
 30
0.0
 40
0.1440914856623236
100
AcDbArc
 50
91.51187957473381
 51
180.3198368415856
  0
ARC
  5
1785
330
17
100
AcDbEntity
  8
0
100
AcDbCircle
 10
9.270930996151073
 20
12.64519132860285
 30
0.0
 40
0.1440914856623236
100
AcDbArc
 50
91.51187957473381
 51
180.3198368415856
  0
ARC
  5
1786
330
17
100
AcDbEntity
  8
0
100
AcDbCircle
 10
9.270930996151083
 20
12.49022624361785
 30
0.0
 40
0.1440914856623236
100
AcDbArc
 50
91.51187957473381
 51
180.3198368415856
  0
ARC
  5
1787
330
17
100
AcDbEntity
  8
0
100
AcDbCircle
 10
9.270930996151066
 20
12.95512149857285
 30
0.0
 40
0.1440914856623236
100
AcDbArc
 50
91.51187957473381
 51
180.3198368415856
  0
ARC
  5
1788
330
17
100
AcDbEntity
  8
0
100
AcDbCircle
 10
9.270930996151087
 20
11.09554047875284
 30
0.0
 40
0.1440914856623236
100
AcDbArc
 50
91.51187957473381
 51
180.3198368415856
  0
ARC
  5
1789
330
17
100
AcDbEntity
  8
0
100
AcDbCircle
 10
9.270930996151083
 20
11.25050556373784
 30
0.0
 40
0.1440914856623236
100
AcDbArc
 50
91.51187957473381
 51
180.3198368415856
  0
ARC
  5
178A
330
17
100
AcDbEntity
  8
0
100
AcDbCircle
 10
9.270930996151083
 20
11.40547064872284
 30
0.0
 40
0.1440914856623236
100
AcDbArc
 50
91.51187957473381
 51
180.3198368415856
  0
ARC
  5
178B
330
17
100
AcDbEntity
  8
0
100
AcDbCircle
 10
9.270930996151073
 20
11.56043573370784
 30
0.0
 40
0.1440914856623236
100
AcDbArc
 50
91.51187957473381
 51
180.3198368415856
  0
ARC
  5
178C
330
17
100
AcDbEntity
  8
0
100
AcDbCircle
 10
9.270930996151087
 20
11.71540081869284
 30
0.0
 40
0.1440914856623236
100
AcDbArc
 50
91.51187957473381
 51
180.3198368415856
  0
ARC
  5
178D
330
17
100
AcDbEntity
  8
0
100
AcDbCircle
 10
9.2805717698824
 20
0.4142888676848742
 30
0.0
 40
0.1440914856623236
100
AcDbArc
 50
91.51187957473381
 51
180.3198368415856
  0
ARC
  5
178E
330
17
100
AcDbEntity
  8
0
100
AcDbCircle
 10
9.280571769882414
 20
0.1043586977148721
 30
0.0
 40
0.1440914856623236
100
AcDbArc
 50
91.51187957473381
 51
180.3198368415856
  0
ARC
  5
178F
330
17
100
AcDbEntity
  8
0
100
AcDbCircle
 10
9.2805717698824
 20
0.2593237826998731
 30
0.0
 40
0.1440914856623236
100
AcDbArc
 50
91.51187957473381
 51
180.3198368415856
  0
ARC
  5
1790
330
17
100
AcDbEntity
  8
0
100
AcDbCircle
 10
9.280571769882378
 20
1.808974632549884
 30
0.0
 40
0.1440914856623236
100
AcDbArc
 50
91.51187957473381
 51
180.3198368415856
  0
ARC
  5
1791
330
17
100
AcDbEntity
  8
0
100
AcDbCircle
 10
9.280571769882386
 20
1.499044462579882
 30
0.0
 40
0.1440914856623236
100
AcDbArc
 50
91.51187957473381
 51
180.3198368415856
  0
ARC
  5
1792
330
17
100
AcDbEntity
  8
0
100
AcDbCircle
 10
9.280571769882386
 20
1.654009547564883
 30
0.0
 40
0.1440914856623236
100
AcDbArc
 50
91.51187957473381
 51
180.3198368415856
  0
ARC
  5
1793
330
17
100
AcDbEntity
  8
0
100
AcDbCircle
 10
9.280571769882396
 20
1.963939717534885
 30
0.0
 40
0.1440914856623236
100
AcDbArc
 50
91.51187957473381
 51
180.3198368415856
  0
ARC
  5
1794
330
17
100
AcDbEntity
  8
0
100
AcDbCircle
 10
9.280571769882396
 20
1.189114292609879
 30
0.0
 40
0.1440914856623236
100
AcDbArc
 50
91.51187957473381
 51
180.3198368415856
  0
ARC
  5
1795
330
17
100
AcDbEntity
  8
0
100
AcDbCircle
 10
9.280571769882414
 20
0.7242190376548763
 30
0.0
 40
0.1440914856623236
100
AcDbArc
 50
91.51187957473381
 51
180.3198368415856
  0
ARC
  5
1796
330
17
100
AcDbEntity
  8
0
100
AcDbCircle
 10
9.2805717698824
 20
0.8791841226398773
 30
0.0
 40
0.1440914856623236
100
AcDbArc
 50
91.51187957473381
 51
180.3198368415856
  0
ARC
  5
1797
330
17
100
AcDbEntity
  8
0
100
AcDbCircle
 10
9.280571769882396
 20
0.5692539526698752
 30
0.0
 40
0.1440914856623236
100
AcDbArc
 50
91.51187957473381
 51
180.3198368415856
  0
ARC
  5
1798
330
17
100
AcDbEntity
  8
0
100
AcDbCircle
 10
9.2805717698824
 20
1.034149207624878
 30
0.0
 40
0.1440914856623236
100
AcDbArc
 50
91.51187957473381
 51
180.3198368415856
  0
ARC
  5
1799
330
17
100
AcDbEntity
  8
0
100
AcDbCircle
 10
9.280571769882396
 20
1.344079377594881
 30
0.0
 40
0.1440914856623236
100
AcDbArc
 50
91.51187957473381
 51
180.3198368415856
  0
LINE
  5
179A
330
17
100
AcDbEntity
  8
0
100
AcDbLine
 10
9.234261249537763
 20
11.07796975222035
 30
0.0
 11
9.234261249537752
 21
2.127250958701218
 31
0.0
  0
LINE
  5
179B
330
17
100
AcDbEntity
  8
0
100
AcDbLine
 10
9.168575824588533
 20
11.07796975222035
 30
0.0
 11
9.168575824588544
 21
2.127250958701218
 31
0.0
  0
LINE
  5
179C
330
17
100
AcDbEntity
  8
0
100
AcDbLine
 10
9.168575824588544
 20
0.1091310842347326
 30
0.0
 11
9.168575824588544
 21
0.083751149144291
 31
0.0
  0
LINE
  5
179D
330
17
100
AcDbEntity
  8
0
100
AcDbLine
 10
9.234261249537752
 20
0.1791371476767196
 30
0.0
 11
9.234261249537752
 21
0.083751149144291
 31
0.0
  0
CIRCLE
  5
17A2
330
17
100
AcDbEntity
  8
0
100
AcDbCircle
 10
-9.266764699572548
 20
32.94681990978909
 30
0.0
 40
0.28125
  0
LINE
  5
17A3
330
17
100
AcDbEntity
  8
0
100
AcDbLine
 10
-7.354239699572588
 20
34.95875114914424
 30
0.0
 11
-7.354239699572588
 21
29.60875114914425
 31
0.0
  0
LINE
  5
17A4
330
17
100
AcDbEntity
  8
0
  6
HIDDENX2
100
AcDbLine
 10
-7.454239699572582
 20
34.95875114914423
 30
0.0
 11
-7.454239699572582
 21
29.60875114914425
 31
0.0
  0
LINE
  5
17A5
330
17
100
AcDbEntity
  8
0
100
AcDbLine
 10
-11.11673969957258
 20
34.95875114914423
 30
0.0
 11
-11.11673969957256
 21
29.60875114914427
 31
0.0
  0
LINE
  5
17A6
330
17
100
AcDbEntity
  8
0
  6
HIDDENX2
100
AcDbLine
 10
-11.01673969957258
 20
34.95875114914423
 30
0.0
 11
-11.01673969957257
 21
29.60875114914427
 31
0.0
  0
LINE
  5
17A7
330
17
100
AcDbEntity
  8
0
  6
Continuous
 48
0.25
100
AcDbLine
 10
-10.61956194017803
 20
29.4587511491443
 30
0.0
 11
-7.883031721406937
 21
29.45875114914429
 31
0.0
  0
LINE
  5
17A8
330
17
100
AcDbEntity
  8
0
100
AcDbLine
 10
-9.86676469957257
 20
29.07674603498829
 30
0.0
 11
-8.604264699572539
 21
29.07674603498829
 31
0.0
  0
ARC
  5
17A9
330
17
100
AcDbEntity
  8
0
100
AcDbCircle
 10
-10.86673969957256
 20
29.60875114914425
 30
0.0
 40
0.25
100
AcDbArc
 50
180.0
 51
255.0000000000005
  0
LINE
  5
17AA
330
17
100
AcDbEntity
  8
0
100
AcDbLine
 10
-11.11673969957255
 20
29.60875114914425
 30
0.0
 11
-10.86676469957256
 21
29.60875114914428
 31
0.0
  0
LINE
  5
17AB
330
17
100
AcDbEntity
  8
0
  6
HIDDEN
100
AcDbLine
 10
-10.90556255633796
 20
29.46386227520089
 30
0.0
 11
-9.821313505434844
 21
29.1733386176172
 31
0.0
  0
LINE
  5
17AC
330
17
100
AcDbEntity
  8
0
100
AcDbLine
 10
-10.93144446084818
 20
29.36726969257197
 30
0.0
 11
-9.847195409945087
 21
29.07674603498829
 31
0.0
  0
LINE
  5
17AD
330
17
100
AcDbEntity
  8
0
100
AcDbLine
 10
-10.86676469957256
 20
29.45875114914422
 30
0.0
 11
-9.86676469957257
 21
29.07674603498829
 31
0.0
  0
ARC
  5
17AE
330
17
100
AcDbEntity
  8
0
100
AcDbCircle
 10
-10.86673969957256
 20
29.60875114914425
 30
0.0
 40
0.15
100
AcDbArc
 50
180.0
 51
254.9999999999996
  0
LINE
  5
17AF
330
17
100
AcDbEntity
  8
0
100
AcDbLine
 10
-10.86676469957256
 20
29.60875114914428
 30
0.0
 11
-10.86676469957256
 21
29.45875114914422
 31
0.0
  0
LINE
  5
17B0
330
17
100
AcDbEntity
  8
0
  6
HIDDEN
100
AcDbLine
 10
-9.847195409945087
 20
29.07674603498829
 30
0.0
 11
-9.821313505434844
 21
29.1733386176172
 31
0.0
  0
LINE
  5
17B1
330
17
100
AcDbEntity
  8
0
  6
HIDDEN
100
AcDbLine
 10
-7.565416842807196
 20
29.46386227520089
 30
0.0
 11
-8.649665893710306
 21
29.1733386176172
 31
0.0
  0
LINE
  5
17B2
330
17
100
AcDbEntity
  8
0
100
AcDbLine
 10
-7.604214699572594
 20
29.45875114914422
 30
0.0
 11
-8.604264699572539
 21
29.07674603498829
 31
0.0
  0
LINE
  5
17B3
330
17
100
AcDbEntity
  8
0
100
AcDbLine
 10
-7.539534938296981
 20
29.36726969257197
 30
0.0
 11
-8.623783989200064
 21
29.07674603498829
 31
0.0
  0
LINE
  5
17B4
330
17
100
AcDbEntity
  8
0
  6
HIDDEN
100
AcDbLine
 10
-8.623783989200064
 20
29.07674603498829
 30
0.0
 11
-8.649665893710306
 21
29.1733386176172
 31
0.0
  0
LINE
  5
17B5
330
17
100
AcDbEntity
  8
0
100
AcDbLine
 10
-7.604214699572594
 20
29.60875114914428
 30
0.0
 11
-7.604214699572594
 21
29.45875114914422
 31
0.0
  0
LINE
  5
17B6
330
17
100
AcDbEntity
  8
0
100
AcDbLine
 10
-7.354239699572602
 20
29.60875114914425
 30
0.0
 11
-7.604214699572594
 21
29.60875114914428
 31
0.0
  0
ARC
  5
17B7
330
17
100
AcDbEntity
  8
0
100
AcDbCircle
 10
-7.604239699572588
 20
29.60875114914425
 30
0.0
 40
0.15
100
AcDbArc
 50
285.0000000000004
 51
0.000000000000007
  0
ARC
  5
17B8
330
17
100
AcDbEntity
  8
0
100
AcDbCircle
 10
-7.604239699572588
 20
29.60875114914425
 30
0.0
 40
0.25
100
AcDbArc
 50
284.9999999999995
 51
0.000000000000007
  0
CIRCLE
  5
17B9
330
17
100
AcDbEntity
  8
0
  6
HIDDEN2
100
AcDbCircle
 10
-9.954264699572548
 20
31.58375114914425
 30
0.0
 40
0.1145
  0
CIRCLE
  5
17BA
330
17
100
AcDbEntity
  8
0
  6
HIDDEN2
100
AcDbCircle
 10
-8.516764699572562
 20
31.58375114914425
 30
0.0
 40
0.1145
  0
LINE
  5
17BB
330
17
100
AcDbEntity
  8
0
100
AcDbLine
 10
-7.354239699572588
 20
34.95875114914424
 30
0.0
 11
-11.11673969957256
 21
34.95875114914423
 31
0.0
  0
CIRCLE
  5
17BC
330
17
100
AcDbEntity
  8
0
  6
HIDDEN2
100
AcDbCircle
 10
-9.954264699572548
 20
34.20875114914425
 30
0.0
 40
0.1145
  0
CIRCLE
  5
17BD
330
17
100
AcDbEntity
  8
0
  6
HIDDEN2
100
AcDbCircle
 10
-8.516764699572562
 20
34.20875114914425
 30
0.0
 40
0.1145
  0
LINE
  5
17BE
330
17
100
AcDbEntity
  8
0
  6
HIDDENX2
 48
0.25
100
AcDbLine
 10
-7.966689699572612
 20
34.95875114914423
 30
0.0
 11
-7.466689699572612
 21
34.45875114914423
 31
0.0
  0
CIRCLE
  5
17BF
330
17
100
AcDbEntity
  8
0
100
AcDbCircle
 10
-9.954264699572548
 20
31.58375114914425
 30
0.0
 40
0.156
  0
CIRCLE
  5
17C0
330
17
100
AcDbEntity
  8
0
100
AcDbCircle
 10
-8.516764699572562
 20
31.58375114914425
 30
0.0
 40
0.156
  0
CIRCLE
  5
17C1
330
17
100
AcDbEntity
  8
0
100
AcDbCircle
 10
-9.954264699572548
 20
34.20875114914425
 30
0.0
 40
0.156
  0
CIRCLE
  5
17C2
330
17
100
AcDbEntity
  8
0
100
AcDbCircle
 10
-8.516764699572562
 20
34.20875114914425
 30
0.0
 40
0.156
  0
LINE
  5
17C3
330
17
100
AcDbEntity
  8
0
100
AcDbLine
 10
-7.76591864845139
 20
29.31508137634659
 30
0.0
 11
-8.953325327861123
 21
0.083751149144291
 31
0.0
  0
LINE
  5
17C4
330
17
100
AcDbEntity
  8
0
100
AcDbLine
 10
-8.882614649742251
 20
0.083751149144291
 30
0.0
 11
-7.694429859791047
 21
29.334236739536
 31
0.0
  0
LINE
  5
17C5
330
17
100
AcDbEntity
  8
0
100
AcDbLine
 10
-9.234261249537795
 20
29.45875114914429
 30
0.0
 11
-9.234261249537809
 21
13.09890961947466
 31
0.0
  0
LINE
  5
17C6
330
17
100
AcDbEntity
  8
0
  6
HIDDENX2
100
AcDbLine
 10
-9.134261249537815
 20
29.45875114914429
 30
0.0
 11
-9.134261249537829
 21
0.083751149144291
 31
0.0
  0
LINE
  5
17C7
330
17
100
AcDbEntity
  8
0
  6
HIDDENX2
100
AcDbLine
 10
-9.399946674487026
 20
29.45875114914429
 30
0.0
 11
-9.399946674487026
 21
0.083751149144291
 31
0.0
  0
LINE
  5
17C8
330
17
100
AcDbEntity
  8
0
100
AcDbLine
 10
-9.29994667448706
 20
29.45875114914429
 30
0.0
 11
-9.299946674487046
 21
13.09890961947466
 31
0.0
  0
LINE
  5
17C9
330
17
100
AcDbEntity
  8
0
100
AcDbLine
 10
-9.651593274282604
 20
0.083751149144291
 30
0.0
 11
-10.8397780642338
 21
29.33423673953602
 31
0.0
  0
LINE
  5
17CA
330
17
100
AcDbEntity
  8
0
100
AcDbLine
 10
-10.76828927557345
 20
29.31508137634661
 30
0.0
 11
-9.580882596163733
 21
0.083751149144291
 31
0.0
  0
LINE
  5
17CB
330
17
100
AcDbEntity
  8
0
100
AcDbLine
 10
-9.651593274282604
 20
0.083751149144291
 30
0.0
 11
-9.299946674487032
 21
0.083751149144291
 31
0.0
  0
LINE
  5
17CC
330
17
100
AcDbEntity
  8
0
100
AcDbLine
 10
-8.882614649742251
 20
0.083751149144291
 30
0.0
 11
-9.234261249537823
 21
0.083751149144291
 31
0.0
  0
ARC
  5
17CD
330
17
100
AcDbEntity
  8
0
100
AcDbCircle
 10
-9.336616421100352
 20
12.18029607364785
 30
0.0
 40
0.1440914856623236
100
AcDbArc
 50
359.6801631584144
 51
88.4881204252662
  0
ARC
  5
17CE
330
17
100
AcDbEntity
  8
0
100
AcDbCircle
 10
-9.336616421100352
 20
12.02533098866284
 30
0.0
 40
0.1440914856623236
100
AcDbArc
 50
359.6801631584144
 51
88.4881204252662
  0
ARC
  5
17CF
330
17
100
AcDbEntity
  8
0
100
AcDbCircle
 10
-9.336616421100363
 20
11.87036590367784
 30
0.0
 40
0.1440914856623236
100
AcDbArc
 50
359.6801631584144
 51
88.4881204252662
  0
ARC
  5
17D0
330
17
100
AcDbEntity
  8
0
100
AcDbCircle
 10
-9.336616421100352
 20
12.80015641358785
 30
0.0
 40
0.1440914856623236
100
AcDbArc
 50
359.6801631584144
 51
88.4881204252662
  0
ARC
  5
17D1
330
17
100
AcDbEntity
  8
0
100
AcDbCircle
 10
-9.336616421100345
 20
12.33526115863285
 30
0.0
 40
0.1440914856623236
100
AcDbArc
 50
359.6801631584144
 51
88.4881204252662
  0
ARC
  5
17D2
330
17
100
AcDbEntity
  8
0
100
AcDbCircle
 10
-9.336616421100352
 20
12.64519132860285
 30
0.0
 40
0.1440914856623236
100
AcDbArc
 50
359.6801631584144
 51
88.4881204252662
  0
ARC
  5
17D3
330
17
100
AcDbEntity
  8
0
100
AcDbCircle
 10
-9.336616421100363
 20
12.49022624361785
 30
0.0
 40
0.1440914856623236
100
AcDbArc
 50
359.6801631584144
 51
88.4881204252662
  0
ARC
  5
17D4
330
17
100
AcDbEntity
  8
0
100
AcDbCircle
 10
-9.336616421100345
 20
12.95512149857285
 30
0.0
 40
0.1440914856623236
100
AcDbArc
 50
359.6801631584144
 51
88.4881204252662
  0
ARC
  5
17D5
330
17
100
AcDbEntity
  8
0
100
AcDbCircle
 10
-9.336616421100366
 20
11.09554047875284
 30
0.0
 40
0.1440914856623236
100
AcDbArc
 50
359.6801631584144
 51
88.4881204252662
  0
ARC
  5
17D6
330
17
100
AcDbEntity
  8
0
100
AcDbCircle
 10
-9.336616421100363
 20
11.25050556373784
 30
0.0
 40
0.1440914856623236
100
AcDbArc
 50
359.6801631584144
 51
88.4881204252662
  0
ARC
  5
17D7
330
17
100
AcDbEntity
  8
0
100
AcDbCircle
 10
-9.336616421100363
 20
11.40547064872284
 30
0.0
 40
0.1440914856623236
100
AcDbArc
 50
359.6801631584144
 51
88.4881204252662
  0
ARC
  5
17D8
330
17
100
AcDbEntity
  8
0
100
AcDbCircle
 10
-9.336616421100352
 20
11.56043573370784
 30
0.0
 40
0.1440914856623236
100
AcDbArc
 50
359.6801631584144
 51
88.4881204252662
  0
ARC
  5
17D9
330
17
100
AcDbEntity
  8
0
100
AcDbCircle
 10
-9.336616421100366
 20
11.71540081869284
 30
0.0
 40
0.1440914856623236
100
AcDbArc
 50
359.6801631584144
 51
88.4881204252662
  0
ARC
  5
17DA
330
17
100
AcDbEntity
  8
0
100
AcDbCircle
 10
-9.346257194831679
 20
0.4142888676848742
 30
0.0
 40
0.1440914856623236
100
AcDbArc
 50
359.6801631584144
 51
88.4881204252662
  0
ARC
  5
17DB
330
17
100
AcDbEntity
  8
0
100
AcDbCircle
 10
-9.346257194831694
 20
0.1043586977148721
 30
0.0
 40
0.1440914856623236
100
AcDbArc
 50
359.6801631584144
 51
88.4881204252662
  0
ARC
  5
17DC
330
17
100
AcDbEntity
  8
0
100
AcDbCircle
 10
-9.346257194831679
 20
0.2593237826998731
 30
0.0
 40
0.1440914856623236
100
AcDbArc
 50
359.6801631584144
 51
88.4881204252662
  0
ARC
  5
17DD
330
17
100
AcDbEntity
  8
0
100
AcDbCircle
 10
-9.346257194831658
 20
1.808974632549884
 30
0.0
 40
0.1440914856623236
100
AcDbArc
 50
359.6801631584144
 51
88.4881204252662
  0
ARC
  5
17DE
330
17
100
AcDbEntity
  8
0
100
AcDbCircle
 10
-9.346257194831665
 20
1.499044462579882
 30
0.0
 40
0.1440914856623236
100
AcDbArc
 50
359.6801631584144
 51
88.4881204252662
  0
ARC
  5
17DF
330
17
100
AcDbEntity
  8
0
100
AcDbCircle
 10
-9.346257194831665
 20
1.654009547564883
 30
0.0
 40
0.1440914856623236
100
AcDbArc
 50
359.6801631584144
 51
88.4881204252662
  0
ARC
  5
17E0
330
17
100
AcDbEntity
  8
0
100
AcDbCircle
 10
-9.346257194831676
 20
1.963939717534885
 30
0.0
 40
0.1440914856623236
100
AcDbArc
 50
359.6801631584144
 51
88.4881204252662
  0
ARC
  5
17E1
330
17
100
AcDbEntity
  8
0
100
AcDbCircle
 10
-9.346257194831676
 20
1.189114292609879
 30
0.0
 40
0.1440914856623236
100
AcDbArc
 50
359.6801631584144
 51
88.4881204252662
  0
ARC
  5
17E2
330
17
100
AcDbEntity
  8
0
100
AcDbCircle
 10
-9.346257194831694
 20
0.7242190376548763
 30
0.0
 40
0.1440914856623236
100
AcDbArc
 50
359.6801631584144
 51
88.4881204252662
  0
ARC
  5
17E3
330
17
100
AcDbEntity
  8
0
100
AcDbCircle
 10
-9.346257194831679
 20
0.8791841226398773
 30
0.0
 40
0.1440914856623236
100
AcDbArc
 50
359.6801631584144
 51
88.4881204252662
  0
ARC
  5
17E4
330
17
100
AcDbEntity
  8
0
100
AcDbCircle
 10
-9.346257194831676
 20
0.5692539526698752
 30
0.0
 40
0.1440914856623236
100
AcDbArc
 50
359.6801631584144
 51
88.4881204252662
  0
ARC
  5
17E5
330
17
100
AcDbEntity
  8
0
100
AcDbCircle
 10
-9.346257194831679
 20
1.034149207624878
 30
0.0
 40
0.1440914856623236
100
AcDbArc
 50
359.6801631584144
 51
88.4881204252662
  0
ARC
  5
17E6
330
17
100
AcDbEntity
  8
0
100
AcDbCircle
 10
-9.346257194831676
 20
1.344079377594881
 30
0.0
 40
0.1440914856623236
100
AcDbArc
 50
359.6801631584144
 51
88.4881204252662
  0
LINE
  5
17E7
330
17
100
AcDbEntity
  8
0
100
AcDbLine
 10
-9.299946674487043
 20
11.07796975222035
 30
0.0
 11
-9.299946674487032
 21
2.127250958701218
 31
0.0
  0
LINE
  5
17E8
330
17
100
AcDbEntity
  8
0
100
AcDbLine
 10
-9.234261249537813
 20
11.07796975222035
 30
0.0
 11
-9.234261249537823
 21
2.127250958701218
 31
0.0
  0
LINE
  5
17E9
330
17
100
AcDbEntity
  8
0
100
AcDbLine
 10
-9.234261249537823
 20
0.1091310842347326
 30
0.0
 11
-9.234261249537823
 21
0.083751149144291
 31
0.0
  0
LINE
  5
17EA
330
17
100
AcDbEntity
  8
0
100
AcDbLine
 10
-9.299946674487032
 20
0.1791371476767196
 30
0.0
 11
-9.299946674487032
 21
0.083751149144291
 31
0.0
  0
ENDSEC
  0
SECTION
  2
OBJECTS
  0
DICTIONARY
  5
C
330
0
100
AcDbDictionary
281
     1
  3
ACAD_COLOR
350
1416
  3
ACAD_GROUP
350
D
  3
ACAD_LAYOUT
350
780
  3
ACAD_MATERIAL
350
1415
  3
ACAD_MLINESTYLE
350
1A
  3
ACAD_PLOTSETTINGS
350
781
  3
ACAD_PLOTSTYLENAME
350
77E
  3
ACAD_TABLESTYLE
350
1417
  3
ACDBVARIABLEDICTIONARY
350
5C
  3
ASE_INDEX_DICTIONARY
350
172C
  0
DICTIONARY
  5
1719
330
2
100
AcDbDictionary
280
     1
281
     1
  3
ACAD_LAYERFILTERS
360
179F
  3
ACAD_LAYERSTATES
360
1754
  3
ACLYDICTIONARY
360
179E
  0
DICTIONARY
  5
1416
102
{ACAD_REACTORS
330
C
102
}
330
C
100
AcDbDictionary
281
     1
  0
DICTIONARY
  5
D
102
{ACAD_REACTORS
330
C
102
}
330
C
100
AcDbDictionary
281
     1
  0
DICTIONARY
  5
780
102
{ACAD_REACTORS
330
C
102
}
330
C
100
AcDbDictionary
281
     1
  3
Layout1
350
783
  3
Model
350
782
  0
DICTIONARY
  5
1415
102
{ACAD_REACTORS
330
C
102
}
330
C
100
AcDbDictionary
281
     1
  0
DICTIONARY
  5
1A
102
{ACAD_REACTORS
330
C
102
}
330
C
100
AcDbDictionary
281
     1
  3
STANDARD
350
1B
  0
DICTIONARY
  5
781
102
{ACAD_REACTORS
330
C
102
}
330
C
100
AcDbDictionary
281
     1
  0
ACDBDICTIONARYWDFLT
  5
77E
102
{ACAD_REACTORS
330
C
102
}
330
C
100
AcDbDictionary
281
     1
  3
Normal
350
77F
100
AcDbDictionaryWithDefault
340
77F
  0
DICTIONARY
  5
1417
102
{ACAD_REACTORS
330
C
102
}
330
C
100
AcDbDictionary
281
     1
  3
Standard
350
1418
  0
DICTIONARY
  5
5C
102
{ACAD_REACTORS
330
C
102
}
330
C
100
AcDbDictionary
281
     1
  3
CTABLESTYLE
350
1439
  3
DIMADEC
350
5D
  3
DIMASSOC
350
1440
  0
DICTIONARY
  5
172C
102
{ACAD_REACTORS
330
C
102
}
330
C
100
AcDbDictionary
281
     1
  3
ASEBlockHierarchyIndexRecord
350
172D
1001
DCO15
1040
1592042784.196
  0
DICTIONARY
  5
179F
102
{ACAD_REACTORS
330
1719
102
}
330
1719
100
AcDbDictionary
281
     1
  0
DICTIONARY
  5
1754
102
{ACAD_REACTORS
330
1719
102
}
330
1719
100
AcDbDictionary
281
     1
  0
DICTIONARY
  5
179E
102
{ACAD_REACTORS
330
1719
102
}
330
1719
100
AcDbDictionary
281
     1
1001
ACAD
1000
<All
  0
LAYOUT
  5
783
102
{ACAD_REACTORS
330
780
102
}
330
780
100
AcDbPlotSettings
  1

  2
HP LaserJet 2100 Series PS
  4

  6

 40
0.0
 41
0.0
 42
0.0
 43
0.0
 44
0.0
 45
0.0
 46
0.0
 47
0.0
 48
0.0
 49
0.0
140
0.0
141
0.0
142
1.0
143
1.0
 70
   688
 72
     0
 73
     0
 74
     5
  7
monochrome.ctb
 75
    16
 76
     0
 77
     2
 78
   300
147
1.0
148
0.0
149
0.0
100
AcDbLayout
  1
Layout1
 70
     0
 71
     1
 10
0.0
 20
0.0
 11
12.0
 21
9.0
 12
0.0
 22
0.0
 32
0.0
 14
1.000000000000000E+20
 24
1.000000000000000E+20
 34
1.000000000000000E+20
 15
-1.000000000000000E+20
 25
-1.000000000000000E+20
 35
-1.000000000000000E+20
146
0.0
 13
0.0
 23
0.0
 33
0.0
 16
1.0
 26
0.0
 36
0.0
 17
0.0
 27
1.0
 37
0.0
 76
     0
330
14
  0
LAYOUT
  5
782
102
{ACAD_REACTORS
330
780
102
}
330
780
100
AcDbPlotSettings
  1

  2
HP LaserJet 2100 Series PS
  4
Letter
  6
ENTRY
 40
5.365749835968018
 41
5.408073902130127
 42
5.132904052734375
 43
5.090576171875
 44
215.8999938964844
 45
279.3999938964844
 46
0.0
 47
0.0
 48
0.0
 49
0.0
140
0.0
141
0.0
142
1.0
143
4.959067816635199
 70
 11952
 72
     0
 73
     2
 74
     2
  7
monochrome.ctb
 75
     0
 76
     0
 77
     2
 78
   300
147
0.2016508015166679
148
0.0
149
0.0
100
AcDbLayout
  1
Model
 70
     1
 71
     0
 10
0.0
 20
0.0
 11
12.0
 21
9.0
 12
0.0
 22
0.0
 32
0.0
 14
0.0
 24
0.0
 34
0.0
 15
0.0
 25
0.0
 35
0.0
146
0.0
 13
0.0
 23
0.0
 33
0.0
 16
1.0
 26
0.0
 36
0.0
 17
0.0
 27
1.0
 37
0.0
 76
     0
330
17
1001
ACAD_PSEXT
1000
HP LaserJet 2100 Series PS
1000
HP LaserJet 2100 Series PS
1000
LPT1:
1000

1070
     0
  0
MLINESTYLE
  5
1B
102
{ACAD_REACTORS
330
1A
102
}
330
1A
100
AcDbMlineStyle
  2
STANDARD
 70
     0
  3

 62
   256
 51
90.0
 52
90.0
 71
     2
 49
0.5
 62
   256
  6
BYLAYER
 49
-0.5
 62
   256
  6
BYLAYER
  0
ACDBPLACEHOLDER
  5
77F
102
{ACAD_REACTORS
330
77E
102
}
330
77E
  0
ACAD_PROXY_OBJECT
  5
1418
102
{ACAD_REACTORS
330
1417
102
}
330
1417
100
AcDbProxyObject
 90
      499
 91
      525
 95
   983063
 70
     0
 93
     1841
310
4214DD185B99185C9928B81E85EB51B8AE3F2E07A17AD46E2B8FC02B5E8DC0F42B1CFD028000000C1008070000C3001FDFF8000000C1003FBFF000000182007F7FE00000030400FEFFC00000060801FDFF8000000C1003FBFF00000018200000000000000681FA0B0000001820100E000186003FBFF000000182007F7FE000
310
00030400FEFFC00000060801FDFF8000000C1003FBFF000000182007F7FE000000304000AD7A3703D0AC73F4160000003040201C00030C007F7FE00000030400FEFFC00000060801FDFF8000000C1003FBFF000000182007F7FE00000030400FEFFC000000608000
340
F
340
F
340
F
 94
        0
  0
DICTIONARYVAR
  5
1439
102
{ACAD_REACTORS
330
5C
102
}
330
5C
100
DictionaryVariables
280
     0
  1
STANDARD
  0
DICTIONARYVAR
  5
5D
102
{ACAD_REACTORS
330
5C
102
}
330
5C
100
DictionaryVariables
280
     0
  1
0
  0
DICTIONARYVAR
  5
1440
102
{ACAD_REACTORS
330
5C
102
}
330
5C
100
DictionaryVariables
280
     0
  1
0
  0
XRECORD
  5
172D
102
{ACAD_REACTORS
330
172C
102
}
330
172C
100
AcDbXrecord
280
     1
330
0
330
0
330
0
  0
ENDSEC
  0
EOF
