  0
SECTION
  2
HEADER
  9
$ACADVER
  1
AC1015
  9
$ACADMAINTVER
 70
     6
  9
$DWGCODEPAGE
  3
ANSI_1252
  9
$INSBASE
 10
0.0
 20
0.0
 30
0.0
  9
$EXTMIN
 10
-31.23922772284641
 20
-0.0854310566977712
 30
0.0
  9
$EXTMAX
 10
33.17977475216728
 20
42.14228328938717
 30
0.0
  9
$LIMMIN
 10
0.0
 20
0.0
  9
$LIMMAX
 10
52.5
 20
40.0
  9
$ORTHOMODE
 70
     1
  9
$REGENMODE
 70
     1
  9
$FILLMODE
 70
     1
  9
$QTEXTMODE
 70
     0
  9
$MIRRTEXT
 70
     0
  9
$LTSCALE
 40
2.0
  9
$ATTMODE
 70
     1
  9
$TEXTSIZE
 40
0.450000000000004
  9
$TRACEWID
 40
0.05
  9
$TEXTSTYLE
  7
STANDARD
  9
$CLAYER
  8
0
  9
$CELTYPE
  6
ByLayer
  9
$CECOLOR
 62
   256
  9
$CELTSCALE
 40
1.0
  9
$DISPSILH
 70
     0
  9
$DIMSCALE
 40
5.000000000000049
  9
$DIMASZ
 40
0.125
  9
$DIMEXO
 40
0.062
  9
$DIMDLI
 40
0.375
  9
$DIMRND
 40
0.0
  9
$DIMDLE
 40
0.0
  9
$DIMEXE
 40
0.08
  9
$DIMTP
 40
0.0
  9
$DIMTM
 40
0.0
  9
$DIMTXT
 40
0.09
  9
$DIMCEN
 40
-0.06
  9
$DIMTSZ
 40
0.0
  9
$DIMTOL
 70
     0
  9
$DIMLIM
 70
     0
  9
$DIMTIH
 70
     1
  9
$DIMTOH
 70
     1
  9
$DIMSE1
 70
     0
  9
$DIMSE2
 70
     0
  9
$DIMTAD
 70
     0
  9
$DIMZIN
 70
     0
  9
$DIMBLK
  1

  9
$DIMASO
 70
     0
  9
$DIMSHO
 70
     0
  9
$DIMPOST
  1

  9
$DIMAPOST
  1

  9
$DIMALT
 70
     0
  9
$DIMALTD
 70
     2
  9
$DIMALTF
 40
25.4
  9
$DIMLFAC
 40
1.0
  9
$DIMTOFL
 70
     0
  9
$DIMTVP
 40
0.0
  9
$DIMTIX
 70
     0
  9
$DIMSOXD
 70
     0
  9
$DIMSAH
 70
     0
  9
$DIMBLK1
  1

  9
$DIMBLK2
  1

  9
$DIMSTYLE
  2
Standard
  9
$DIMCLRD
 70
     0
  9
$DIMCLRE
 70
     0
  9
$DIMCLRT
 70
     0
  9
$DIMTFAC
 40
1.0
  9
$DIMGAP
 40
0.09
  9
$DIMJUST
 70
     0
  9
$DIMSD1
 70
     0
  9
$DIMSD2
 70
     0
  9
$DIMTOLJ
 70
     1
  9
$DIMTZIN
 70
     0
  9
$DIMALTZ
 70
     0
  9
$DIMALTTZ
 70
     0
  9
$DIMUPT
 70
     0
  9
$DIMDEC
 70
     4
  9
$DIMTDEC
 70
     4
  9
$DIMALTU
 70
     5
  9
$DIMALTTD
 70
     2
  9
$DIMTXSTY
  7
STANDARD
  9
$DIMAUNIT
 70
     0
  9
$DIMADEC
 70
     0
  9
$DIMALTRND
 40
0.0
  9
$DIMAZIN
 70
     0
  9
$DIMDSEP
 70
    46
  9
$DIMATFIT
 70
     3
  9
$DIMFRAC
 70
     0
  9
$DIMLDRBLK
  1

  9
$DIMLUNIT
 70
     5
  9
$DIMLWD
 70
    -2
  9
$DIMLWE
 70
    -2
  9
$DIMTMOVE
 70
     2
  9
$LUNITS
 70
     5
  9
$LUPREC
 70
     4
  9
$SKETCHINC
 40
0.1
  9
$FILLETRAD
 40
0.0
  9
$AUNITS
 70
     0
  9
$AUPREC
 70
     0
  9
$MENU
  1
acad
  9
$ELEVATION
 40
0.0
  9
$PELEVATION
 40
0.0
  9
$THICKNESS
 40
0.0
  9
$LIMCHECK
 70
     0
  9
$CHAMFERA
 40
0.0
  9
$CHAMFERB
 40
0.0
  9
$CHAMFERC
 40
0.0
  9
$CHAMFERD
 40
0.0
  9
$SKPOLY
 70
     0
  9
$TDCREATE
 40
2450281.000010764
  9
$TDUCREATE
 40
2450281.333344097
  9
$TDUPDATE
 40
2454160.663380648
  9
$TDUUPDATE
 40
2454160.996713982
  9
$TDINDWG
 40
0.1016946991
  9
$TDUSRTIMER
 40
0.1016946991
  9
$USRTIMER
 70
     1
  9
$ANGBASE
 50
0.0
  9
$ANGDIR
 70
     0
  9
$PDMODE
 70
     0
  9
$PDSIZE
 40
0.0
  9
$PLINEWID
 40
0.0
  9
$SPLFRAME
 70
     0
  9
$SPLINETYPE
 70
     6
  9
$SPLINESEGS
 70
     8
  9
$HANDSEED
  5
31A
  9
$SURFTAB1
 70
     6
  9
$SURFTAB2
 70
     6
  9
$SURFTYPE
 70
     6
  9
$SURFU
 70
     6
  9
$SURFV
 70
     6
  9
$UCSBASE
  2

  9
$UCSNAME
  2

  9
$UCSORG
 10
0.0
 20
0.0
 30
0.0
  9
$UCSXDIR
 10
1.0
 20
0.0
 30
0.0
  9
$UCSYDIR
 10
0.0
 20
1.0
 30
0.0
  9
$UCSORTHOREF
  2

  9
$UCSORTHOVIEW
 70
     0
  9
$UCSORGTOP
 10
0.0
 20
0.0
 30
0.0
  9
$UCSORGBOTTOM
 10
0.0
 20
0.0
 30
0.0
  9
$UCSORGLEFT
 10
0.0
 20
0.0
 30
0.0
  9
$UCSORGRIGHT
 10
0.0
 20
0.0
 30
0.0
  9
$UCSORGFRONT
 10
0.0
 20
0.0
 30
0.0
  9
$UCSORGBACK
 10
0.0
 20
0.0
 30
0.0
  9
$PUCSBASE
  2

  9
$PUCSNAME
  2

  9
$PUCSORG
 10
0.0
 20
0.0
 30
0.0
  9
$PUCSXDIR
 10
1.0
 20
0.0
 30
0.0
  9
$PUCSYDIR
 10
0.0
 20
1.0
 30
0.0
  9
$PUCSORTHOREF
  2

  9
$PUCSORTHOVIEW
 70
     0
  9
$PUCSORGTOP
 10
0.0
 20
0.0
 30
0.0
  9
$PUCSORGBOTTOM
 10
0.0
 20
0.0
 30
0.0
  9
$PUCSORGLEFT
 10
0.0
 20
0.0
 30
0.0
  9
$PUCSORGRIGHT
 10
0.0
 20
0.0
 30
0.0
  9
$PUCSORGFRONT
 10
0.0
 20
0.0
 30
0.0
  9
$PUCSORGBACK
 10
0.0
 20
0.0
 30
0.0
  9
$USERI1
 70
     0
  9
$USERI2
 70
     0
  9
$USERI3
 70
     0
  9
$USERI4
 70
     0
  9
$USERI5
 70
     0
  9
$USERR1
 40
0.0
  9
$USERR2
 40
0.0
  9
$USERR3
 40
0.0
  9
$USERR4
 40
0.0
  9
$USERR5
 40
0.0
  9
$WORLDVIEW
 70
     1
  9
$SHADEDGE
 70
     3
  9
$SHADEDIF
 70
    70
  9
$TILEMODE
 70
     1
  9
$MAXACTVP
 70
    16
  9
$PINSBASE
 10
0.0
 20
0.0
 30
0.0
  9
$PLIMCHECK
 70
     0
  9
$PEXTMIN
 10
1.000000000000000E+20
 20
1.000000000000000E+20
 30
1.000000000000000E+20
  9
$PEXTMAX
 10
-1.000000000000000E+20
 20
-1.000000000000000E+20
 30
-1.000000000000000E+20
  9
$PLIMMIN
 10
0.0
 20
0.0
  9
$PLIMMAX
 10
12.0
 20
9.0
  9
$UNITMODE
 70
     0
  9
$VISRETAIN
 70
     0
  9
$PLINEGEN
 70
     0
  9
$PSLTSCALE
 70
     0
  9
$TREEDEPTH
 70
  3020
  9
$CMLSTYLE
  2
Standard
  9
$CMLJUST
 70
     0
  9
$CMLSCALE
 40
1.0
  9
$PROXYGRAPHICS
 70
     1
  9
$MEASUREMENT
 70
     0
  9
$CELWEIGHT
370
    -1
  9
$ENDCAPS
280
     0
  9
$JOINSTYLE
280
     0
  9
$LWDISPLAY
290
     0
  9
$INSUNITS
 70
     0
  9
$HYPERLINKBASE
  1

  9
$STYLESHEET
  1

  9
$XEDIT
290
     1
  9
$CEPSNTYPE
380
     0
  9
$PSTYLEMODE
290
     1
  9
$FINGERPRINTGUID
  2
{8C113530-CCFB-4825-85C4-547B791A7899}
  9
$VERSIONGUID
  2
{B367210A-15F4-44C3-95EA-3F6B8EA64087}
  9
$EXTNAMES
290
     1
  9
$PSVPSCALE
 40
0.0
  9
$OLESTARTUP
290
     0
  0
ENDSEC
  0
SECTION
  2
CLASSES
  0
CLASS
  1
ACDBDICTIONARYWDFLT
  2
AcDbDictionaryWithDefault
  3
AutoCAD 2000
 90
        0
280
     0
281
     0
  0
CLASS
  1
ACDBPLACEHOLDER
  2
AcDbPlaceHolder
  3
ObjectDBX Classes
 90
        0
280
     0
281
     0
  0
CLASS
  1
LAYOUT
  2
AcDbLayout
  3
ObjectDBX Classes
 90
        0
280
     0
281
     0
  0
CLASS
  1
LONG_TRANSACTION
  2
AcDbLongTransaction
  3
ObjectDBX Classes
 90
   -65536
280
     1
281
     0
  0
CLASS
  1
LWPOLYLINE
  2
AcDbPolyline
  3
AutoCAD 2000
 90
        0
280
     0
281
     1
  0
CLASS
  1
HATCH
  2
AcDbHatch
  3
AutoCAD 2000
 90
        0
280
     0
281
     1
  0
CLASS
  1
XRECORD
  2
AcDbXrecord
  3
AutoCAD 2000
 90
        0
280
     0
281
     0
  0
CLASS
  1
LONG_TRANSACTION
  2
AcDbLongTransaction
  3
ObjectDBX Classes
 90
   -65536
280
     1
281
     0
  0
CLASS
  1
LWPOLYLINE
  2
AcDbPolyline
  3
AutoCAD 2000
 90
        0
280
     0
281
     1
  0
CLASS
  1
HATCH
  2
AcDbHatch
  3
AutoCAD 2000
 90
        0
280
     0
281
     1
  0
CLASS
  1
XRECORD
  2
AcDbXrecord
  3
AutoCAD 2000
 90
        0
280
     0
281
     0
  0
CLASS
  1
DICTIONARYVAR
  2
AcDbDictionaryVar
  3
AutoCAD 2000
 90
        0
280
     0
281
     0
  0
CLASS
  1
TABLESTYLE
  2
AcDbTableStyle
  3
ObjectDBX Classes
 90
     2047
280
     1
281
     0
  0
CLASS
  1
SORTENTSTABLE
  2
AcDbSortentsTable
  3
AutoCAD 2000
 90
        0
280
     0
281
     0
  0
ENDSEC
  0
SECTION
  2
TABLES
  0
TABLE
  2
VPORT
  5
1D
330
0
100
AcDbSymbolTable
 70
     2
  0
VPORT
  5
30C
330
1D
100
AcDbSymbolTableRecord
100
AcDbViewportTableRecord
  2
*Active
 70
     0
 10
0.0
 20
0.0
 11
1.0
 21
1.0
 12
10.6759277849086
 22
28.45934345205155
 13
0.0
 23
0.0
 14
0.0625
 24
0.0625
 15
0.25
 25
0.25
 16
0.0
 26
0.0
 36
1.0
 17
0.0
 27
0.0
 37
0.0
 40
72.77010416094349
 41
1.55012853470437
 42
50.0
 43
0.0
 44
0.0
 50
0.0
 51
0.0
 71
     0
 72
   100
 73
     1
 74
     0
 75
     0
 76
     0
 77
     0
 78
     0
281
     0
 65
     1
110
0.0
120
0.0
130
0.0
111
1.0
121
0.0
131
0.0
112
0.0
122
1.0
132
0.0
 79
     0
146
0.0
  0
ENDTAB
  0
TABLE
  2
LTYPE
  5
18
330
0
100
AcDbSymbolTable
 70
     2
  0
LTYPE
  5
19
330
18
100
AcDbSymbolTableRecord
100
AcDbLinetypeTableRecord
  2
ByBlock
 70
     0
  3

 72
    65
 73
     0
 40
0.0
  0
LTYPE
  5
1A
330
18
100
AcDbSymbolTableRecord
100
AcDbLinetypeTableRecord
  2
ByLayer
 70
     0
  3

 72
    65
 73
     0
 40
0.0
  0
LTYPE
  5
A
330
18
100
AcDbSymbolTableRecord
100
AcDbLinetypeTableRecord
  2
CONTINUOUS
 70
     0
  3
Solid line
 72
    65
 73
     0
 40
0.0
  0
LTYPE
  5
133
330
18
100
AcDbSymbolTableRecord
100
AcDbLinetypeTableRecord
  2
HIDDEN
 70
     0
  3
Hidden __ __ __ __ __ __ __ __ __ __ __ __ __ _
 72
    65
 73
     2
 40
0.375
 49
0.25
 74
     0
 49
-0.125
 74
     0
  0
ENDTAB
  0
TABLE
  2
LAYER
  5
14
330
0
100
AcDbSymbolTable
 70
     3
  0
LAYER
  5
6
330
14
100
AcDbSymbolTableRecord
100
AcDbLayerTableRecord
  2
0
 70
     0
 62
     7
  6
CONTINUOUS
370
    -3
390
7
  0
ENDTAB
  0
TABLE
  2
STYLE
  5
15
330
0
100
AcDbSymbolTable
 70
     2
  0
STYLE
  5
16
330
15
100
AcDbSymbolTableRecord
100
AcDbTextStyleTableRecord
  2
STANDARD
 70
     0
 40
0.0
 41
1.0
 50
0.0
 71
     0
 42
0.450000000000004
  3
TXT
  4

  0
ENDTAB
  0
TABLE
  2
VIEW
  5
1B
330
0
100
AcDbSymbolTable
 70
     0
  0
ENDTAB
  0
TABLE
  2
UCS
  5
1C
330
0
100
AcDbSymbolTable
 70
     0
  0
ENDTAB
  0
TABLE
  2
APPID
  5
1F
330
0
100
AcDbSymbolTable
 70
     1
  0
APPID
  5
20
330
1F
100
AcDbSymbolTableRecord
100
AcDbRegAppTableRecord
  2
ACAD
 70
     0
  0
ENDTAB
  0
TABLE
  2
DIMSTYLE
  5
21
330
0
100
AcDbSymbolTable
 70
     1
100
AcDbDimStyleTable
  0
DIMSTYLE
105
28
330
21
100
AcDbSymbolTableRecord
100
AcDbDimStyleTableRecord
  2
Standard
 70
     0
  3

  4

340
16
  0
ENDTAB
  0
TABLE
  2
BLOCK_RECORD
  5
1
330
0
100
AcDbSymbolTable
 70
     3
  0
BLOCK_RECORD
  5
2
102
{ACAD_XDICTIONARY
360
3
102
}
330
1
100
AcDbSymbolTableRecord
100
AcDbBlockTableRecord
  2
*Model_Space
340
C
  0
BLOCK_RECORD
  5
E
330
1
100
AcDbSymbolTableRecord
100
AcDbBlockTableRecord
  2
*Paper_Space
340
13
  0
ENDTAB
  0
ENDSEC
  0
SECTION
  2
BLOCKS
  0
BLOCK
  5
5
330
2
100
AcDbEntity
  8
0
100
AcDbBlockBegin
  2
*Model_Space
 70
     0
 10
0.0
 20
0.0
 30
0.0
  3
*Model_Space
  1

  4

  0
ENDBLK
  5
B
330
2
100
AcDbEntity
  8
0
100
AcDbBlockEnd
  0
BLOCK
  5
11
330
E
100
AcDbEntity
 67
     1
  8
0
100
AcDbBlockBegin
  2
*Paper_Space
 70
     0
 10
0.0
 20
0.0
 30
0.0
  3
*Paper_Space
  1

  4

  0
ENDBLK
  5
12
330
E
100
AcDbEntity
 67
     1
  8
0
100
AcDbBlockEnd
  0
ENDSEC
  0
SECTION
  2
ENTITIES
  0
LINE
  5
2AD
330
2
100
AcDbEntity
  8
0
100
AcDbLine
 10
1.625
 20
21.65370692234462
 30
0.0
 11
1.625
 21
0.3667339862471817
 31
0.0
  0
LINE
  5
2AE
330
2
100
AcDbEntity
  8
0
100
AcDbLine
 10
-1.625000000000002
 20
21.69948250605815
 30
0.0
 11
-1.625000000000002
 21
4.199482506058148
 31
0.0
  0
LINE
  5
2AF
330
2
100
AcDbEntity
  8
0
100
AcDbLine
 10
-1.812500000000002
 20
4.199482506058148
 30
0.0
 11
-1.812500000000004
 21
21.66870609965373
 31
0.0
  0
LINE
  5
2B0
330
2
100
AcDbEntity
  8
0
100
AcDbLine
 10
1.8125
 20
0.3672339862471841
 30
0.0
 11
1.8125
 21
21.62436190951289
 31
0.0
  0
LINE
  5
2B1
330
2
100
AcDbEntity
  8
0
100
AcDbLine
 10
-1.437500000000002
 20
0.1875
 30
0.0
 11
0.4375
 21
0.1875
 31
0.0
  0
LINE
  5
2B2
330
2
100
AcDbEntity
  8
0
100
AcDbLine
 10
1.4375
 20
0.0
 30
0.0
 11
-1.437500000000002
 21
0.0
 31
0.0
  0
LINE
  5
2B3
330
2
100
AcDbEntity
  8
0
100
AcDbLine
 10
-1.625000000000002
 20
4.199482506058148
 30
0.0
 11
-1.625000000000002
 21
0.3864825060581456
 31
0.0
  0
LINE
  5
2B4
330
2
100
AcDbEntity
  8
0
100
AcDbLine
 10
-1.812500000000002
 20
0.386982506058148
 30
0.0
 11
-1.812500000000002
 21
4.199482506058148
 31
0.0
  0
ARC
  5
2B5
330
2
100
AcDbEntity
  8
0
100
AcDbCircle
 10
-1.442212445503634
 20
0.3728381398609617
 30
0.0
 40
0.187
100
AcDbArc
 50
180.0
 51
269.9999999999999
  0
ARC
  5
2B6
330
2
100
AcDbEntity
  8
0
100
AcDbCircle
 10
-1.437500000000002
 20
0.386982506058148
 30
0.0
 40
0.375
100
AcDbArc
 50
180.0
 51
269.9999999999999
  0
ARC
  5
2B7
330
2
100
AcDbEntity
  8
0
100
AcDbCircle
 10
1.437999999999995
 20
0.3800426455874195
 30
0.0
 40
0.187
100
AcDbArc
 50
270.0
 51
0.0
  0
ARC
  5
2B8
330
2
100
AcDbEntity
  8
0
100
AcDbCircle
 10
1.4375
 20
0.3672339862471841
 30
0.0
 40
0.375
100
AcDbArc
 50
270.0
 51
0.0
  0
LINE
  5
2B9
330
2
100
AcDbEntity
  8
0
100
AcDbLine
 10
-0.5625
 20
0.1875
 30
0.0
 11
1.437999999999995
 21
0.1875
 31
0.0
  0
LINE
  5
2BA
330
2
100
AcDbEntity
  8
0
100
AcDbLine
 10
-0.0625
 20
23.4363883159173
 30
0.0
 11
-5.000000000000002
 21
23.4363883159173
 31
0.0
  0
LINE
  5
2BB
330
2
100
AcDbEntity
  8
0
  6
HIDDEN
100
AcDbLine
 10
-5.000000000000002
 20
23.1863883159173
 30
0.0
 11
5.0
 21
23.1863883159173
 31
0.0
  0
LINE
  5
2BC
330
2
100
AcDbEntity
  8
0
100
AcDbLine
 10
-1.625000000000002
 20
20.3113883159173
 30
0.0
 11
1.625
 21
20.3113883159173
 31
0.0
  0
LINE
  5
2BD
330
2
100
AcDbEntity
  8
0
100
AcDbLine
 10
-5.000000000000002
 20
23.4363883159173
 30
0.0
 11
-5.000000000000002
 21
20.3113883159173
 31
0.0
  0
LINE
  5
2BE
330
2
100
AcDbEntity
  8
0
100
AcDbLine
 10
-1.812500000000002
 20
20.3113883159173
 30
0.0
 11
-5.000000000000002
 21
20.3113883159173
 31
0.0
  0
CIRCLE
  5
2BF
330
2
100
AcDbEntity
  8
0
100
AcDbCircle
 10
-3.500000000000002
 20
21.7488883159173
 30
0.0
 40
0.1405
  0
CIRCLE
  5
2C0
330
2
100
AcDbEntity
  8
0
100
AcDbCircle
 10
-4.125000000000002
 20
20.7488883159173
 30
0.0
 40
0.1405
  0
CIRCLE
  5
2C1
330
2
100
AcDbEntity
  8
0
100
AcDbCircle
 10
-4.500000000000002
 20
22.2488883159173
 30
0.0
 40
0.1405
  0
LINE
  5
2C2
330
2
100
AcDbEntity
  8
0
100
AcDbLine
 10
-1.982519408794831
 20
23.19757626225731
 30
0.0
 11
-1.625000000000002
 21
21.69948250605815
 31
0.0
  0
LINE
  5
2C3
330
2
100
AcDbEntity
  8
0
100
AcDbLine
 10
-1.81996437496367
 20
21.72934000591282
 30
0.0
 11
-2.175653623644843
 21
23.16131113629024
 31
0.0
  0
ARC
  5
2C4
330
2
100
AcDbEntity
  8
0
100
AcDbCircle
 10
-2.062500000000002
 20
21.66870609965373
 30
0.0
 40
0.25
100
AcDbArc
 50
0.0
 51
14.03624346792649
  0
LINE
  5
2C5
330
2
100
AcDbEntity
  8
0
100
AcDbLine
 10
-2.175653623644843
 20
23.16131113629024
 30
0.0
 11
-1.982519408794831
 21
23.19757626225731
 31
0.0
  0
LINE
  5
2C6
330
2
100
AcDbEntity
  8
0
100
AcDbLine
 10
5.000000000000004
 20
23.4363883159173
 30
0.0
 11
5.0
 21
20.3113883159173
 31
0.0
  0
LINE
  5
2C7
330
2
100
AcDbEntity
  8
0
100
AcDbLine
 10
5.0
 20
20.3113883159173
 30
0.0
 11
1.8125
 21
20.3113883159173
 31
0.0
  0
LINE
  5
2C8
330
2
100
AcDbEntity
  8
0
100
AcDbLine
 10
5.000000000000004
 20
23.4363883159173
 30
0.0
 11
-0.1132294056777781
 21
23.4363883159173
 31
0.0
  0
LINE
  5
2C9
330
2
100
AcDbEntity
  8
0
100
AcDbLine
 10
1.819964374963668
 20
21.68499581577197
 30
0.0
 11
2.169878441114243
 21
23.08295521732575
 31
0.0
  0
LINE
  5
2CA
330
2
100
AcDbEntity
  8
0
100
AcDbLine
 10
2.169834905952527
 20
23.08251507648068
 30
0.0
 11
1.981945497852834
 21
23.15484025599099
 31
0.0
  0
LINE
  5
2CB
330
2
100
AcDbEntity
  8
0
100
AcDbLine
 10
1.98371552692165
 20
23.15557845676237
 30
0.0
 11
1.639757441467708
 21
21.77428743233291
 31
0.0
  0
ARC
  5
2CC
330
2
100
AcDbEntity
  8
0
100
AcDbCircle
 10
2.125
 20
21.65370692234462
 30
0.0
 40
0.5
100
AcDbArc
 50
166.0449251751978
 51
180.0
  0
ARC
  5
2CD
330
2
100
AcDbEntity
  8
0
100
AcDbCircle
 10
2.0625
 20
21.62436190951289
 30
0.0
 40
0.25
100
AcDbArc
 50
165.9637565320735
 51
180.0
  0
CIRCLE
  5
2CE
330
2
100
AcDbEntity
  8
0
100
AcDbCircle
 10
3.5
 20
21.7488883159173
 30
0.0
 40
0.1405
  0
CIRCLE
  5
2CF
330
2
100
AcDbEntity
  8
0
100
AcDbCircle
 10
4.125
 20
20.7488883159173
 30
0.0
 40
0.1405
  0
CIRCLE
  5
2D0
330
2
100
AcDbEntity
  8
0
100
AcDbCircle
 10
4.5
 20
22.2488883159173
 30
0.0
 40
0.1405
  0
LINE
  5
2D1
330
2
100
AcDbEntity
  8
0
100
AcDbLine
 10
-28.48922772284641
 20
-0.0011116840826997
 30
0.0
 11
-28.48922772284641
 21
23.1863883159173
 31
0.0
  0
LINE
  5
2D2
330
2
100
AcDbEntity
  8
0
100
AcDbLine
 10
-22.48922772284641
 20
23.1863883159173
 30
0.0
 11
-22.48922772284641
 21
-0.0011116840826997
 31
0.0
  0
LINE
  5
2D3
330
2
100
AcDbEntity
  8
0
  6
HIDDEN
100
AcDbLine
 10
-28.48922772284641
 20
0.1863883159173003
 30
0.0
 11
-22.48922772284641
 21
0.1863883159173003
 31
0.0
  0
LINE
  5
2D4
330
2
100
AcDbEntity
  8
0
100
AcDbLine
 10
-22.48922772284641
 20
-0.0011116840826997
 30
0.0
 11
-28.48922772284641
 21
-0.0011116840826997
 31
0.0
  0
LINE
  5
2D5
330
2
100
AcDbEntity
  8
0
100
AcDbLine
 10
-22.48922772284641
 20
21.6863883159173
 30
0.0
 11
-28.48922772284641
 21
21.6863883159173
 31
0.0
  0
LINE
  5
2D6
330
2
100
AcDbEntity
  8
0
100
AcDbLine
 10
-28.48922772284641
 20
23.1863883159173
 30
0.0
 11
-22.48922772284641
 21
23.1863883159173
 31
0.0
  0
LINE
  5
2D7
330
2
100
AcDbEntity
  8
0
100
AcDbLine
 10
-28.48922772284641
 20
16.7488883159173
 30
0.0
 11
-28.48922772284641
 21
22.9363883159173
 31
0.0
  0
LINE
  5
2D8
330
2
100
AcDbEntity
  8
0
100
AcDbLine
 10
-28.73922772284642
 20
22.9363883159173
 30
0.0
 11
-28.73922772284642
 21
20.3113883159173
 31
0.0
  0
LINE
  5
2D9
330
2
100
AcDbEntity
  8
0
100
AcDbLine
 10
-28.73922772284641
 20
20.3113883159173
 30
0.0
 11
-28.48922772284641
 21
20.3113883159173
 31
0.0
  0
LINE
  5
2DA
330
2
100
AcDbEntity
  8
0
100
AcDbLine
 10
-28.98922772284641
 20
23.4363883159173
 30
0.0
 11
-31.23922772284641
 21
23.4363883159173
 31
0.0
  0
LINE
  5
2DB
330
2
100
AcDbEntity
  8
0
100
AcDbLine
 10
-28.98922772284642
 20
23.1863883159173
 30
0.0
 11
-31.23922772284641
 21
23.1863883159173
 31
0.0
  0
LINE
  5
2DC
330
2
100
AcDbEntity
  8
0
100
AcDbLine
 10
-31.23922772284641
 20
23.1863883159173
 30
0.0
 11
-31.23922772284641
 21
23.4363883159173
 31
0.0
  0
LINE
  5
2DD
330
2
100
AcDbEntity
  8
0
100
AcDbLine
 10
-28.48922772284641
 20
22.8738883159173
 30
0.0
 11
-28.48922772284641
 21
23.1863883159173
 31
0.0
  0
ARC
  5
2DE
330
2
100
AcDbEntity
  8
0
100
AcDbCircle
 10
-28.98922772284642
 20
22.9363883159173
 30
0.0
 40
0.25
100
AcDbArc
 50
0.0000000000000579
 51
90.0
  0
ARC
  5
2DF
330
2
100
AcDbEntity
  8
0
100
AcDbCircle
 10
-28.98922772284641
 20
22.9363883159173
 30
0.0
 40
0.5
100
AcDbArc
 50
0.0000000000000579
 51
90.0
  0
LINE
  5
2E0
330
2
100
AcDbEntity
  8
0
100
AcDbLine
 10
-5.116538224082163
 20
39.39228328938717
 30
0.0
 11
4.883461775917837
 21
39.39228328938717
 31
0.0
  0
LINE
  5
2E1
330
2
100
AcDbEntity
  8
0
  6
HIDDEN
100
AcDbLine
 10
-5.116538224082163
 20
39.64228328938717
 30
0.0
 11
4.883461775917837
 21
39.64228328938717
 31
0.0
  0
LINE
  5
2E2
330
2
100
AcDbEntity
  8
0
100
AcDbLine
 10
4.883461775917837
 20
42.14228328938717
 30
0.0
 11
-5.116538224082163
 21
42.14228328938717
 31
0.0
  0
LINE
  5
2E3
330
2
100
AcDbEntity
  8
0
100
AcDbLine
 10
-5.116538224082163
 20
42.14228328938717
 30
0.0
 11
-5.116538224082163
 21
39.39228328938717
 31
0.0
  0
CIRCLE
  5
2E4
330
2
100
AcDbEntity
  8
0
100
AcDbCircle
 10
-4.616538224082163
 20
41.63661952600303
 30
0.0
 40
0.1405
  0
CIRCLE
  5
2E5
330
2
100
AcDbEntity
  8
0
100
AcDbCircle
 10
-2.116538224082163
 20
41.14223328938716
 30
0.0
 40
0.1405
  0
CIRCLE
  5
2E6
330
2
100
AcDbEntity
  8
0
100
AcDbCircle
 10
1.820961775917837
 20
41.14228328938717
 30
0.0
 40
0.1405
  0
LINE
  5
2E7
330
2
100
AcDbEntity
  8
0
100
AcDbLine
 10
4.883461775917837
 20
42.14228328938717
 30
0.0
 11
4.883461775917837
 21
39.39228328938717
 31
0.0
  0
CIRCLE
  5
2E8
330
2
100
AcDbEntity
  8
0
100
AcDbCircle
 10
4.289711775917837
 20
41.64228328938717
 30
0.0
 40
0.1405
  0
LINE
  5
2E9
330
2
100
AcDbEntity
  8
0
100
AcDbLine
 10
30.42977475216727
 20
-0.0011116840826997
 30
0.0
 11
30.42977475216727
 21
23.1863883159173
 31
0.0
  0
LINE
  5
2EA
330
2
100
AcDbEntity
  8
0
100
AcDbLine
 10
24.42977475216727
 20
23.1863883159173
 30
0.0
 11
24.42977475216727
 21
-0.0011116840826997
 31
0.0
  0
LINE
  5
2EB
330
2
100
AcDbEntity
  8
0
  6
HIDDEN
100
AcDbLine
 10
30.42977475216727
 20
0.1863883159173003
 30
0.0
 11
24.42977475216727
 21
0.1863883159173003
 31
0.0
  0
LINE
  5
2EC
330
2
100
AcDbEntity
  8
0
100
AcDbLine
 10
24.42977475216727
 20
-0.0011116840826997
 30
0.0
 11
30.42977475216727
 21
-0.0011116840826997
 31
0.0
  0
LINE
  5
2ED
330
2
100
AcDbEntity
  8
0
100
AcDbLine
 10
30.42977475216727
 20
16.7488883159173
 30
0.0
 11
30.42977475216727
 21
22.9363883159173
 31
0.0
  0
LINE
  5
2EE
330
2
100
AcDbEntity
  8
0
100
AcDbLine
 10
30.67977475216728
 20
22.9363883159173
 30
0.0
 11
30.67977475216728
 21
20.3113883159173
 31
0.0
  0
LINE
  5
2EF
330
2
100
AcDbEntity
  8
0
100
AcDbLine
 10
30.67977475216727
 20
20.3113883159173
 30
0.0
 11
30.42977475216727
 21
20.3113883159173
 31
0.0
  0
LINE
  5
2F0
330
2
100
AcDbEntity
  8
0
100
AcDbLine
 10
24.42977475216727
 20
21.6863883159173
 30
0.0
 11
30.42977475216727
 21
21.6863883159173
 31
0.0
  0
LINE
  5
2F1
330
2
100
AcDbEntity
  8
0
100
AcDbLine
 10
30.42977475216727
 20
23.1863883159173
 30
0.0
 11
24.42977475216727
 21
23.1863883159173
 31
0.0
  0
ARC
  5
2F2
330
2
100
AcDbEntity
  8
0
100
AcDbCircle
 10
30.92977475216727
 20
22.9363883159173
 30
0.0
 40
0.5
100
AcDbArc
 50
90.0
 51
179.9999999999999
  0
LINE
  5
2F3
330
2
100
AcDbEntity
  8
0
100
AcDbLine
 10
30.42977475216727
 20
22.8738883159173
 30
0.0
 11
30.42977475216727
 21
23.1863883159173
 31
0.0
  0
LINE
  5
2F4
330
2
100
AcDbEntity
  8
0
100
AcDbLine
 10
30.92977475216727
 20
23.4363883159173
 30
0.0
 11
33.17977475216728
 21
23.4363883159173
 31
0.0
  0
LINE
  5
2F5
330
2
100
AcDbEntity
  8
0
100
AcDbLine
 10
30.92977475216728
 20
23.1863883159173
 30
0.0
 11
33.17977475216728
 21
23.1863883159173
 31
0.0
  0
ARC
  5
2F6
330
2
100
AcDbEntity
  8
0
100
AcDbCircle
 10
30.92977475216728
 20
22.9363883159173
 30
0.0
 40
0.25
100
AcDbArc
 50
90.0
 51
179.9999999999999
  0
LINE
  5
2F7
330
2
100
AcDbEntity
  8
0
100
AcDbLine
 10
33.17977475216728
 20
23.1863883159173
 30
0.0
 11
33.17977475216728
 21
23.4363883159173
 31
0.0
  0
CIRCLE
  5
2F8
330
2
100
AcDbEntity
  8
0
100
AcDbCircle
 10
-22.92672772284641
 20
6.1863883159173
 30
0.0
 40
0.1405
  0
CIRCLE
  5
2F9
330
2
100
AcDbEntity
  8
0
100
AcDbCircle
 10
-25.48922772284641
 20
4.686388315917302
 30
0.0
 40
0.1405
  0
CIRCLE
  5
2FA
330
2
100
AcDbEntity
  8
0
100
AcDbCircle
 10
-22.92672772284641
 20
3.186388315917299
 30
0.0
 40
0.1405
  0
CIRCLE
  5
2FB
330
2
100
AcDbEntity
  8
0
100
AcDbCircle
 10
27.42977475216727
 20
3.686388315917299
 30
0.0
 40
0.1405
  0
CIRCLE
  5
2FC
330
2
100
AcDbEntity
  8
0
100
AcDbCircle
 10
24.86727475216727
 20
6.6863883159173
 30
0.0
 40
0.1405
  0
CIRCLE
  5
2FD
330
2
100
AcDbEntity
  8
0
100
AcDbCircle
 10
24.86727475216727
 20
8.1863883159173
 30
0.0
 40
0.1405
  0
LINE
  5
2FE
330
2
100
AcDbEntity
  8
0
100
AcDbLine
 10
-1.625000000000002
 20
33.39228328938717
 30
0.0
 11
-1.625000000000002
 21
39.39228328938717
 31
0.0
  0
LINE
  5
2FF
330
2
100
AcDbEntity
  8
0
100
AcDbLine
 10
-2.175653623644843
 20
33.39228328938717
 30
0.0
 11
-2.175653623644843
 21
39.39228328938717
 31
0.0
  0
LINE
  5
300
330
2
100
AcDbEntity
  8
0
100
AcDbLine
 10
-1.979849410375467
 20
33.39228328938717
 30
0.0
 11
-1.979849410375467
 21
39.39228328938717
 31
0.0
  0
LINE
  5
301
330
2
100
AcDbEntity
  8
0
  6
HIDDEN
100
AcDbLine
 10
-1.819964374963671
 20
33.39228328938717
 30
0.0
 11
-1.819964374963671
 21
39.39228328938717
 31
0.0
  0
LINE
  5
302
330
2
100
AcDbEntity
  8
0
100
AcDbLine
 10
1.942577175480517
 20
33.39228328938717
 30
0.0
 11
-2.175653623644843
 21
33.39228328938717
 31
0.0
  0
LINE
  5
303
330
2
100
AcDbEntity
  8
0
100
AcDbLine
 10
1.391923551835676
 20
33.39228328938717
 30
0.0
 11
1.391923551835676
 21
39.39228328938717
 31
0.0
  0
LINE
  5
304
330
2
100
AcDbEntity
  8
0
100
AcDbLine
 10
1.942577175480517
 20
33.39228328938717
 30
0.0
 11
1.942577175480517
 21
39.39228328938717
 31
0.0
  0
LINE
  5
305
330
2
100
AcDbEntity
  8
0
100
AcDbLine
 10
1.746772962211141
 20
33.39228328938717
 30
0.0
 11
1.746772962211141
 21
39.39228328938717
 31
0.0
  0
LINE
  5
306
330
2
100
AcDbEntity
  8
0
  6
HIDDEN
100
AcDbLine
 10
1.586887926799346
 20
33.39228328938717
 30
0.0
 11
1.586887926799346
 21
39.39228328938717
 31
0.0
  0
ENDSEC
  0
SECTION
  2
OBJECTS
  0
DICTIONARY
  5
9
330
0
100
AcDbDictionary
281
     1
  3
ACAD_COLOR
350
BA
  3
ACAD_GROUP
350
23
  3
ACAD_LAYOUT
350
D
  3
ACAD_MATERIAL
350
B9
  3
ACAD_MLINESTYLE
350
24
  3
ACAD_PLOTSETTINGS
350
25
  3
ACAD_PLOTSTYLENAME
350
8
  3
ACAD_TABLESTYLE
350
BB
  3
ACDBHEADERROUNDTRIPXREC
350
313
  3
AcDbVariableDictionary
350
B5
  0
DICTIONARY
  5
3
330
2
100
AcDbDictionary
280
     1
281
     1
  3
ACAD_SORTENTS
360
C3
  0
DICTIONARY
  5
BA
102
{ACAD_REACTORS
330
9
102
}
330
9
100
AcDbDictionary
281
     1
  0
DICTIONARY
  5
23
102
{ACAD_REACTORS
330
9
102
}
330
9
100
AcDbDictionary
281
     1
  0
DICTIONARY
  5
D
102
{ACAD_REACTORS
330
9
102
}
330
9
100
AcDbDictionary
281
     1
  3
Layout1
350
13
  3
Model
350
C
  0
DICTIONARY
  5
B9
102
{ACAD_REACTORS
330
9
102
}
330
9
100
AcDbDictionary
281
     1
  0
DICTIONARY
  5
24
102
{ACAD_REACTORS
330
9
102
}
330
9
100
AcDbDictionary
281
     1
  3
Standard
350
27
  0
DICTIONARY
  5
25
102
{ACAD_REACTORS
330
9
102
}
330
9
100
AcDbDictionary
281
     1
  0
ACDBDICTIONARYWDFLT
  5
8
102
{ACAD_REACTORS
330
9
102
}
330
9
100
AcDbDictionary
281
     1
  3
Normal
350
7
100
AcDbDictionaryWithDefault
340
7
  0
DICTIONARY
  5
BB
102
{ACAD_REACTORS
330
9
102
}
330
9
100
AcDbDictionary
281
     1
  3
Standard
350
BC
  0
DICTIONARY
  5
313
102
{ACAD_REACTORS
330
9
102
}
330
9
100
AcDbDictionary
281
     1
  3
COLORDICT
350
314
  3
MATERIALDICT
350
315
  0
DICTIONARY
  5
B5
102
{ACAD_REACTORS
330
9
102
}
330
9
100
AcDbDictionary
281
     1
  3
CTABLESTYLE
350
12C
  3
HIDETEXT
350
312
  0
SORTENTSTABLE
  5
C3
102
{ACAD_REACTORS
330
3
102
}
330
3
100
AcDbSortentsTable
330
2
  0
LAYOUT
  5
13
102
{ACAD_REACTORS
330
D
102
}
102
{ACAD_XDICTIONARY
360
316
102
}
330
D
100
AcDbPlotSettings
  1

  2
HP LaserJet 2100 Series PS
  4

  6

 40
0.0
 41
0.0
 42
0.0
 43
0.0
 44
0.0
 45
0.0
 46
0.0
 47
0.0
 48
0.0
 49
0.0
140
0.0
141
0.0
142
1.0
143
1.0
 70
   688
 72
     0
 73
     0
 74
     5
  7

 75
    16
147
1.0
148
0.0
149
0.0
100
AcDbLayout
  1
Layout1
 70
     0
 71
     1
 10
0.0
 20
0.0
 11
12.0
 21
9.0
 12
0.0
 22
0.0
 32
0.0
 14
1.000000000000000E+20
 24
1.000000000000000E+20
 34
1.000000000000000E+20
 15
-1.000000000000000E+20
 25
-1.000000000000000E+20
 35
-1.000000000000000E+20
146
0.0
 13
0.0
 23
0.0
 33
0.0
 16
1.0
 26
0.0
 36
0.0
 17
0.0
 27
1.0
 37
0.0
 76
     0
330
E
  0
LAYOUT
  5
C
102
{ACAD_REACTORS
330
D
102
}
102
{ACAD_XDICTIONARY
360
318
102
}
330
D
100
AcDbPlotSettings
  1

  2
HP LaserJet 2100 Series PS
  4
Letter
  6

 40
5.365749835968018
 41
5.408073902130127
 42
5.132904052734375
 43
5.090576171875
 44
215.8999938964844
 45
279.3999938964844
 46
0.0
 47
0.0
 48
0.0
 49
0.0
140
0.0
141
0.0
142
1.0
143
1.0
 70
 11952
 72
     0
 73
     1
 74
     0
  7

 75
     0
147
1.0
148
-401.9256620779514
149
10.8398439565523
100
AcDbLayout
  1
Model
 70
     1
 71
     0
 10
0.0
 20
0.0
 11
12.0
 21
9.0
 12
0.0
 22
0.0
 32
0.0
 14
0.0
 24
0.0
 34
0.0
 15
0.0
 25
0.0
 35
0.0
146
0.0
 13
0.0
 23
0.0
 33
0.0
 16
1.0
 26
0.0
 36
0.0
 17
0.0
 27
1.0
 37
0.0
 76
     0
330
2
  0
MLINESTYLE
  5
27
102
{ACAD_REACTORS
330
24
102
}
330
24
100
AcDbMlineStyle
  2
STANDARD
 70
     0
  3

 62
   256
 51
90.0
 52
90.0
 71
     2
 49
0.5
 62
   256
  6
BYLAYER
 49
-0.5
 62
   256
  6
BYLAYER
  0
ACDBPLACEHOLDER
  5
7
102
{ACAD_REACTORS
330
8
102
}
330
8
  0
ACAD_PROXY_OBJECT
  5
BC
102
{ACAD_REACTORS
330
BB
102
}
330
BB
100
AcDbProxyObject
 90
      499
 91
      512
 95
   983063
 70
     0
 93
     1841
310
4214DD185B99185C9928B81E85EB51B8AE3F2E07A17AD46E2B8FC02B5E8DC0F42B1CFD028000000C1008070000C3001FDFF8000000C1003FBFF000000182007F7FE00000030400FEFFC00000060801FDFF8000000C1003FBFF00000018200000000000000681FA0B0000001820100E000186003FBFF000000182007F7FE000
310
00030400FEFFC00000060801FDFF8000000C1003FBFF000000182007F7FE000000304000AD7A3703D0AC73F4160000003040201C00030C007F7FE00000030400FEFFC00000060801FDFF8000000C1003FBFF000000182007F7FE00000030400FEFFC000000608000
340
16
340
16
340
16
 94
        0
  0
XRECORD
  5
314
102
{ACAD_REACTORS
330
313
102
}
330
313
100
AcDbXrecord
340
BA
  0
XRECORD
  5
315
102
{ACAD_REACTORS
330
313
102
}
330
313
100
AcDbXrecord
340
B9
  0
DICTIONARYVAR
  5
12C
102
{ACAD_REACTORS
330
B5
102
}
330
B5
100
DictionaryVariables
280
     0
  1
STANDARD
  0
DICTIONARYVAR
  5
312
102
{ACAD_REACTORS
330
B5
102
}
330
B5
100
DictionaryVariables
280
     0
  1
0
  0
DICTIONARY
  5
316
330
13
100
AcDbDictionary
280
     1
281
     1
  3
ACAD_XREC_ROUNDTRIP
360
317
  0
DICTIONARY
  5
318
330
C
100
AcDbDictionary
280
     1
281
     1
  3
ACAD_XREC_ROUNDTRIP
360
319
  0
XRECORD
  5
317
102
{ACAD_REACTORS
330
316
102
}
330
316
100
AcDbXrecord
102
SHADEPLOT
 70
     0
102
SHADEPLOTRESLEVEL
 70
     2
102
SHADEPLOTCUSTOMDPI
 70
   300
  0
XRECORD
  5
319
102
{ACAD_REACTORS
330
318
102
}
330
318
100
AcDbXrecord
102
SHADEPLOT
 70
     0
102
SHADEPLOTRESLEVEL
 70
     2
102
SHADEPLOTCUSTOMDPI
 70
   300
  0
ENDSEC
  0
EOF
