  0
SECTION
  2
HEADER
  9
$ACADVER
  1
AC1015
  9
$ACADMAINTVER
 70
     6
  9
$DWGCODEPAGE
  3
ANSI_1252
  9
$INSBASE
 10
0.0
 20
0.0
 30
0.0
  9
$EXTMIN
 10
4.5625
 20
10.625
 30
0.0
  9
$EXTMAX
 10
16.5625
 20
23.5625
 30
20.0
  9
$LIMMIN
 10
0.0
 20
0.0
  9
$LIMMAX
 10
32.0
 20
42.0
  9
$ORTHOMODE
 70
     1
  9
$REGENMODE
 70
     1
  9
$FILLMODE
 70
     1
  9
$QTEXTMODE
 70
     0
  9
$MIRRTEXT
 70
     0
  9
$LTSCALE
 40
1.5
  9
$ATTMODE
 70
     1
  9
$TEXTSIZE
 40
0.36
  9
$TRACEWID
 40
0.05
  9
$TEXTSTYLE
  7
STANDARD
  9
$CLAYER
  8
0
  9
$CELTYPE
  6
ByLayer
  9
$CECOLOR
 62
   256
  9
$CELTSCALE
 40
1.0
  9
$DISPSILH
 70
     0
  9
$DIMSCALE
 40
4.0
  9
$DIMASZ
 40
0.125
  9
$DIMEXO
 40
0.062
  9
$DIMDLI
 40
0.375
  9
$DIMRND
 40
0.0
  9
$DIMDLE
 40
0.0
  9
$DIMEXE
 40
0.08
  9
$DIMTP
 40
0.0
  9
$DIMTM
 40
0.0
  9
$DIMTXT
 40
0.09
  9
$DIMCEN
 40
-0.06
  9
$DIMTSZ
 40
0.0
  9
$DIMTOL
 70
     0
  9
$DIMLIM
 70
     0
  9
$DIMTIH
 70
     1
  9
$DIMTOH
 70
     1
  9
$DIMSE1
 70
     0
  9
$DIMSE2
 70
     0
  9
$DIMTAD
 70
     0
  9
$DIMZIN
 70
     0
  9
$DIMBLK
  1

  9
$DIMASO
 70
     0
  9
$DIMSHO
 70
     0
  9
$DIMPOST
  1

  9
$DIMAPOST
  1

  9
$DIMALT
 70
     0
  9
$DIMALTD
 70
     2
  9
$DIMALTF
 40
25.4
  9
$DIMLFAC
 40
1.0
  9
$DIMTOFL
 70
     0
  9
$DIMTVP
 40
0.0
  9
$DIMTIX
 70
     0
  9
$DIMSOXD
 70
     0
  9
$DIMSAH
 70
     0
  9
$DIMBLK1
  1

  9
$DIMBLK2
  1

  9
$DIMSTYLE
  2
Standard
  9
$DIMCLRD
 70
     0
  9
$DIMCLRE
 70
     0
  9
$DIMCLRT
 70
     0
  9
$DIMTFAC
 40
1.0
  9
$DIMGAP
 40
0.09
  9
$DIMJUST
 70
     0
  9
$DIMSD1
 70
     0
  9
$DIMSD2
 70
     0
  9
$DIMTOLJ
 70
     1
  9
$DIMTZIN
 70
     0
  9
$DIMALTZ
 70
     0
  9
$DIMALTTZ
 70
     0
  9
$DIMUPT
 70
     0
  9
$DIMDEC
 70
     4
  9
$DIMTDEC
 70
     4
  9
$DIMALTU
 70
     5
  9
$DIMALTTD
 70
     2
  9
$DIMTXSTY
  7
STANDARD
  9
$DIMAUNIT
 70
     0
  9
$DIMADEC
 70
     0
  9
$DIMALTRND
 40
0.0
  9
$DIMAZIN
 70
     0
  9
$DIMDSEP
 70
    46
  9
$DIMATFIT
 70
     3
  9
$DIMFRAC
 70
     0
  9
$DIMLDRBLK
  1

  9
$DIMLUNIT
 70
     5
  9
$DIMLWD
 70
    -2
  9
$DIMLWE
 70
    -2
  9
$DIMTMOVE
 70
     2
  9
$LUNITS
 70
     5
  9
$LUPREC
 70
     4
  9
$SKETCHINC
 40
0.2268815235304871
  9
$FILLETRAD
 40
0.0
  9
$AUNITS
 70
     0
  9
$AUPREC
 70
     0
  9
$MENU
  1
acad
  9
$ELEVATION
 40
0.0
  9
$PELEVATION
 40
0.0
  9
$THICKNESS
 40
0.0
  9
$LIMCHECK
 70
     0
  9
$CHAMFERA
 40
0.0
  9
$CHAMFERB
 40
0.0
  9
$CHAMFERC
 40
0.0
  9
$CHAMFERD
 40
0.0
  9
$SKPOLY
 70
     0
  9
$TDCREATE
 40
2449266.859461458
  9
$TDUCREATE
 40
2449267.192794792
  9
$TDUPDATE
 40
2454160.66386397
  9
$TDUUPDATE
 40
2454160.997197304
  9
$TDINDWG
 40
0.2475171065
  9
$TDUSRTIMER
 40
0.2475171065
  9
$USRTIMER
 70
     1
  9
$ANGBASE
 50
0.0
  9
$ANGDIR
 70
     0
  9
$PDMODE
 70
     0
  9
$PDSIZE
 40
0.0
  9
$PLINEWID
 40
0.04
  9
$SPLFRAME
 70
     0
  9
$SPLINETYPE
 70
     6
  9
$SPLINESEGS
 70
     8
  9
$HANDSEED
  5
4EC
  9
$SURFTAB1
 70
     6
  9
$SURFTAB2
 70
     6
  9
$SURFTYPE
 70
     6
  9
$SURFU
 70
     6
  9
$SURFV
 70
     6
  9
$UCSBASE
  2

  9
$UCSNAME
  2

  9
$UCSORG
 10
0.0
 20
0.0
 30
0.0
  9
$UCSXDIR
 10
1.0
 20
0.0
 30
0.0
  9
$UCSYDIR
 10
0.0
 20
1.0
 30
0.0
  9
$UCSORTHOREF
  2

  9
$UCSORTHOVIEW
 70
     0
  9
$UCSORGTOP
 10
0.0
 20
0.0
 30
0.0
  9
$UCSORGBOTTOM
 10
0.0
 20
0.0
 30
0.0
  9
$UCSORGLEFT
 10
0.0
 20
0.0
 30
0.0
  9
$UCSORGRIGHT
 10
0.0
 20
0.0
 30
0.0
  9
$UCSORGFRONT
 10
0.0
 20
0.0
 30
0.0
  9
$UCSORGBACK
 10
0.0
 20
0.0
 30
0.0
  9
$PUCSBASE
  2

  9
$PUCSNAME
  2

  9
$PUCSORG
 10
0.0
 20
0.0
 30
0.0
  9
$PUCSXDIR
 10
1.0
 20
0.0
 30
0.0
  9
$PUCSYDIR
 10
0.0
 20
1.0
 30
0.0
  9
$PUCSORTHOREF
  2

  9
$PUCSORTHOVIEW
 70
     0
  9
$PUCSORGTOP
 10
0.0
 20
0.0
 30
0.0
  9
$PUCSORGBOTTOM
 10
0.0
 20
0.0
 30
0.0
  9
$PUCSORGLEFT
 10
0.0
 20
0.0
 30
0.0
  9
$PUCSORGRIGHT
 10
0.0
 20
0.0
 30
0.0
  9
$PUCSORGFRONT
 10
0.0
 20
0.0
 30
0.0
  9
$PUCSORGBACK
 10
0.0
 20
0.0
 30
0.0
  9
$USERI1
 70
     0
  9
$USERI2
 70
     0
  9
$USERI3
 70
     0
  9
$USERI4
 70
     0
  9
$USERI5
 70
     0
  9
$USERR1
 40
0.0
  9
$USERR2
 40
0.0
  9
$USERR3
 40
0.0
  9
$USERR4
 40
0.0
  9
$USERR5
 40
0.0
  9
$WORLDVIEW
 70
     1
  9
$SHADEDGE
 70
     3
  9
$SHADEDIF
 70
    70
  9
$TILEMODE
 70
     1
  9
$MAXACTVP
 70
    16
  9
$PINSBASE
 10
0.0
 20
0.0
 30
0.0
  9
$PLIMCHECK
 70
     0
  9
$PEXTMIN
 10
1.000000000000000E+20
 20
1.000000000000000E+20
 30
1.000000000000000E+20
  9
$PEXTMAX
 10
-1.000000000000000E+20
 20
-1.000000000000000E+20
 30
-1.000000000000000E+20
  9
$PLIMMIN
 10
0.0
 20
0.0
  9
$PLIMMAX
 10
12.0
 20
9.0
  9
$UNITMODE
 70
     0
  9
$VISRETAIN
 70
     0
  9
$PLINEGEN
 70
     1
  9
$PSLTSCALE
 70
     0
  9
$TREEDEPTH
 70
  3020
  9
$CMLSTYLE
  2
Standard
  9
$CMLJUST
 70
     0
  9
$CMLSCALE
 40
1.0
  9
$PROXYGRAPHICS
 70
     1
  9
$MEASUREMENT
 70
     0
  9
$CELWEIGHT
370
    -1
  9
$ENDCAPS
280
     0
  9
$JOINSTYLE
280
     0
  9
$LWDISPLAY
290
     0
  9
$INSUNITS
 70
     0
  9
$HYPERLINKBASE
  1

  9
$STYLESHEET
  1

  9
$XEDIT
290
     1
  9
$CEPSNTYPE
380
     0
  9
$PSTYLEMODE
290
     1
  9
$FINGERPRINTGUID
  2
{3AE6652E-3C97-4025-9B27-D159480B4838}
  9
$VERSIONGUID
  2
{56388337-E11A-4050-A2CE-74F2B58BD677}
  9
$EXTNAMES
290
     1
  9
$PSVPSCALE
 40
0.0
  9
$OLESTARTUP
290
     0
  0
ENDSEC
  0
SECTION
  2
CLASSES
  0
CLASS
  1
ACDBDICTIONARYWDFLT
  2
AcDbDictionaryWithDefault
  3
AutoCAD 2000
 90
        0
280
     0
281
     0
  0
CLASS
  1
ACDBPLACEHOLDER
  2
AcDbPlaceHolder
  3
ObjectDBX Classes
 90
        0
280
     0
281
     0
  0
CLASS
  1
LAYOUT
  2
AcDbLayout
  3
ObjectDBX Classes
 90
        0
280
     0
281
     0
  0
CLASS
  1
TABLESTYLE
  2
AcDbTableStyle
  3
ObjectDBX Classes
 90
     2047
280
     1
281
     0
  0
CLASS
  1
DICTIONARYVAR
  2
AcDbDictionaryVar
  3
AutoCAD 2000
 90
        0
280
     0
281
     0
  0
ENDSEC
  0
SECTION
  2
TABLES
  0
TABLE
  2
VPORT
  5
8
330
0
100
AcDbSymbolTable
 70
     2
  0
VPORT
  5
4DA
330
8
100
AcDbSymbolTableRecord
100
AcDbViewportTableRecord
  2
*Active
 70
     0
 10
0.0
 20
0.0
 11
1.0
 21
1.0
 12
23.48640659058336
 22
20.47455331141843
 13
0.0
 23
0.0
 14
0.0625
 24
0.0625
 15
0.25
 25
0.25
 16
0.0
 26
0.0
 36
1.0
 17
0.0
 27
0.0
 37
0.0
 40
46.02598103358638
 41
1.55012853470437
 42
50.0
 43
0.0
 44
0.0
 50
0.0
 51
0.0
 71
     0
 72
   100
 73
     1
 74
     0
 75
     0
 76
     0
 77
     0
 78
     0
281
     0
 65
     1
110
0.0
120
0.0
130
0.0
111
1.0
121
0.0
131
0.0
112
0.0
122
1.0
132
0.0
 79
     0
146
0.0
  0
ENDTAB
  0
TABLE
  2
LTYPE
  5
5
330
0
100
AcDbSymbolTable
 70
     3
  0
LTYPE
  5
13
330
5
100
AcDbSymbolTableRecord
100
AcDbLinetypeTableRecord
  2
ByBlock
 70
     0
  3

 72
    65
 73
     0
 40
0.0
  0
LTYPE
  5
14
330
5
100
AcDbSymbolTableRecord
100
AcDbLinetypeTableRecord
  2
ByLayer
 70
     0
  3

 72
    65
 73
     0
 40
0.0
  0
LTYPE
  5
15
330
5
100
AcDbSymbolTableRecord
100
AcDbLinetypeTableRecord
  2
CONTINUOUS
 70
     0
  3
Solid line
 72
    65
 73
     0
 40
0.0
  0
ENDTAB
  0
TABLE
  2
LAYER
  5
2
330
0
100
AcDbSymbolTable
 70
    14
  0
LAYER
  5
10
330
2
100
AcDbSymbolTableRecord
100
AcDbLayerTableRecord
  2
0
 70
     0
 62
     7
  6
CONTINUOUS
370
    -3
390
F
  0
ENDTAB
  0
TABLE
  2
STYLE
  5
3
330
0
100
AcDbSymbolTable
 70
     3
  0
STYLE
  5
11
330
3
100
AcDbSymbolTableRecord
100
AcDbTextStyleTableRecord
  2
STANDARD
 70
     0
 40
0.0
 41
1.0
 50
0.0
 71
     0
 42
0.36
  3
TXT
  4

  0
STYLE
  5
43
330
3
100
AcDbSymbolTableRecord
100
AcDbTextStyleTableRecord
  2
MONOTXT
 70
     0
 40
0.0
 41
1.0
 50
0.0
 71
     0
 42
0.375
  3
MONOTXT
  4

  0
ENDTAB
  0
TABLE
  2
VIEW
  5
6
330
0
100
AcDbSymbolTable
 70
     0
  0
ENDTAB
  0
TABLE
  2
UCS
  5
7
330
0
100
AcDbSymbolTable
 70
     0
  0
ENDTAB
  0
TABLE
  2
APPID
  5
9
330
0
100
AcDbSymbolTable
 70
     1
  0
APPID
  5
12
330
9
100
AcDbSymbolTableRecord
100
AcDbRegAppTableRecord
  2
ACAD
 70
     0
  0
ENDTAB
  0
TABLE
  2
DIMSTYLE
  5
A
330
0
100
AcDbSymbolTable
 70
     1
100
AcDbDimStyleTable
  0
DIMSTYLE
105
45C
330
A
100
AcDbSymbolTableRecord
100
AcDbDimStyleTableRecord
  2
Standard
 70
     0
  3

  4

340
11
  0
ENDTAB
  0
TABLE
  2
BLOCK_RECORD
  5
1
330
0
100
AcDbSymbolTable
 70
     5
  0
BLOCK_RECORD
  5
1E
330
1
100
AcDbSymbolTableRecord
100
AcDbBlockTableRecord
  2
*Model_Space
340
21
  0
BLOCK_RECORD
  5
1A
330
1
100
AcDbSymbolTableRecord
100
AcDbBlockTableRecord
  2
*Paper_Space
340
1D
  0
ENDTAB
  0
ENDSEC
  0
SECTION
  2
BLOCKS
  0
BLOCK
  5
74
330
1E
100
AcDbEntity
  8
0
100
AcDbBlockBegin
  2
*Model_Space
 70
     0
 10
0.0
 20
0.0
 30
0.0
  3
*Model_Space
  1

  4

  0
ENDBLK
  5
75
330
1E
100
AcDbEntity
  8
0
100
AcDbBlockEnd
  0
BLOCK
  5
72
330
1A
100
AcDbEntity
 67
     1
  8
0
100
AcDbBlockBegin
  2
*Paper_Space
 70
     0
 10
0.0
 20
0.0
 30
0.0
  3
*Paper_Space
  1

  4

  0
ENDBLK
  5
73
330
1A
100
AcDbEntity
 67
     1
  8
0
100
AcDbBlockEnd
  0
ENDSEC
  0
SECTION
  2
ENTITIES
  0
TEXT
  5
3CD
330
1E
100
AcDbEntity
  8
0
100
AcDbText
 10
-27.625
 20
29.0
 30
0.0
 40
0.375
  1

  7
MONOTXT
100
AcDbText
  0
TEXT
  5
3CE
330
1E
100
AcDbEntity
  8
0
100
AcDbText
 10
34.25
 20
26.8125
 30
0.0
 40
0.375
  1

  7
MONOTXT
100
AcDbText
  0
CIRCLE
  5
4AC
330
1E
100
AcDbEntity
  8
0
100
AcDbCircle
 10
16.0625
 20
22.437
 30
0.0
 40
0.1405
  0
LINE
  5
4AD
330
1E
100
AcDbEntity
  8
0
100
AcDbLine
 10
13.3125
 20
20.437
 30
0.0
 11
16.5625
 21
20.437
 31
0.0
  0
LINE
  5
4AE
330
1E
100
AcDbEntity
  8
0
100
AcDbLine
 10
16.5625
 20
23.3125
 30
20.0
 11
13.4375
 21
23.3125
 31
20.0
  0
LINE
  5
4AF
330
1E
100
AcDbEntity
  8
0
100
AcDbLine
 10
16.5625
 20
23.5625
 30
20.0
 11
4.5625
 21
23.5625
 31
20.0
  0
LINE
  5
4B0
330
1E
100
AcDbEntity
  8
0
100
AcDbLine
 10
6.692822331542494
 20
23.312
 30
0.0
 11
6.692822331542494
 21
10.8125
 31
0.0
  0
LINE
  5
4B1
330
1E
100
AcDbEntity
  8
0
100
AcDbLine
 10
6.505322331542494
 20
23.312
 30
0.0
 11
6.505322331542494
 21
10.8125
 31
0.0
  0
LINE
  5
4B2
330
1E
100
AcDbEntity
  8
0
100
AcDbLine
 10
11.74954589293806
 20
23.312
 30
0.0
 11
11.74954589293806
 21
10.8125
 31
0.0
  0
CIRCLE
  5
4B3
330
1E
100
AcDbEntity
  8
0
100
AcDbCircle
 10
5.4375
 20
20.937
 30
0.0
 40
0.1405
  0
CIRCLE
  5
4B4
330
1E
100
AcDbEntity
  8
0
100
AcDbCircle
 10
15.6875
 20
20.937
 30
0.0
 40
0.1405
  0
LINE
  5
4B5
330
1E
100
AcDbEntity
  8
0
100
AcDbLine
 10
8.0
 20
23.312
 30
0.0
 11
8.0
 21
10.8125
 31
0.0
  0
LINE
  5
4B6
330
1E
100
AcDbEntity
  8
0
100
AcDbLine
 10
11.92460289293805
 20
23.312
 30
0.0
 11
11.92460289293805
 21
10.8125
 31
0.0
  0
LINE
  5
4B7
330
1E
100
AcDbEntity
  8
0
100
AcDbLine
 10
13.3125
 20
23.312
 30
0.0
 11
13.3125
 21
10.8125
 31
0.0
  0
LINE
  5
4B8
330
1E
100
AcDbEntity
  8
0
100
AcDbLine
 10
4.5625
 20
23.5625
 30
20.0
 11
4.5625
 21
20.4375
 31
20.0
  0
LINE
  5
4B9
330
1E
100
AcDbEntity
  8
0
100
AcDbLine
 10
6.505322331542494
 20
20.437
 30
0.0
 11
4.5625
 21
20.437
 31
0.0
  0
LINE
  5
4BA
330
1E
100
AcDbEntity
  8
0
100
AcDbLine
 10
6.192822331542494
 20
10.8125
 30
0.0
 11
13.625
 21
10.8125
 31
0.0
  0
LINE
  5
4BB
330
1E
100
AcDbEntity
  8
0
100
AcDbLine
 10
13.625
 20
10.625
 30
0.0
 11
6.192822331542494
 21
10.625
 31
0.0
  0
LINE
  5
4BC
330
1E
100
AcDbEntity
  8
0
100
AcDbLine
 10
7.997968999999998
 20
20.437
 30
0.0
 11
11.74954589293805
 21
20.437
 31
0.0
  0
LINE
  5
4BD
330
1E
100
AcDbEntity
  8
0
100
AcDbLine
 10
6.192822331542494
 20
10.625
 30
0.0
 11
6.192822331542494
 21
10.8125
 31
0.0
  0
LINE
  5
4BE
330
1E
100
AcDbEntity
  8
0
100
AcDbLine
 10
12.21364789293806
 20
10.8125
 30
0.0
 11
12.21364789293806
 21
10.625
 31
0.0
  0
LWPOLYLINE
  5
4BF
330
1E
100
AcDbEntity
  8
0
100
AcDbPolyline
 90
       16
 70
     1
 43
0.0
 10
12.19551492305681
 20
13.6238865612292
 10
12.19251834684269
 20
13.5661958915702
 42
-0.0395665274243554
 10
12.18455889629989
 20
13.52457852532762
 42
-0.0807525249120529
 10
12.16852925937842
 20
13.48955448092952
 10
12.15690030972858
 20
13.48330302331393
 10
12.14519610218743
 20
13.48941241920157
 42
-0.0807525249120318
 10
12.12874118824028
 20
13.52423868447399
 42
-0.0395665274243896
 10
12.12027557973056
 20
13.56575604829294
 10
12.11657676329833
 20
13.62340595368496
 10
12.11957333951244
 20
13.68109662334394
 42
-0.0395665274243676
 10
12.12753279005524
 20
13.72271398958654
 42
-0.0807525249120006
 10
12.14356242697671
 20
13.75773803398463
 10
12.15519137662655
 20
13.76398949160022
 10
12.1668955841677
 20
13.75788009571259
 42
-0.0807525249120367
 10
12.18335049811485
 20
13.72305383044016
 42
-0.0395665274243893
 10
12.19181610662457
 20
13.68153646662123
  0
LINE
  5
4C0
330
1E
100
AcDbEntity
  8
0
100
AcDbLine
 10
13.625
 20
10.8125
 30
0.0
 11
13.625
 21
10.625
 31
0.0
  0
LWPOLYLINE
  5
4C1
330
1E
100
AcDbEntity
  8
0
100
AcDbPolyline
 90
       16
 70
     1
 43
0.0
 10
12.19551492305681
 20
17.12536453592613
 10
12.19251834684269
 20
17.06767386626713
 42
-0.0395665274243554
 10
12.18455889629989
 20
17.02605650002455
 42
-0.0807525249120529
 10
12.16852925937842
 20
16.99103245562645
 10
12.15690030972858
 20
16.98478099801086
 10
12.14519610218743
 20
16.9908903938985
 42
-0.0807525249120318
 10
12.12874118824028
 20
17.02571665917093
 42
-0.0395665274243896
 10
12.12027557973056
 20
17.06723402298987
 10
12.11657676329833
 20
17.12488392838189
 10
12.11957333951244
 20
17.18257459804087
 42
-0.0395665274243676
 10
12.12753279005524
 20
17.22419196428347
 42
-0.0807525249120006
 10
12.14356242697671
 20
17.25921600868156
 10
12.15519137662655
 20
17.26546746629715
 10
12.1668955841677
 20
17.25935807040952
 42
-0.0807525249120367
 10
12.18335049811485
 20
17.22453180513709
 42
-0.0395665274243893
 10
12.19181610662457
 20
17.18301444131815
  0
LWPOLYLINE
  5
4C2
330
1E
100
AcDbEntity
  8
0
100
AcDbPolyline
 90
       16
 70
     1
 43
0.0
 10
12.79023575086119
 20
14.58067524092279
 10
12.78723917464707
 20
14.5229845712638
 42
-0.0395665274243554
 10
12.77927972410427
 20
14.48136720502121
 42
-0.0807525249120529
 10
12.7632500871828
 20
14.44634316062312
 10
12.75162113753296
 20
14.44009170300752
 10
12.73991692999181
 20
14.44620109889516
 42
-0.0807525249120318
 10
12.72346201604466
 20
14.48102736416759
 42
-0.0395665274243896
 10
12.71499640753494
 20
14.52254472798653
 10
12.71129759110271
 20
14.58019463337855
 10
12.71429416731682
 20
14.63788530303754
 42
-0.0395665274243676
 10
12.72225361785962
 20
14.67950266928013
 42
-0.0807525249120006
 10
12.73828325478109
 20
14.71452671367822
 10
12.74991220443093
 20
14.72077817129382
 10
12.76161641197208
 20
14.71466877540618
 42
-0.0807525249120367
 10
12.77807132591923
 20
14.67984251013375
 42
-0.0395665274243893
 10
12.78653693442895
 20
14.63832514631482
  0
LWPOLYLINE
  5
4C3
330
1E
100
AcDbEntity
  8
0
100
AcDbPolyline
 90
       16
 70
     1
 43
0.0
 10
12.79023575086119
 20
15.62715679009203
 10
12.78723917464707
 20
15.56946612043304
 42
-0.0395665274243554
 10
12.77927972410427
 20
15.52784875419045
 42
-0.0807525249120529
 10
12.7632500871828
 20
15.49282470979236
 10
12.75162113753296
 20
15.48657325217677
 10
12.73991692999181
 20
15.4926826480644
 42
-0.0807525249120318
 10
12.72346201604466
 20
15.52750891333683
 42
-0.0395665274243896
 10
12.71499640753494
 20
15.56902627715577
 10
12.71129759110271
 20
15.62667618254779
 10
12.71429416731682
 20
15.68436685220678
 42
-0.0395665274243676
 10
12.72225361785962
 20
15.72598421844937
 42
-0.0807525249120006
 10
12.73828325478109
 20
15.76100826284747
 10
12.74991220443093
 20
15.76725972046306
 10
12.76161641197208
 20
15.76115032457542
 42
-0.0807525249120367
 10
12.77807132591923
 20
15.72632405930299
 42
-0.0395665274243893
 10
12.78653693442895
 20
15.68480669548406
  0
LWPOLYLINE
  5
4C4
330
1E
100
AcDbEntity
  8
0
100
AcDbPolyline
 90
       16
 70
     1
 43
0.0
 10
12.84059107538735
 20
17.54356439175122
 10
12.83759449917323
 20
17.48587372209222
 42
-0.0395665274243554
 10
12.82963504863043
 20
17.44425635584964
 42
-0.0807525249120529
 10
12.81360541170896
 20
17.40923231145155
 10
12.80197646205912
 20
17.40298085383595
 10
12.79027225451798
 20
17.40909024972359
 42
-0.0807525249120318
 10
12.77381734057082
 20
17.44391651499601
 42
-0.0395665274243896
 10
12.7653517320611
 20
17.48543387881496
 10
12.76165291562887
 20
17.54308378420698
 10
12.76464949184299
 20
17.60077445386597
 42
-0.0395665274243676
 10
12.77260894238579
 20
17.64239182010856
 42
-0.0807525249120006
 10
12.78863857930725
 20
17.67741586450665
 10
12.80026752895709
 20
17.68366732212224
 10
12.81197173649824
 20
17.67755792623461
 42
-0.0807525249120367
 10
12.82842665044539
 20
17.64273166096218
 42
-0.0395665274243893
 10
12.83689225895511
 20
17.60121429714324
  0
LWPOLYLINE
  5
4C5
330
1E
100
AcDbEntity
  8
0
100
AcDbPolyline
 90
       16
 70
     1
 43
0.0
 10
12.13301492305681
 20
18.8227673827757
 10
12.13001834684269
 20
18.76507671311671
 42
-0.0395665274243554
 10
12.12205889629989
 20
18.72345934687412
 42
-0.0807525249120529
 10
12.10602925937842
 20
18.68843530247603
 10
12.09440030972858
 20
18.68218384486043
 10
12.08269610218743
 20
18.68829324074807
 42
-0.0807525249120318
 10
12.06624118824028
 20
18.7231195060205
 42
-0.0395665274243896
 10
12.05777557973056
 20
18.76463686983944
 10
12.05407676329833
 20
18.82228677523146
 10
12.05707333951244
 20
18.87997744489045
 42
-0.0395665274243676
 10
12.06503279005524
 20
18.92159481113304
 42
-0.0807525249120006
 10
12.08106242697671
 20
18.95661885553113
 10
12.09269137662655
 20
18.96287031314672
 10
12.1043955841677
 20
18.95676091725909
 42
-0.0807525249120367
 10
12.12085049811485
 20
18.92193465198666
 42
-0.0395665274243893
 10
12.12931610662457
 20
18.88041728816773
  0
CIRCLE
  5
4C6
330
1E
100
AcDbEntity
  8
0
100
AcDbCircle
 10
6.0625
 20
21.937
 30
0.0
 40
0.1405
  0
LINE
  5
4C7
330
1E
100
AcDbEntity
  8
0
100
AcDbLine
 10
6.334819255291606
 20
23.312
 30
0.0
 11
4.5625
 21
23.312
 31
0.0
  0
CIRCLE
  5
4C8
330
1E
100
AcDbEntity
  8
0
100
AcDbCircle
 10
5.0625
 20
22.437
 30
0.0
 40
0.1405
  0
LINE
  5
4C9
330
1E
100
AcDbEntity
  8
0
100
AcDbLine
 10
8.0
 20
23.312
 30
0.0
 11
6.505322331542494
 21
23.312
 31
0.0
  0
LINE
  5
4CA
330
1E
100
AcDbEntity
  8
0
100
AcDbLine
 10
13.3125
 20
23.312
 30
0.0
 11
11.74954589293806
 21
23.312
 31
0.0
  0
CIRCLE
  5
4CB
330
1E
100
AcDbEntity
  8
0
100
AcDbCircle
 10
15.0625
 20
21.937
 30
0.0
 40
0.1405
  0
LINE
  5
4CC
330
1E
100
AcDbEntity
  8
0
100
AcDbLine
 10
11.62607889293805
 20
23.3125
 30
20.0
 11
8.207391000000001
 21
23.3125
 31
20.0
  0
LINE
  5
4CD
330
1E
100
AcDbEntity
  8
0
100
AcDbLine
 10
16.5625
 20
20.437
 30
20.0
 11
16.5625
 21
23.5625
 31
20.0
  0
ENDSEC
  0
SECTION
  2
OBJECTS
  0
DICTIONARY
  5
C
330
0
100
AcDbDictionary
281
     1
  3
ACAD_COLOR
350
4D3
  3
ACAD_GROUP
350
D
  3
ACAD_LAYOUT
350
19
  3
ACAD_MATERIAL
350
4D2
  3
ACAD_MLINESTYLE
350
16
  3
ACAD_PLOTSETTINGS
350
18
  3
ACAD_PLOTSTYLENAME
350
E
  3
ACAD_TABLESTYLE
350
4D4
  3
ACDBHEADERROUNDTRIPXREC
350
4E5
  3
AcDbVariableDictionary
350
4E0
  0
DICTIONARY
  5
4D3
102
{ACAD_REACTORS
330
C
102
}
330
C
100
AcDbDictionary
281
     1
  0
DICTIONARY
  5
D
102
{ACAD_REACTORS
330
C
102
}
330
C
100
AcDbDictionary
281
     1
  0
DICTIONARY
  5
19
102
{ACAD_REACTORS
330
C
102
}
330
C
100
AcDbDictionary
281
     1
  3
Layout1
350
1D
  3
Model
350
21
  0
DICTIONARY
  5
4D2
102
{ACAD_REACTORS
330
C
102
}
330
C
100
AcDbDictionary
281
     1
  0
DICTIONARY
  5
16
102
{ACAD_REACTORS
330
C
102
}
330
C
100
AcDbDictionary
281
     1
  3
Standard
350
17
  0
DICTIONARY
  5
18
102
{ACAD_REACTORS
330
C
102
}
330
C
100
AcDbDictionary
281
     1
  0
ACDBDICTIONARYWDFLT
  5
E
102
{ACAD_REACTORS
330
C
102
}
330
C
100
AcDbDictionary
281
     1
  3
Normal
350
F
100
AcDbDictionaryWithDefault
340
F
  0
DICTIONARY
  5
4D4
102
{ACAD_REACTORS
330
C
102
}
330
C
100
AcDbDictionary
281
     1
  3
Standard
350
4D5
  0
DICTIONARY
  5
4E5
102
{ACAD_REACTORS
330
C
102
}
330
C
100
AcDbDictionary
281
     1
  3
COLORDICT
350
4E6
  3
MATERIALDICT
350
4E7
  0
DICTIONARY
  5
4E0
102
{ACAD_REACTORS
330
C
102
}
330
C
100
AcDbDictionary
281
     1
  3
CTABLESTYLE
350
4E1
  0
LAYOUT
  5
1D
102
{ACAD_REACTORS
330
19
102
}
102
{ACAD_XDICTIONARY
360
4E8
102
}
330
19
100
AcDbPlotSettings
  1

  2
HP LaserJet 2100 Series PS
  4

  6

 40
0.0
 41
0.0
 42
0.0
 43
0.0
 44
0.0
 45
0.0
 46
0.0
 47
0.0
 48
0.0
 49
0.0
140
0.0
141
0.0
142
1.0
143
1.0
 70
   688
 72
     0
 73
     0
 74
     5
  7
monochrome.ctb
 75
    16
147
1.0
148
0.0
149
0.0
100
AcDbLayout
  1
Layout1
 70
     0
 71
     1
 10
0.0
 20
0.0
 11
12.0
 21
9.0
 12
0.0
 22
0.0
 32
0.0
 14
1.000000000000000E+20
 24
1.000000000000000E+20
 34
1.000000000000000E+20
 15
-1.000000000000000E+20
 25
-1.000000000000000E+20
 35
-1.000000000000000E+20
146
0.0
 13
0.0
 23
0.0
 33
0.0
 16
1.0
 26
0.0
 36
0.0
 17
0.0
 27
1.0
 37
0.0
 76
     0
330
1A
  0
LAYOUT
  5
21
102
{ACAD_REACTORS
330
19
102
}
102
{ACAD_XDICTIONARY
360
4EA
102
}
330
19
100
AcDbPlotSettings
  1

  2
HP LaserJet 2100 Series PS
  4

  6

 40
0.0
 41
0.0
 42
0.0
 43
0.0
 44
0.0
 45
0.0
 46
0.0
 47
0.0
 48
0.0
 49
0.0
140
0.0
141
0.0
142
1.0
143
1.0
 70
  1712
 72
     0
 73
     0
 74
     0
  7
monochrome.ctb
 75
     0
147
1.0
148
0.0
149
0.0
100
AcDbLayout
  1
Model
 70
     1
 71
     0
 10
0.0
 20
0.0
 11
12.0
 21
9.0
 12
0.0
 22
0.0
 32
0.0
 14
0.0
 24
0.0
 34
0.0
 15
0.0
 25
0.0
 35
0.0
146
0.0
 13
0.0
 23
0.0
 33
0.0
 16
1.0
 26
0.0
 36
0.0
 17
0.0
 27
1.0
 37
0.0
 76
     0
330
1E
  0
MLINESTYLE
  5
17
102
{ACAD_REACTORS
330
16
102
}
330
16
100
AcDbMlineStyle
  2
STANDARD
 70
     0
  3

 62
   256
 51
90.0
 52
90.0
 71
     2
 49
0.5
 62
   256
  6
BYLAYER
 49
-0.5
 62
   256
  6
BYLAYER
  0
ACDBPLACEHOLDER
  5
F
102
{ACAD_REACTORS
330
E
102
}
330
E
  0
ACAD_PROXY_OBJECT
  5
4D5
102
{ACAD_REACTORS
330
4D4
102
}
330
4D4
100
AcDbProxyObject
 90
      499
 91
      503
 95
   983063
 70
     0
 93
     1841
310
4214DD185B99185C9928B81E85EB51B8AE3F2E07A17AD46E2B8FC02B5E8DC0F42B1CFD028000000C1008070000C3001FDFF8000000C1003FBFF000000182007F7FE00000030400FEFFC00000060801FDFF8000000C1003FBFF00000018200000000000000681FA0B0000001820100E000186003FBFF000000182007F7FE000
310
00030400FEFFC00000060801FDFF8000000C1003FBFF000000182007F7FE000000304000AD7A3703D0AC73F4160000003040201C00030C007F7FE00000030400FEFFC00000060801FDFF8000000C1003FBFF000000182007F7FE00000030400FEFFC000000608000
340
11
340
11
340
11
 94
        0
  0
XRECORD
  5
4E6
102
{ACAD_REACTORS
330
4E5
102
}
330
4E5
100
AcDbXrecord
340
4D3
  0
XRECORD
  5
4E7
102
{ACAD_REACTORS
330
4E5
102
}
330
4E5
100
AcDbXrecord
340
4D2
  0
DICTIONARYVAR
  5
4E1
102
{ACAD_REACTORS
330
4E0
102
}
330
4E0
100
DictionaryVariables
280
     0
  1
STANDARD
  0
DICTIONARY
  5
4E8
330
1D
100
AcDbDictionary
280
     1
281
     1
  3
ACAD_XREC_ROUNDTRIP
360
4E9
  0
DICTIONARY
  5
4EA
330
21
100
AcDbDictionary
280
     1
281
     1
  3
ACAD_XREC_ROUNDTRIP
360
4EB
  0
XRECORD
  5
4E9
102
{ACAD_REACTORS
330
4E8
102
}
330
4E8
100
AcDbXrecord
102
SHADEPLOT
 70
     0
102
SHADEPLOTRESLEVEL
 70
     2
102
SHADEPLOTCUSTOMDPI
 70
   300
  0
XRECORD
  5
4EB
102
{ACAD_REACTORS
330
4EA
102
}
330
4EA
100
AcDbXrecord
102
SHADEPLOT
 70
     0
102
SHADEPLOTRESLEVEL
 70
     2
102
SHADEPLOTCUSTOMDPI
 70
   300
  0
ENDSEC
  0
EOF
