  0
SECTION
  2
HEADER
  9
$ACADVER
  1
AC1015
  9
$ACADMAINTVER
 70
     6
  9
$DWGCODEPAGE
  3
ANSI_1252
  9
$INSBASE
 10
0.0
 20
0.0
 30
0.0
  9
$EXTMIN
 10
-6.179650956273254
 20
0.0
 30
0.0
  9
$EXTMAX
 10
6.179650956273254
 20
7.760409185333044
 30
0.0
  9
$LIMMIN
 10
0.0
 20
0.0
  9
$LIMMAX
 10
17.4993
 20
13.3328
  9
$ORTHOMODE
 70
     1
  9
$REGENMODE
 70
     1
  9
$FILLMODE
 70
     1
  9
$QTEXTMODE
 70
     0
  9
$MIRRTEXT
 70
     1
  9
$LTSCALE
 40
0.5
  9
$ATTMODE
 70
     1
  9
$TEXTSIZE
 40
0.149994
  9
$TRACEWID
 40
0.05
  9
$TEXTSTYLE
  7
STANDARD
  9
$CLAYER
  8
0
  9
$CELTYPE
  6
ByLayer
  9
$CECOLOR
 62
   256
  9
$CELTSCALE
 40
1.0
  9
$DISPSILH
 70
     0
  9
$DIMSCALE
 40
1.6666
  9
$DIMASZ
 40
0.125
  9
$DIMEXO
 40
0.062
  9
$DIMDLI
 40
0.375
  9
$DIMRND
 40
0.0
  9
$DIMDLE
 40
0.0
  9
$DIMEXE
 40
0.08
  9
$DIMTP
 40
0.0
  9
$DIMTM
 40
0.0
  9
$DIMTXT
 40
0.09
  9
$DIMCEN
 40
-0.06
  9
$DIMTSZ
 40
0.0
  9
$DIMTOL
 70
     0
  9
$DIMLIM
 70
     0
  9
$DIMTIH
 70
     1
  9
$DIMTOH
 70
     1
  9
$DIMSE1
 70
     0
  9
$DIMSE2
 70
     0
  9
$DIMTAD
 70
     0
  9
$DIMZIN
 70
     0
  9
$DIMBLK
  1

  9
$DIMASO
 70
     0
  9
$DIMSHO
 70
     0
  9
$DIMPOST
  1

  9
$DIMAPOST
  1

  9
$DIMALT
 70
     0
  9
$DIMALTD
 70
     2
  9
$DIMALTF
 40
25.4
  9
$DIMLFAC
 40
1.0
  9
$DIMTOFL
 70
     0
  9
$DIMTVP
 40
0.0
  9
$DIMTIX
 70
     0
  9
$DIMSOXD
 70
     0
  9
$DIMSAH
 70
     0
  9
$DIMBLK1
  1

  9
$DIMBLK2
  1

  9
$DIMSTYLE
  2
Standard
  9
$DIMCLRD
 70
     0
  9
$DIMCLRE
 70
     0
  9
$DIMCLRT
 70
     0
  9
$DIMTFAC
 40
1.0
  9
$DIMGAP
 40
0.09
  9
$DIMJUST
 70
     0
  9
$DIMSD1
 70
     0
  9
$DIMSD2
 70
     0
  9
$DIMTOLJ
 70
     1
  9
$DIMTZIN
 70
     0
  9
$DIMALTZ
 70
     0
  9
$DIMALTTZ
 70
     0
  9
$DIMUPT
 70
     0
  9
$DIMDEC
 70
     4
  9
$DIMTDEC
 70
     4
  9
$DIMALTU
 70
     2
  9
$DIMALTTD
 70
     2
  9
$DIMTXSTY
  7
STANDARD
  9
$DIMAUNIT
 70
     0
  9
$DIMADEC
 70
     0
  9
$DIMALTRND
 40
0.0
  9
$DIMAZIN
 70
     0
  9
$DIMDSEP
 70
    46
  9
$DIMATFIT
 70
     3
  9
$DIMFRAC
 70
     0
  9
$DIMLDRBLK
  1

  9
$DIMLUNIT
 70
     2
  9
$DIMLWD
 70
    -2
  9
$DIMLWE
 70
    -2
  9
$DIMTMOVE
 70
     2
  9
$LUNITS
 70
     2
  9
$LUPREC
 70
     4
  9
$SKETCHINC
 40
0.1
  9
$FILLETRAD
 40
0.0
  9
$AUNITS
 70
     0
  9
$AUPREC
 70
     0
  9
$MENU
  1
qa
  9
$ELEVATION
 40
0.0
  9
$PELEVATION
 40
0.0
  9
$THICKNESS
 40
0.0
  9
$LIMCHECK
 70
     0
  9
$CHAMFERA
 40
0.0
  9
$CHAMFERB
 40
0.0
  9
$CHAMFERC
 40
0.0
  9
$CHAMFERD
 40
0.0
  9
$SKPOLY
 70
     0
  9
$TDCREATE
 40
2450353.720343287
  9
$TDUCREATE
 40
2450354.053676621
  9
$TDUPDATE
 40
2454181.730556632
  9
$TDUUPDATE
 40
2454182.063889965
  9
$TDINDWG
 40
0.0222811227
  9
$TDUSRTIMER
 40
0.0222811227
  9
$USRTIMER
 70
     1
  9
$ANGBASE
 50
0.0
  9
$ANGDIR
 70
     0
  9
$PDMODE
 70
     0
  9
$PDSIZE
 40
0.0
  9
$PLINEWID
 40
0.0
  9
$SPLFRAME
 70
     0
  9
$SPLINETYPE
 70
     6
  9
$SPLINESEGS
 70
     8
  9
$HANDSEED
  5
331
  9
$SURFTAB1
 70
     6
  9
$SURFTAB2
 70
     6
  9
$SURFTYPE
 70
     6
  9
$SURFU
 70
     6
  9
$SURFV
 70
     6
  9
$UCSBASE
  2

  9
$UCSNAME
  2

  9
$UCSORG
 10
0.0
 20
0.0
 30
0.0
  9
$UCSXDIR
 10
1.0
 20
0.0
 30
0.0
  9
$UCSYDIR
 10
0.0
 20
1.0
 30
0.0
  9
$UCSORTHOREF
  2

  9
$UCSORTHOVIEW
 70
     0
  9
$UCSORGTOP
 10
0.0
 20
0.0
 30
0.0
  9
$UCSORGBOTTOM
 10
0.0
 20
0.0
 30
0.0
  9
$UCSORGLEFT
 10
0.0
 20
0.0
 30
0.0
  9
$UCSORGRIGHT
 10
0.0
 20
0.0
 30
0.0
  9
$UCSORGFRONT
 10
0.0
 20
0.0
 30
0.0
  9
$UCSORGBACK
 10
0.0
 20
0.0
 30
0.0
  9
$PUCSBASE
  2

  9
$PUCSNAME
  2

  9
$PUCSORG
 10
0.0
 20
0.0
 30
0.0
  9
$PUCSXDIR
 10
1.0
 20
0.0
 30
0.0
  9
$PUCSYDIR
 10
0.0
 20
1.0
 30
0.0
  9
$PUCSORTHOREF
  2

  9
$PUCSORTHOVIEW
 70
     0
  9
$PUCSORGTOP
 10
0.0
 20
0.0
 30
0.0
  9
$PUCSORGBOTTOM
 10
0.0
 20
0.0
 30
0.0
  9
$PUCSORGLEFT
 10
0.0
 20
0.0
 30
0.0
  9
$PUCSORGRIGHT
 10
0.0
 20
0.0
 30
0.0
  9
$PUCSORGFRONT
 10
0.0
 20
0.0
 30
0.0
  9
$PUCSORGBACK
 10
0.0
 20
0.0
 30
0.0
  9
$USERI1
 70
     0
  9
$USERI2
 70
     0
  9
$USERI3
 70
     0
  9
$USERI4
 70
     0
  9
$USERI5
 70
     0
  9
$USERR1
 40
0.0
  9
$USERR2
 40
0.0
  9
$USERR3
 40
0.0
  9
$USERR4
 40
0.0
  9
$USERR5
 40
0.0
  9
$WORLDVIEW
 70
     1
  9
$SHADEDGE
 70
     3
  9
$SHADEDIF
 70
    70
  9
$TILEMODE
 70
     1
  9
$MAXACTVP
 70
    16
  9
$PINSBASE
 10
0.0
 20
0.0
 30
0.0
  9
$PLIMCHECK
 70
     0
  9
$PEXTMIN
 10
1.000000000000000E+20
 20
1.000000000000000E+20
 30
1.000000000000000E+20
  9
$PEXTMAX
 10
-1.000000000000000E+20
 20
-1.000000000000000E+20
 30
-1.000000000000000E+20
  9
$PLIMMIN
 10
0.0
 20
0.0
  9
$PLIMMAX
 10
12.0
 20
9.0
  9
$UNITMODE
 70
     0
  9
$VISRETAIN
 70
     0
  9
$PLINEGEN
 70
     0
  9
$PSLTSCALE
 70
     0
  9
$TREEDEPTH
 70
  3020
  9
$CMLSTYLE
  2
Standard
  9
$CMLJUST
 70
     0
  9
$CMLSCALE
 40
1.0
  9
$PROXYGRAPHICS
 70
     1
  9
$MEASUREMENT
 70
     0
  9
$CELWEIGHT
370
    -1
  9
$ENDCAPS
280
     0
  9
$JOINSTYLE
280
     0
  9
$LWDISPLAY
290
     0
  9
$INSUNITS
 70
     0
  9
$HYPERLINKBASE
  1

  9
$STYLESHEET
  1

  9
$XEDIT
290
     1
  9
$CEPSNTYPE
380
     0
  9
$PSTYLEMODE
290
     1
  9
$FINGERPRINTGUID
  2
{02D9E567-E83E-465D-97B8-507835F70530}
  9
$VERSIONGUID
  2
{77DF06F8-9D4D-415B-ADBE-B940F17E9CDB}
  9
$EXTNAMES
290
     1
  9
$PSVPSCALE
 40
0.0
  9
$OLESTARTUP
290
     0
  0
ENDSEC
  0
SECTION
  2
CLASSES
  0
CLASS
  1
ACDBDICTIONARYWDFLT
  2
AcDbDictionaryWithDefault
  3
AutoCAD 2000
 90
        0
280
     0
281
     0
  0
CLASS
  1
ACDBPLACEHOLDER
  2
AcDbPlaceHolder
  3
ObjectDBX Classes
 90
        0
280
     0
281
     0
  0
CLASS
  1
LAYOUT
  2
AcDbLayout
  3
ObjectDBX Classes
 90
        0
280
     0
281
     0
  0
CLASS
  1
DICTIONARYVAR
  2
AcDbDictionaryVar
  3
AutoCAD 2000
 90
        0
280
     0
281
     0
  0
CLASS
  1
LONG_TRANSACTION
  2
AcDbLongTransaction
  3
ObjectDBX Classes
 90
   -65536
280
     1
281
     0
  0
CLASS
  1
LWPOLYLINE
  2
AcDbPolyline
  3
AutoCAD 2000
 90
        0
280
     0
281
     1
  0
CLASS
  1
HATCH
  2
AcDbHatch
  3
AutoCAD 2000
 90
        0
280
     0
281
     1
  0
CLASS
  1
XRECORD
  2
AcDbXrecord
  3
AutoCAD 2000
 90
        0
280
     0
281
     0
  0
CLASS
  1
LONG_TRANSACTION
  2
AcDbLongTransaction
  3
ObjectDBX Classes
 90
   -65536
280
     1
281
     0
  0
CLASS
  1
LWPOLYLINE
  2
AcDbPolyline
  3
AutoCAD 2000
 90
        0
280
     0
281
     1
  0
CLASS
  1
HATCH
  2
AcDbHatch
  3
AutoCAD 2000
 90
        0
280
     0
281
     1
  0
CLASS
  1
XRECORD
  2
AcDbXrecord
  3
AutoCAD 2000
 90
        0
280
     0
281
     0
  0
CLASS
  1
LONG_TRANSACTION
  2
AcDbLongTransaction
  3
ObjectDBX Classes
 90
   -65536
280
     1
281
     0
  0
CLASS
  1
LWPOLYLINE
  2
AcDbPolyline
  3
AutoCAD 2000
 90
        0
280
     0
281
     1
  0
CLASS
  1
HATCH
  2
AcDbHatch
  3
AutoCAD 2000
 90
        0
280
     0
281
     1
  0
CLASS
  1
XRECORD
  2
AcDbXrecord
  3
AutoCAD 2000
 90
        0
280
     0
281
     0
  0
CLASS
  1
LONG_TRANSACTION
  2
AcDbLongTransaction
  3
ObjectDBX Classes
 90
   -65536
280
     1
281
     0
  0
CLASS
  1
LWPOLYLINE
  2
AcDbPolyline
  3
AutoCAD 2000
 90
        0
280
     0
281
     1
  0
CLASS
  1
HATCH
  2
AcDbHatch
  3
AutoCAD 2000
 90
        0
280
     0
281
     1
  0
CLASS
  1
XRECORD
  2
AcDbXrecord
  3
AutoCAD 2000
 90
        0
280
     0
281
     0
  0
CLASS
  1
TABLESTYLE
  2
AcDbTableStyle
  3
ObjectDBX Classes
 90
     2047
280
     1
281
     0
  0
CLASS
  1
SORTENTSTABLE
  2
AcDbSortentsTable
  3
AutoCAD 2000
 90
        0
280
     0
281
     0
  0
ENDSEC
  0
SECTION
  2
TABLES
  0
TABLE
  2
VPORT
  5
1D
330
0
100
AcDbSymbolTable
 70
     2
  0
VPORT
  5
324
330
1D
100
AcDbSymbolTableRecord
100
AcDbViewportTableRecord
  2
*Active
 70
     0
 10
0.0
 20
0.0
 11
1.0
 21
1.0
 12
3.504012237675525
 22
5.88508511598306
 13
0.0
 23
0.0
 14
0.063
 24
0.063
 15
0.25
 25
0.25
 16
0.0
 26
0.0
 36
1.0
 17
0.0
 27
0.0
 37
0.0
 40
14.97670005755205
 41
1.814583333333333
 42
50.0
 43
0.0
 44
0.0
 50
0.0
 51
0.0
 71
     0
 72
   100
 73
     1
 74
     0
 75
     0
 76
     0
 77
     0
 78
     0
281
     0
 65
     1
110
0.0
120
0.0
130
0.0
111
1.0
121
0.0
131
0.0
112
0.0
122
1.0
132
0.0
 79
     0
146
0.0
  0
ENDTAB
  0
TABLE
  2
LTYPE
  5
18
330
0
100
AcDbSymbolTable
 70
     1
  0
LTYPE
  5
19
330
18
100
AcDbSymbolTableRecord
100
AcDbLinetypeTableRecord
  2
ByBlock
 70
     0
  3

 72
    65
 73
     0
 40
0.0
  0
LTYPE
  5
1A
330
18
100
AcDbSymbolTableRecord
100
AcDbLinetypeTableRecord
  2
ByLayer
 70
     0
  3

 72
    65
 73
     0
 40
0.0
  0
LTYPE
  5
A
330
18
100
AcDbSymbolTableRecord
100
AcDbLinetypeTableRecord
  2
CONTINUOUS
 70
     0
  3
Solid line
 72
    65
 73
     0
 40
0.0
  0
ENDTAB
  0
TABLE
  2
LAYER
  5
14
330
0
100
AcDbSymbolTable
 70
     2
  0
LAYER
  5
6
330
14
100
AcDbSymbolTableRecord
100
AcDbLayerTableRecord
  2
0
 70
     0
 62
     7
  6
CONTINUOUS
370
    -3
390
7
  0
ENDTAB
  0
TABLE
  2
STYLE
  5
15
330
0
100
AcDbSymbolTable
 70
     1
  0
STYLE
  5
16
330
15
100
AcDbSymbolTableRecord
100
AcDbTextStyleTableRecord
  2
STANDARD
 70
     0
 40
0.0
 41
1.0
 50
0.0
 71
     0
 42
0.149994
  3
TXT
  4

  0
ENDTAB
  0
TABLE
  2
VIEW
  5
1B
330
0
100
AcDbSymbolTable
 70
     0
  0
ENDTAB
  0
TABLE
  2
UCS
  5
1C
330
0
100
AcDbSymbolTable
 70
     0
  0
ENDTAB
  0
TABLE
  2
APPID
  5
1F
330
0
100
AcDbSymbolTable
 70
     1
  0
APPID
  5
20
330
1F
100
AcDbSymbolTableRecord
100
AcDbRegAppTableRecord
  2
ACAD
 70
     0
  0
ENDTAB
  0
TABLE
  2
DIMSTYLE
  5
21
330
0
100
AcDbSymbolTable
 70
     1
100
AcDbDimStyleTable
  0
DIMSTYLE
105
28
330
21
100
AcDbSymbolTableRecord
100
AcDbDimStyleTableRecord
  2
Standard
 70
     0
  3

  4

340
16
  0
ENDTAB
  0
TABLE
  2
BLOCK_RECORD
  5
1
330
0
100
AcDbSymbolTable
 70
     1
  0
BLOCK_RECORD
  5
2
102
{ACAD_XDICTIONARY
360
3
102
}
330
1
100
AcDbSymbolTableRecord
100
AcDbBlockTableRecord
  2
*Model_Space
340
C
  0
BLOCK_RECORD
  5
E
330
1
100
AcDbSymbolTableRecord
100
AcDbBlockTableRecord
  2
*Paper_Space
340
13
  0
ENDTAB
  0
ENDSEC
  0
SECTION
  2
BLOCKS
  0
BLOCK
  5
5
330
2
100
AcDbEntity
  8
0
100
AcDbBlockBegin
  2
*Model_Space
 70
     0
 10
0.0
 20
0.0
 30
0.0
  3
*Model_Space
  1

  4

  0
ENDBLK
  5
B
330
2
100
AcDbEntity
  8
0
100
AcDbBlockEnd
  0
BLOCK
  5
11
330
E
100
AcDbEntity
 67
     1
  8
0
100
AcDbBlockBegin
  2
*Paper_Space
 70
     0
 10
0.0
 20
0.0
 30
0.0
  3
*Paper_Space
  1

  4

  0
ENDBLK
  5
12
330
E
100
AcDbEntity
 67
     1
  8
0
100
AcDbBlockEnd
  0
ENDSEC
  0
SECTION
  2
ENTITIES
  0
LINE
  5
136
330
2
100
AcDbEntity
  8
0
100
AcDbLine
 10
-2.65625
 20
2.48407287525381
 30
0.0
 11
-0.1721771247461916
 21
0.0
 31
0.0
  0
LINE
  5
137
330
2
100
AcDbEntity
  8
0
100
AcDbLine
 10
2.65625
 20
2.48407287525381
 30
0.0
 11
0.1721771247461916
 21
0.0
 31
0.0
  0
LINE
  5
138
330
2
100
AcDbEntity
  8
0
100
AcDbLine
 10
-0.1721771247461916
 20
0.0
 30
0.0
 11
0.1721771247461916
 21
0.0
 31
0.0
  0
CIRCLE
  5
139
330
2
100
AcDbEntity
  8
0
100
AcDbCircle
 10
0.0
 20
0.25
 30
0.0
 40
0.078
  0
LINE
  5
13A
330
2
100
AcDbEntity
  8
0
100
AcDbLine
 10
-1.01558211447918
 20
3.099075621718074
 30
0.0
 11
-1.503485793497896
 21
2.611171942699354
 31
0.0
  0
ARC
  5
13B
330
2
100
AcDbEntity
  8
0
100
AcDbCircle
 10
-1.12695143251606
 20
3.210444939754956
 30
0.0
 40
0.155
100
AcDbArc
 50
45.0
 51
135.0
  0
LINE
  5
13C
330
2
100
AcDbEntity
  8
0
100
AcDbLine
 10
-1.01558211447918
 20
3.806182402904621
 30
0.0
 11
-2.210592574684444
 21
2.611171942699357
 31
0.0
  0
ARC
  5
13D
330
2
100
AcDbEntity
  8
0
100
AcDbCircle
 10
-1.12695143251606
 20
3.917551720941503
 30
0.0
 40
0.155
100
AcDbArc
 50
45.0
 51
135.0
  0
LINE
  5
13E
330
2
100
AcDbEntity
  8
0
100
AcDbLine
 10
-0.8081961761308385
 20
4.676480948615353
 30
0.0
 11
-2.65625
 21
2.828427124746188
 31
0.0
  0
LINE
  5
14D
330
2
100
AcDbEntity
  8
0
100
AcDbLine
 10
-1.724456662618694
 20
2.832142811820152
 30
0.0
 11
-1.480504823109333
 21
3.076094651329512
 31
0.0
  0
LINE
  5
14E
330
2
100
AcDbEntity
  8
0
100
AcDbLine
 10
-2.431563443805239
 20
2.832142811820152
 30
0.0
 11
-1.236552983599975
 21
4.027153272025418
 31
0.0
  0
CIRCLE
  5
14F
330
2
100
AcDbEntity
  8
0
100
AcDbCircle
 10
-1.71875
 20
2.0
 30
0.0
 40
0.078
  0
LINE
  5
150
330
2
100
AcDbEntity
  8
0
100
AcDbLine
 10
-2.65625
 20
2.828427124746188
 30
0.0
 11
-2.65625
 21
2.48407287525381
 31
0.0
  0
ARC
  5
151
330
2
100
AcDbEntity
  8
0
100
AcDbCircle
 10
-2.321961892721324
 20
2.722541260736238
 30
0.0
 40
0.155
100
AcDbArc
 50
135.0
 51
225.0000000000001
  0
ARC
  5
152
330
2
100
AcDbEntity
  8
0
100
AcDbCircle
 10
-2.32019412576836
 20
2.720773493783273
 30
0.0
 40
0.155
100
AcDbArc
 50
225.0
 51
314.9999999999999
  0
LINE
  5
153
330
2
100
AcDbEntity
  8
0
100
AcDbLine
 10
-2.429795676852274
 20
2.611171942699357
 30
0.0
 11
-2.431563443805239
 21
2.612939709652324
 31
0.0
  0
ARC
  5
15F
330
2
100
AcDbEntity
  8
0
100
AcDbCircle
 10
-1.61308734458181
 20
2.72077349378327
 30
0.0
 40
0.155
100
AcDbArc
 50
225.0
 51
314.9999999999999
  0
ARC
  5
160
330
2
100
AcDbEntity
  8
0
100
AcDbCircle
 10
-1.61485511153478
 20
2.722541260736236
 30
0.0
 40
0.155
100
AcDbArc
 50
135.0
 51
224.9999999999998
  0
LINE
  5
161
330
2
100
AcDbEntity
  8
0
100
AcDbLine
 10
-1.722688895665725
 20
2.611171942699354
 30
0.0
 11
-1.724456662618694
 21
2.612939709652322
 31
0.0
  0
LINE
  5
162
330
2
100
AcDbEntity
  8
0
100
AcDbLine
 10
-1.480504823109333
 20
3.076094651329512
 30
0.0
 11
-1.236552983599975
 21
3.32004649083887
 31
0.0
  0
LINE
  5
163
330
2
100
AcDbEntity
  8
0
100
AcDbLine
 10
-0.84375
 20
4.659980948615353
 30
0.0
 11
-0.84375
 21
5.3125
 31
0.0
  0
LINE
  5
164
330
2
100
AcDbEntity
  8
0
100
AcDbLine
 10
-0.78125
 20
5.3125
 30
0.0
 11
-0.78125
 21
4.741534772484515
 31
0.0
  0
LINE
  5
165
330
2
100
AcDbEntity
  8
0
100
AcDbLine
 10
0.78125
 20
5.3125
 30
0.0
 11
0.78125
 21
4.741534772484519
 31
0.0
  0
LINE
  5
166
330
2
100
AcDbEntity
  8
0
100
AcDbLine
 10
0.84375
 20
4.659980948615353
 30
0.0
 11
0.84375
 21
5.3125
 31
0.0
  0
LINE
  5
167
330
2
100
AcDbEntity
  8
0
100
AcDbLine
 10
0.8081961761308385
 20
4.676480948615357
 30
0.0
 11
2.65625
 21
2.828427124746188
 31
0.0
  0
LINE
  5
168
330
2
100
AcDbEntity
  8
0
100
AcDbLine
 10
-0.78125
 20
2.5625
 30
0.0
 11
-0.78125
 21
4.741534772484515
 31
0.0
  0
LINE
  5
169
330
2
100
AcDbEntity
  8
0
100
AcDbLine
 10
-0.84375
 20
2.5625
 30
0.0
 11
-0.84375
 21
4.640927124746188
 31
0.0
  0
LINE
  5
16A
330
2
100
AcDbEntity
  8
0
100
AcDbLine
 10
1.01558211447918
 20
3.806182402904621
 30
0.0
 11
2.210592574684445
 21
2.611171942699357
 31
0.0
  0
LINE
  5
16B
330
2
100
AcDbEntity
  8
0
100
AcDbLine
 10
2.431563443805239
 20
2.832142811820152
 30
0.0
 11
1.236552983599975
 21
4.027153272025418
 31
0.0
  0
LINE
  5
16C
330
2
100
AcDbEntity
  8
0
100
AcDbLine
 10
1.01558211447918
 20
3.099075621718074
 30
0.0
 11
1.503485793497896
 21
2.611171942699354
 31
0.0
  0
LINE
  5
16D
330
2
100
AcDbEntity
  8
0
100
AcDbLine
 10
1.724456662618694
 20
2.832142811820152
 30
0.0
 11
1.480504823109333
 21
3.076094651329512
 31
0.0
  0
LINE
  5
16E
330
2
100
AcDbEntity
  8
0
100
AcDbLine
 10
0.84375
 20
2.5625
 30
0.0
 11
0.84375
 21
4.640927124746188
 31
0.0
  0
LINE
  5
16F
330
2
100
AcDbEntity
  8
0
100
AcDbLine
 10
0.78125
 20
2.5625
 30
0.0
 11
0.78125
 21
4.741534772484519
 31
0.0
  0
LINE
  5
170
330
2
100
AcDbEntity
  8
0
100
AcDbLine
 10
0.8462500000000013
 20
2.4375
 30
0.0
 11
0.0
 21
2.4375
 31
0.0
  0
CIRCLE
  5
1A9
330
2
100
AcDbEntity
  8
0
100
AcDbCircle
 10
0.0
 20
1.75
 30
0.0
 40
0.078
  0
LINE
  5
1AA
330
2
100
AcDbEntity
  8
0
100
AcDbLine
 10
-0.8462500000000013
 20
2.4375
 30
0.0
 11
0.0
 21
2.4375
 31
0.0
  0
ARC
  5
1AB
330
2
100
AcDbEntity
  8
0
100
AcDbCircle
 10
-0.8462500000000013
 20
2.497499999999999
 30
0.0
 40
0.06
100
AcDbArc
 50
180.0
 51
269.9999999999999
  0
LINE
  5
1C8
330
2
100
AcDbEntity
  8
0
100
AcDbLine
 10
-0.90625
 20
2.497499999999999
 30
0.0
 11
-0.90625
 21
2.502500000000001
 31
0.0
  0
LINE
  5
1C9
330
2
100
AcDbEntity
  8
0
100
AcDbLine
 10
-0.8462500000000013
 20
2.5625
 30
0.0
 11
-0.78125
 21
2.5625
 31
0.0
  0
ARC
  5
1CA
330
2
100
AcDbEntity
  8
0
100
AcDbCircle
 10
-0.8462500000000013
 20
2.502500000000001
 30
0.0
 40
0.06
100
AcDbArc
 50
90.0
 51
179.9999999999999
  0
CIRCLE
  5
1CB
330
2
100
AcDbEntity
  8
0
100
AcDbCircle
 10
1.71875
 20
2.0
 30
0.0
 40
0.078
  0
ARC
  5
1CC
330
2
100
AcDbEntity
  8
0
100
AcDbCircle
 10
1.61308734458181
 20
2.72077349378327
 30
0.0
 40
0.155
100
AcDbArc
 50
225.0000000000001
 51
315.0
  0
ARC
  5
1CD
330
2
100
AcDbEntity
  8
0
100
AcDbCircle
 10
0.8462500000000013
 20
2.497499999999999
 30
0.0
 40
0.06
100
AcDbArc
 50
270.0000000000001
 51
0.0
  0
ARC
  5
1CE
330
2
100
AcDbEntity
  8
0
100
AcDbCircle
 10
0.8462500000000013
 20
2.502500000000001
 30
0.0
 40
0.06
100
AcDbArc
 50
0.0000000000000509
 51
90.0
  0
LINE
  5
1CF
330
2
100
AcDbEntity
  8
0
100
AcDbLine
 10
0.8462500000000013
 20
2.5625
 30
0.0
 11
0.78125
 21
2.5625
 31
0.0
  0
LINE
  5
1D0
330
2
100
AcDbEntity
  8
0
100
AcDbLine
 10
0.90625
 20
2.497499999999999
 30
0.0
 11
0.90625
 21
2.502500000000001
 31
0.0
  0
ARC
  5
1D1
330
2
100
AcDbEntity
  8
0
100
AcDbCircle
 10
1.614855111534779
 20
2.722541260736236
 30
0.0
 40
0.155
100
AcDbArc
 50
315.0000000000002
 51
45.0
  0
LINE
  5
1D2
330
2
100
AcDbEntity
  8
0
100
AcDbLine
 10
1.722688895665725
 20
2.611171942699354
 30
0.0
 11
1.724456662618694
 21
2.612939709652322
 31
0.0
  0
ARC
  5
1D3
330
2
100
AcDbEntity
  8
0
100
AcDbCircle
 10
2.321961892721324
 20
2.722541260736238
 30
0.0
 40
0.155
100
AcDbArc
 50
314.9999999999999
 51
45.0
  0
ARC
  5
1D4
330
2
100
AcDbEntity
  8
0
100
AcDbCircle
 10
2.32019412576836
 20
2.720773493783273
 30
0.0
 40
0.155
100
AcDbArc
 50
225.0000000000001
 51
315.0
  0
LINE
  5
1D5
330
2
100
AcDbEntity
  8
0
100
AcDbLine
 10
2.429795676852274
 20
2.611171942699357
 30
0.0
 11
2.431563443805239
 21
2.612939709652324
 31
0.0
  0
ARC
  5
1D6
330
2
100
AcDbEntity
  8
0
100
AcDbCircle
 10
-1.125183665563093
 20
3.915783953988536
 30
0.0
 40
0.155
100
AcDbArc
 50
315.0
 51
45.0
  0
ARC
  5
1D7
330
2
100
AcDbEntity
  8
0
100
AcDbCircle
 10
-1.125183665563093
 20
3.208677172801988
 30
0.0
 40
0.155
100
AcDbArc
 50
315.0
 51
45.0
  0
LINE
  5
1D8
330
2
100
AcDbEntity
  8
0
100
AcDbLine
 10
-1.017349881432146
 20
3.320046490838871
 30
0.0
 11
-1.015582114479178
 21
3.318278723885904
 31
0.0
  0
LINE
  5
1D9
330
2
100
AcDbEntity
  8
0
100
AcDbLine
 10
-1.017349881432146
 20
4.027153272025418
 30
0.0
 11
-1.015582114479178
 21
4.025385505072451
 31
0.0
  0
ARC
  5
1DA
330
2
100
AcDbEntity
  8
0
100
AcDbCircle
 10
-0.8897499999999994
 20
4.659980948615353
 30
0.0
 40
0.046
100
AcDbArc
 50
315.0
 51
0.0
  0
ARC
  5
1DB
330
2
100
AcDbEntity
  8
0
100
AcDbCircle
 10
-0.8732499999999988
 20
4.741534772484515
 30
0.0
 40
0.092
100
AcDbArc
 50
315.0000000000001
 51
0.0
  0
ARC
  5
1DC
330
2
100
AcDbEntity
  8
0
100
AcDbCircle
 10
1.125183665563093
 20
3.915783953988536
 30
0.0
 40
0.155
100
AcDbArc
 50
135.0
 51
225.0000000000001
  0
ARC
  5
1DD
330
2
100
AcDbEntity
  8
0
100
AcDbCircle
 10
1.12695143251606
 20
3.210444939754956
 30
0.0
 40
0.155
100
AcDbArc
 50
45.0
 51
135.0
  0
ARC
  5
1DE
330
2
100
AcDbEntity
  8
0
100
AcDbCircle
 10
1.125183665563093
 20
3.208677172801988
 30
0.0
 40
0.155
100
AcDbArc
 50
135.0
 51
225.0000000000001
  0
LINE
  5
1DF
330
2
100
AcDbEntity
  8
0
100
AcDbLine
 10
1.017349881432146
 20
3.320046490838871
 30
0.0
 11
1.015582114479178
 21
3.318278723885904
 31
0.0
  0
LINE
  5
1E0
330
2
100
AcDbEntity
  8
0
100
AcDbLine
 10
1.480504823109333
 20
3.076094651329512
 30
0.0
 11
1.236552983599975
 21
3.32004649083887
 31
0.0
  0
ARC
  5
1E1
330
2
100
AcDbEntity
  8
0
100
AcDbCircle
 10
1.12695143251606
 20
3.917551720941503
 30
0.0
 40
0.155
100
AcDbArc
 50
45.0
 51
135.0
  0
LINE
  5
1E2
330
2
100
AcDbEntity
  8
0
100
AcDbLine
 10
1.017349881432146
 20
4.027153272025418
 30
0.0
 11
1.015582114479178
 21
4.025385505072451
 31
0.0
  0
ARC
  5
1E3
330
2
100
AcDbEntity
  8
0
100
AcDbCircle
 10
0.8897500000000012
 20
4.659980948615353
 30
0.0
 40
0.046
100
AcDbArc
 50
180.0
 51
225.0
  0
ARC
  5
1E4
330
2
100
AcDbEntity
  8
0
100
AcDbCircle
 10
0.8732500000000005
 20
4.741534772484519
 30
0.0
 40
0.092
100
AcDbArc
 50
180.0
 51
224.9999999999999
  0
LINE
  5
1E5
330
2
100
AcDbEntity
  8
0
100
AcDbLine
 10
2.65625
 20
2.828427124746188
 30
0.0
 11
2.65625
 21
2.48407287525381
 31
0.0
  0
LINE
  5
1E6
330
2
100
AcDbEntity
  8
0
100
AcDbLine
 10
-0.84375
 20
5.3125
 30
0.0
 11
-0.78125
 21
5.3125
 31
0.0
  0
LINE
  5
1E7
330
2
100
AcDbEntity
  8
0
100
AcDbLine
 10
0.84375
 20
5.3125
 30
0.0
 11
0.78125
 21
5.3125
 31
0.0
  0
LINE
  5
1E8
330
2
100
AcDbEntity
  8
0
100
AcDbLine
 10
6.116258599480023
 20
4.625
 30
0.0
 11
5.444685724226211
 21
5.3125
 31
0.0
  0
LINE
  5
1E9
330
2
100
AcDbEntity
  8
0
100
AcDbLine
 10
5.241258599480023
 20
5.3125
 30
0.0
 11
5.241258599480023
 21
2.5625
 31
0.0
  0
LINE
  5
1EA
330
2
100
AcDbEntity
  8
0
100
AcDbLine
 10
6.178758599480023
 20
2.827272675074127
 30
0.0
 11
6.178758599480023
 21
3.820711532045859
 31
0.0
  0
LINE
  5
1EB
330
2
100
AcDbEntity
  8
0
100
AcDbLine
 10
5.241258599480023
 20
2.5625
 30
0.0
 11
6.053758599480023
 21
2.5625
 31
0.0
  0
LINE
  5
1EC
330
2
100
AcDbEntity
  8
0
100
AcDbLine
 10
6.116258599480023
 20
2.5625
 30
0.0
 11
6.175175699497462
 21
2.798168400069766
 31
0.0
  0
ARC
  5
1ED
330
2
100
AcDbEntity
  8
0
100
AcDbCircle
 10
6.058758599480026
 20
2.827272675074127
 30
0.0
 40
0.12
100
AcDbArc
 50
345.9637565320737
 51
0.000000000000007
  0
CIRCLE
  5
1F1
330
2
100
AcDbEntity
  8
0
100
AcDbCircle
 10
5.553758599480023
 20
3.1875
 30
0.0
 40
0.078
  0
CIRCLE
  5
1F2
330
2
100
AcDbEntity
  8
0
100
AcDbCircle
 10
5.553758599480023
 20
3.875
 30
0.0
 40
0.078
  0
CIRCLE
  5
1F3
330
2
100
AcDbEntity
  8
0
100
AcDbCircle
 10
5.553758599480023
 20
4.59375
 30
0.0
 40
0.078
  0
LINE
  5
1F7
330
2
100
AcDbEntity
  8
0
100
AcDbLine
 10
6.116258599480023
 20
4.085484207119986
 30
0.0
 11
6.175175699497462
 21
3.849815807050218
 31
0.0
  0
ARC
  5
1F8
330
2
100
AcDbEntity
  8
0
100
AcDbCircle
 10
6.058758599480026
 20
3.820711532045859
 30
0.0
 40
0.12
100
AcDbArc
 50
0.0000000000000579
 51
14.03624346792629
  0
LINE
  5
1F9
330
2
100
AcDbEntity
  8
0
100
AcDbLine
 10
5.241258599480023
 20
5.3125
 30
0.0
 11
5.444685724226211
 21
5.3125
 31
0.0
  0
LINE
  5
1FA
330
2
100
AcDbEntity
  8
0
100
AcDbLine
 10
6.053758599480023
 20
0.0
 30
0.0
 11
6.116258599480023
 21
0.0
 31
0.0
  0
LINE
  5
1FB
330
2
100
AcDbEntity
  8
0
100
AcDbLine
 10
6.053758599480023
 20
4.6875
 30
0.0
 11
6.053758599480023
 21
0.0
 31
0.0
  0
LINE
  5
1FC
330
2
100
AcDbEntity
  8
0
100
AcDbLine
 10
6.116258599480023
 20
0.0
 30
0.0
 11
6.116258599480023
 21
4.625
 31
0.0
  0
LINE
  5
2F2
330
2
100
AcDbEntity
  8
0
100
AcDbLine
 10
-0.84375
 20
7.697909185333044
 30
0.0
 11
-2.65625
 21
7.697909185333044
 31
0.0
  0
LINE
  5
2F3
330
2
100
AcDbEntity
  8
0
100
AcDbLine
 10
-0.78125
 20
7.760409185333044
 30
0.0
 11
-2.65625
 21
7.760409185333042
 31
0.0
  0
LINE
  5
2F4
330
2
100
AcDbEntity
  8
0
100
AcDbLine
 10
-2.2121892176472
 20
7.635409185333044
 30
0.0
 11
-1.234956340637226
 21
7.635409185333044
 31
0.0
  0
LINE
  5
2F5
330
2
100
AcDbEntity
  8
0
100
AcDbLine
 10
-2.65625
 20
7.760409185333042
 30
0.0
 11
-2.65625
 21
7.697909185333044
 31
0.0
  0
LINE
  5
2F6
330
2
100
AcDbEntity
  8
0
100
AcDbLine
 10
-2.476961892721327
 20
7.697909185333044
 30
0.0
 11
-2.241293492651561
 21
7.638992085315605
 31
0.0
  0
ARC
  5
2F7
330
2
100
AcDbEntity
  8
0
100
AcDbCircle
 10
-2.2121892176472
 20
7.755409185333042
 30
0.0
 40
0.12
100
AcDbArc
 50
255.9637565320738
 51
270.0
  0
LINE
  5
2F8
330
2
100
AcDbEntity
  8
0
100
AcDbLine
 10
2.2121892176472
 20
7.635409185333044
 30
0.0
 11
1.234956340637226
 21
7.635409185333044
 31
0.0
  0
LINE
  5
2F9
330
2
100
AcDbEntity
  8
0
100
AcDbLine
 10
2.656249999999996
 20
7.697909185333042
 30
0.0
 11
0.84375
 21
7.697909185333042
 31
0.0
  0
LINE
  5
2FA
330
2
100
AcDbEntity
  8
0
100
AcDbLine
 10
2.656249999999996
 20
7.760409185333042
 30
0.0
 11
0.78125
 21
7.760409185333042
 31
0.0
  0
LINE
  5
2FB
330
2
100
AcDbEntity
  8
0
100
AcDbLine
 10
-0.84375
 20
7.697909185333044
 30
0.0
 11
-0.84375
 21
6.885409185333044
 31
0.0
  0
LINE
  5
2FC
330
2
100
AcDbEntity
  8
0
100
AcDbLine
 10
-0.78125
 20
7.760409185333044
 30
0.0
 11
-0.78125
 21
6.885409185333042
 31
0.0
  0
LINE
  5
2FD
330
2
100
AcDbEntity
  8
0
100
AcDbLine
 10
0.78125
 20
7.760409185333042
 30
0.0
 11
0.78125
 21
6.885409185333044
 31
0.0
  0
LINE
  5
2FE
330
2
100
AcDbEntity
  8
0
100
AcDbLine
 10
0.84375
 20
7.697909185333042
 30
0.0
 11
0.84375
 21
6.885409185333044
 31
0.0
  0
LINE
  5
2FF
330
2
100
AcDbEntity
  8
0
100
AcDbLine
 10
0.78125
 20
7.760409185333042
 30
0.0
 11
-0.78125
 21
7.760409185333042
 31
0.0
  0
LINE
  5
300
330
2
100
AcDbEntity
  8
0
100
AcDbLine
 10
-0.78125
 20
7.697909185333044
 30
0.0
 11
0.78125
 21
7.697909185333046
 31
0.0
  0
LINE
  5
301
330
2
100
AcDbEntity
  8
0
100
AcDbLine
 10
-0.9701836655630984
 20
7.697909185333044
 30
0.0
 11
-1.205852065632868
 21
7.638992085315605
 31
0.0
  0
ARC
  5
302
330
2
100
AcDbEntity
  8
0
100
AcDbCircle
 10
-1.234956340637226
 20
7.755409185333042
 30
0.0
 40
0.12
100
AcDbArc
 50
270.0000000000001
 51
284.0362434679263
  0
LINE
  5
303
330
2
100
AcDbEntity
  8
0
100
AcDbLine
 10
0.9701836655630984
 20
7.697909185333044
 30
0.0
 11
1.205852065632868
 21
7.638992085315605
 31
0.0
  0
ARC
  5
304
330
2
100
AcDbEntity
  8
0
100
AcDbCircle
 10
1.234956340637226
 20
7.755409185333042
 30
0.0
 40
0.12
100
AcDbArc
 50
255.9637565320738
 51
269.9999999999999
  0
LINE
  5
305
330
2
100
AcDbEntity
  8
0
100
AcDbLine
 10
-0.78125
 20
6.885409185333042
 30
0.0
 11
-0.84375
 21
6.885409185333044
 31
0.0
  0
LINE
  5
306
330
2
100
AcDbEntity
  8
0
100
AcDbLine
 10
0.84375
 20
6.885409185333042
 30
0.0
 11
0.78125
 21
6.885409185333044
 31
0.0
  0
LINE
  5
307
330
2
100
AcDbEntity
  8
0
100
AcDbLine
 10
2.476961892721327
 20
7.697909185333044
 30
0.0
 11
2.241293492651558
 21
7.638992085315605
 31
0.0
  0
ARC
  5
308
330
2
100
AcDbEntity
  8
0
100
AcDbCircle
 10
2.2121892176472
 20
7.755409185333042
 30
0.0
 40
0.12
100
AcDbArc
 50
270.0
 51
284.0362434679262
  0
LINE
  5
309
330
2
100
AcDbEntity
  8
0
100
AcDbLine
 10
2.656249999999996
 20
7.760409185333042
 30
0.0
 11
2.656249999999996
 21
7.697909185333042
 31
0.0
  0
LINE
  5
30A
330
2
100
AcDbEntity
  8
0
100
AcDbLine
 10
-6.116258599480023
 20
4.625
 30
0.0
 11
-5.444685724226211
 21
5.3125
 31
0.0
  0
LINE
  5
30B
330
2
100
AcDbEntity
  8
0
100
AcDbLine
 10
-5.241258599480023
 20
5.3125
 30
0.0
 11
-5.241258599480023
 21
2.5625
 31
0.0
  0
LINE
  5
30C
330
2
100
AcDbEntity
  8
0
100
AcDbLine
 10
-6.178758599480023
 20
2.827272675074127
 30
0.0
 11
-6.178758599480023
 21
3.820711532045859
 31
0.0
  0
LINE
  5
30D
330
2
100
AcDbEntity
  8
0
100
AcDbLine
 10
-5.241258599480023
 20
2.5625
 30
0.0
 11
-6.053758599480023
 21
2.5625
 31
0.0
  0
LINE
  5
30E
330
2
100
AcDbEntity
  8
0
100
AcDbLine
 10
-6.116258599480023
 20
2.5625
 30
0.0
 11
-6.175175699497462
 21
2.798168400069766
 31
0.0
  0
ARC
  5
30F
330
2
100
AcDbEntity
  8
0
100
AcDbCircle
 10
-6.058758599480026
 20
2.827272675074127
 30
0.0
 40
0.12
100
AcDbArc
 50
180.0
 51
194.0362434679263
  0
CIRCLE
  5
313
330
2
100
AcDbEntity
  8
0
100
AcDbCircle
 10
-5.553758599480023
 20
3.3125
 30
0.0
 40
0.078
  0
CIRCLE
  5
314
330
2
100
AcDbEntity
  8
0
100
AcDbCircle
 10
-5.553758599480023
 20
4.0
 30
0.0
 40
0.078
  0
CIRCLE
  5
315
330
2
100
AcDbEntity
  8
0
100
AcDbCircle
 10
-5.553758599480023
 20
4.6875
 30
0.0
 40
0.078
  0
LINE
  5
319
330
2
100
AcDbEntity
  8
0
100
AcDbLine
 10
-6.116258599480023
 20
4.085484207119986
 30
0.0
 11
-6.175175699497462
 21
3.849815807050218
 31
0.0
  0
ARC
  5
31A
330
2
100
AcDbEntity
  8
0
100
AcDbCircle
 10
-6.058758599480026
 20
3.820711532045859
 30
0.0
 40
0.12
100
AcDbArc
 50
165.9637565320737
 51
179.9999999999999
  0
LINE
  5
31B
330
2
100
AcDbEntity
  8
0
100
AcDbLine
 10
-5.241258599480023
 20
5.3125
 30
0.0
 11
-5.444685724226211
 21
5.3125
 31
0.0
  0
LINE
  5
31C
330
2
100
AcDbEntity
  8
0
100
AcDbLine
 10
-6.053758599480023
 20
0.0
 30
0.0
 11
-6.116258599480023
 21
0.0
 31
0.0
  0
LINE
  5
31D
330
2
100
AcDbEntity
  8
0
100
AcDbLine
 10
-6.053758599480023
 20
4.6875
 30
0.0
 11
-6.053758599480023
 21
0.0
 31
0.0
  0
LINE
  5
31E
330
2
100
AcDbEntity
  8
0
100
AcDbLine
 10
-6.116258599480023
 20
0.0
 30
0.0
 11
-6.116258599480023
 21
4.625
 31
0.0
  0
ENDSEC
  0
SECTION
  2
OBJECTS
  0
DICTIONARY
  5
9
330
0
100
AcDbDictionary
281
     1
  3
ACAD_COLOR
350
12A
  3
ACAD_GROUP
350
23
  3
ACAD_LAYOUT
350
D
  3
ACAD_MATERIAL
350
129
  3
ACAD_MLINESTYLE
350
24
  3
ACAD_PLOTSETTINGS
350
25
  3
ACAD_PLOTSTYLENAME
350
8
  3
ACAD_TABLESTYLE
350
12B
  3
ACDBHEADERROUNDTRIPXREC
350
32A
  3
AcDbVariableDictionary
350
125
  0
DICTIONARY
  5
3
330
2
100
AcDbDictionary
280
     1
281
     1
  3
ACAD_SORTENTS
360
132
  0
DICTIONARY
  5
12A
102
{ACAD_REACTORS
330
9
102
}
330
9
100
AcDbDictionary
281
     1
  0
DICTIONARY
  5
23
102
{ACAD_REACTORS
330
9
102
}
330
9
100
AcDbDictionary
281
     1
  0
DICTIONARY
  5
D
102
{ACAD_REACTORS
330
9
102
}
330
9
100
AcDbDictionary
281
     1
  3
Layout1
350
13
  3
Model
350
C
  0
DICTIONARY
  5
129
102
{ACAD_REACTORS
330
9
102
}
330
9
100
AcDbDictionary
281
     1
  0
DICTIONARY
  5
24
102
{ACAD_REACTORS
330
9
102
}
330
9
100
AcDbDictionary
281
     1
  3
Standard
350
27
  0
DICTIONARY
  5
25
102
{ACAD_REACTORS
330
9
102
}
330
9
100
AcDbDictionary
281
     1
  0
ACDBDICTIONARYWDFLT
  5
8
102
{ACAD_REACTORS
330
9
102
}
330
9
100
AcDbDictionary
281
     1
  3
Normal
350
7
100
AcDbDictionaryWithDefault
340
7
  0
DICTIONARY
  5
12B
102
{ACAD_REACTORS
330
9
102
}
330
9
100
AcDbDictionary
281
     1
  3
Standard
350
12C
  0
DICTIONARY
  5
32A
102
{ACAD_REACTORS
330
9
102
}
330
9
100
AcDbDictionary
281
     1
  3
COLORDICT
350
32B
  3
MATERIALDICT
350
32C
  0
DICTIONARY
  5
125
102
{ACAD_REACTORS
330
9
102
}
330
9
100
AcDbDictionary
281
     1
  3
CTABLESTYLE
350
219
  3
DIMASSOC
350
127
  3
HIDETEXT
350
126
  0
SORTENTSTABLE
  5
132
102
{ACAD_REACTORS
330
3
102
}
330
3
100
AcDbSortentsTable
330
2
331
1E0
  5
20A
331
1DD
  5
207
331
151
  5
17B
331
14E
  5
178
331
16C
  5
196
331
162
  5
18C
331
16B
  5
195
331
1E5
  5
20F
331
1DA
  5
204
331
1A9
  5
1D3
331
1CB
  5
1F5
331
1F7
  5
15A
331
1E8
  5
14B
331
1D4
  5
1FE
331
1DB
  5
205
331
1DF
  5
209
331
13A
  5
164
331
16F
  5
199
331
13E
  5
168
331
1E6
  5
210
331
13D
  5
167
331
1D8
  5
202
331
16D
  5
197
331
1E4
  5
20E
331
166
  5
190
331
14F
  5
179
331
1AB
  5
1D5
331
1F3
  5
156
331
1CA
  5
1F4
331
1FB
  5
15E
331
1C9
  5
1F3
331
150
  5
17A
331
1D7
  5
201
331
137
  5
161
331
160
  5
18A
331
167
  5
191
331
1DC
  5
206
331
1D5
  5
1FF
331
16E
  5
198
331
1EB
  5
14E
331
169
  5
193
331
1ED
  5
150
331
136
  5
160
331
164
  5
18E
331
1AA
  5
1D4
331
1D1
  5
1FB
331
1FA
  5
15D
331
165
  5
18F
331
1FC
  5
15F
331
152
  5
17C
331
153
  5
17D
331
1F9
  5
15C
331
163
  5
18D
331
1F1
  5
154
331
13B
  5
165
331
1D3
  5
1FD
331
1DE
  5
208
331
1EC
  5
14F
331
1D2
  5
1FC
331
1E9
  5
14C
331
1C8
  5
1F2
331
1CC
  5
1F6
331
1E2
  5
20C
331
168
  5
192
331
1D9
  5
203
331
1E3
  5
20D
331
138
  5
162
331
1CE
  5
1F8
331
139
  5
163
331
16A
  5
194
331
13C
  5
166
331
161
  5
18B
331
1E1
  5
20B
331
1D0
  5
1FA
331
170
  5
19A
331
1D6
  5
200
331
1CD
  5
1F7
331
1EA
  5
14D
331
15F
  5
189
331
1E7
  5
211
331
1F8
  5
15B
331
14D
  5
177
331
1CF
  5
1F9
331
1F2
  5
155
  0
LAYOUT
  5
13
102
{ACAD_REACTORS
330
D
102
}
102
{ACAD_XDICTIONARY
360
32D
102
}
330
D
100
AcDbPlotSettings
  1

  2
hp psc 2100 series
  4

  6

 40
0.0
 41
0.0
 42
0.0
 43
0.0
 44
0.0
 45
0.0
 46
0.0
 47
0.0
 48
0.0
 49
0.0
140
0.0
141
0.0
142
1.0
143
1.0
 70
   688
 72
     0
 73
     0
 74
     5
  7

 75
    16
147
1.0
148
0.0
149
0.0
100
AcDbLayout
  1
Layout1
 70
     0
 71
     1
 10
0.0
 20
0.0
 11
12.0
 21
9.0
 12
0.0
 22
0.0
 32
0.0
 14
1.000000000000000E+20
 24
1.000000000000000E+20
 34
1.000000000000000E+20
 15
-1.000000000000000E+20
 25
-1.000000000000000E+20
 35
-1.000000000000000E+20
146
0.0
 13
0.0
 23
0.0
 33
0.0
 16
1.0
 26
0.0
 36
0.0
 17
0.0
 27
1.0
 37
0.0
 76
     0
330
E
  0
LAYOUT
  5
C
102
{ACAD_REACTORS
330
D
102
}
102
{ACAD_XDICTIONARY
360
32F
102
}
330
D
100
AcDbPlotSettings
  1

  2
HP LaserJet 2100 Series PS
  4
Letter
  6

 40
5.365749835968018
 41
5.365735054016113
 42
3.175003051757813
 43
3.17498779296875
 44
210.4813232421875
 45
273.9813232421875
 46
0.0
 47
0.0
 48
0.0
 49
0.0
140
0.0
141
0.0
142
1.0
143
2.20105459353616
 70
 28336
 72
     0
 73
     1
 74
     2
  7

 75
     0
147
0.4543276677174212
148
0.0
149
0.0
100
AcDbLayout
  1
Model
 70
     1
 71
     0
 10
0.0
 20
0.0
 11
12.0
 21
9.0
 12
0.0
 22
0.0
 32
0.0
 14
0.0
 24
0.0
 34
0.0
 15
0.0
 25
0.0
 35
0.0
146
0.0
 13
0.0
 23
0.0
 33
0.0
 16
1.0
 26
0.0
 36
0.0
 17
0.0
 27
1.0
 37
0.0
 76
     0
330
2
  0
MLINESTYLE
  5
27
102
{ACAD_REACTORS
330
24
102
}
330
24
100
AcDbMlineStyle
  2
STANDARD
 70
     0
  3

 62
   256
 51
90.0
 52
90.0
 71
     2
 49
0.5
 62
   256
  6
BYLAYER
 49
-0.5
 62
   256
  6
BYLAYER
  0
ACDBPLACEHOLDER
  5
7
102
{ACAD_REACTORS
330
8
102
}
330
8
  0
ACAD_PROXY_OBJECT
  5
12C
102
{ACAD_REACTORS
330
12B
102
}
330
12B
100
AcDbProxyObject
 90
      499
 91
      520
 95
   983063
 70
     0
 93
     1841
310
4214DD185B99185C9928B81E85EB51B8AE3F2E07A17AD46E2B8FC02B5E8DC0F42B1CFD028000000C1008070000C3001FDFF8000000C1003FBFF000000182007F7FE00000030400FEFFC00000060801FDFF8000000C1003FBFF00000018200000000000000681FA0B0000001820100E000186003FBFF000000182007F7FE000
310
00030400FEFFC00000060801FDFF8000000C1003FBFF000000182007F7FE000000304000AD7A3703D0AC73F4160000003040201C00030C007F7FE00000030400FEFFC00000060801FDFF8000000C1003FBFF000000182007F7FE00000030400FEFFC000000608000
340
16
340
16
340
16
 94
        0
  0
XRECORD
  5
32B
102
{ACAD_REACTORS
330
32A
102
}
330
32A
100
AcDbXrecord
340
12A
  0
XRECORD
  5
32C
102
{ACAD_REACTORS
330
32A
102
}
330
32A
100
AcDbXrecord
340
129
  0
DICTIONARYVAR
  5
219
102
{ACAD_REACTORS
330
125
102
}
330
125
100
DictionaryVariables
280
     0
  1
STANDARD
  0
DICTIONARYVAR
  5
127
102
{ACAD_REACTORS
330
125
102
}
330
125
100
DictionaryVariables
280
     0
  1
2
  0
DICTIONARYVAR
  5
126
102
{ACAD_REACTORS
330
125
102
}
330
125
100
DictionaryVariables
280
     0
  1
1
  0
DICTIONARY
  5
32D
330
13
100
AcDbDictionary
280
     1
281
     1
  3
ACAD_XREC_ROUNDTRIP
360
32E
  0
DICTIONARY
  5
32F
330
C
100
AcDbDictionary
280
     1
281
     1
  3
ACAD_XREC_ROUNDTRIP
360
330
  0
XRECORD
  5
32E
102
{ACAD_REACTORS
330
32D
102
}
330
32D
100
AcDbXrecord
102
SHADEPLOT
 70
     0
102
SHADEPLOTRESLEVEL
 70
     2
102
SHADEPLOTCUSTOMDPI
 70
   300
  0
XRECORD
  5
330
102
{ACAD_REACTORS
330
32F
102
}
330
32F
100
AcDbXrecord
102
SHADEPLOT
 70
     0
102
SHADEPLOTRESLEVEL
 70
     2
102
SHADEPLOTCUSTOMDPI
 70
   300
  0
ENDSEC
  0
EOF
