  0
SECTION
  2
HEADER
  9
$ACADVER
  1
AC1015
  9
$ACADMAINTVER
 70
     6
  9
$DWGCODEPAGE
  3
ANSI_1252
  9
$INSBASE
 10
0.0
 20
0.0
 30
0.0
  9
$EXTMIN
 10
-2.500049999750081
 20
-2.749999999724922
 30
0.0
  9
$EXTMAX
 10
2.662379762943367
 20
6.249999999375007
 30
0.0
  9
$LIMMIN
 10
-0.0625
 20
-0.0625
  9
$LIMMAX
 10
21.12826639170268
 20
15.63285024802469
  9
$ORTHOMODE
 70
     0
  9
$REGENMODE
 70
     1
  9
$FILLMODE
 70
     1
  9
$QTEXTMODE
 70
     0
  9
$MIRRTEXT
 70
     1
  9
$LTSCALE
 40
0.5
  9
$ATTMODE
 70
     1
  9
$TEXTSIZE
 40
0.18
  9
$TRACEWID
 40
0.05
  9
$TEXTSTYLE
  7
STANDARD
  9
$CLAYER
  8
0
  9
$CELTYPE
  6
BYLAYER
  9
$CECOLOR
 62
   256
  9
$CELTSCALE
 40
1.0
  9
$DISPSILH
 70
     0
  9
$DIMSCALE
 40
2.0
  9
$DIMASZ
 40
0.125
  9
$DIMEXO
 40
0.062
  9
$DIMDLI
 40
0.375
  9
$DIMRND
 40
0.0
  9
$DIMDLE
 40
0.0
  9
$DIMEXE
 40
0.08
  9
$DIMTP
 40
0.0
  9
$DIMTM
 40
0.0
  9
$DIMTXT
 40
0.09
  9
$DIMCEN
 40
-0.06
  9
$DIMTSZ
 40
0.0
  9
$DIMTOL
 70
     0
  9
$DIMLIM
 70
     0
  9
$DIMTIH
 70
     1
  9
$DIMTOH
 70
     1
  9
$DIMSE1
 70
     0
  9
$DIMSE2
 70
     0
  9
$DIMTAD
 70
     0
  9
$DIMZIN
 70
     0
  9
$DIMBLK
  1

  9
$DIMASO
 70
     0
  9
$DIMSHO
 70
     0
  9
$DIMPOST
  1

  9
$DIMAPOST
  1

  9
$DIMALT
 70
     0
  9
$DIMALTD
 70
     2
  9
$DIMALTF
 40
25.4
  9
$DIMLFAC
 40
1.0
  9
$DIMTOFL
 70
     0
  9
$DIMTVP
 40
0.0
  9
$DIMTIX
 70
     0
  9
$DIMSOXD
 70
     0
  9
$DIMSAH
 70
     0
  9
$DIMBLK1
  1

  9
$DIMBLK2
  1

  9
$DIMSTYLE
  2
STANDARD
  9
$DIMCLRD
 70
     0
  9
$DIMCLRE
 70
     0
  9
$DIMCLRT
 70
     0
  9
$DIMTFAC
 40
1.0
  9
$DIMGAP
 40
0.09
  9
$DIMJUST
 70
     0
  9
$DIMSD1
 70
     0
  9
$DIMSD2
 70
     0
  9
$DIMTOLJ
 70
     1
  9
$DIMTZIN
 70
     0
  9
$DIMALTZ
 70
     0
  9
$DIMALTTZ
 70
     0
  9
$DIMUPT
 70
     0
  9
$DIMDEC
 70
     5
  9
$DIMTDEC
 70
     5
  9
$DIMALTU
 70
     5
  9
$DIMALTTD
 70
     2
  9
$DIMTXSTY
  7
STANDARD
  9
$DIMAUNIT
 70
     0
  9
$DIMADEC
 70
     0
  9
$DIMALTRND
 40
0.0
  9
$DIMAZIN
 70
     0
  9
$DIMDSEP
 70
    46
  9
$DIMATFIT
 70
     3
  9
$DIMFRAC
 70
     0
  9
$DIMLDRBLK
  1

  9
$DIMLUNIT
 70
     5
  9
$DIMLWD
 70
    -2
  9
$DIMLWE
 70
    -2
  9
$DIMTMOVE
 70
     2
  9
$LUNITS
 70
     5
  9
$LUPREC
 70
     5
  9
$SKETCHINC
 40
0.1
  9
$FILLETRAD
 40
0.0
  9
$AUNITS
 70
     0
  9
$AUPREC
 70
     0
  9
$MENU
  1
simpson
  9
$ELEVATION
 40
0.0
  9
$PELEVATION
 40
0.0
  9
$THICKNESS
 40
0.0
  9
$LIMCHECK
 70
     0
  9
$CHAMFERA
 40
0.0
  9
$CHAMFERB
 40
0.0
  9
$CHAMFERC
 40
0.0
  9
$CHAMFERD
 40
0.0
  9
$SKPOLY
 70
     0
  9
$TDCREATE
 40
2449230.732414236
  9
$TDUCREATE
 40
2449231.065747569
  9
$TDUPDATE
 40
2454181.732096898
  9
$TDUUPDATE
 40
2454182.065430231
  9
$TDINDWG
 40
0.2058952199
  9
$TDUSRTIMER
 40
0.2058952199
  9
$USRTIMER
 70
     1
  9
$ANGBASE
 50
0.0
  9
$ANGDIR
 70
     0
  9
$PDMODE
 70
     0
  9
$PDSIZE
 40
0.0
  9
$PLINEWID
 40
0.0
  9
$SPLFRAME
 70
     0
  9
$SPLINETYPE
 70
     6
  9
$SPLINESEGS
 70
     8
  9
$HANDSEED
  5
231
  9
$SURFTAB1
 70
     6
  9
$SURFTAB2
 70
     6
  9
$SURFTYPE
 70
     6
  9
$SURFU
 70
     6
  9
$SURFV
 70
     6
  9
$UCSBASE
  2

  9
$UCSNAME
  2

  9
$UCSORG
 10
0.0
 20
0.0
 30
0.0
  9
$UCSXDIR
 10
1.0
 20
0.0
 30
0.0
  9
$UCSYDIR
 10
0.0
 20
1.0
 30
0.0
  9
$UCSORTHOREF
  2

  9
$UCSORTHOVIEW
 70
     0
  9
$UCSORGTOP
 10
0.0
 20
0.0
 30
0.0
  9
$UCSORGBOTTOM
 10
0.0
 20
0.0
 30
0.0
  9
$UCSORGLEFT
 10
0.0
 20
0.0
 30
0.0
  9
$UCSORGRIGHT
 10
0.0
 20
0.0
 30
0.0
  9
$UCSORGFRONT
 10
0.0
 20
0.0
 30
0.0
  9
$UCSORGBACK
 10
0.0
 20
0.0
 30
0.0
  9
$PUCSBASE
  2

  9
$PUCSNAME
  2

  9
$PUCSORG
 10
0.0
 20
0.0
 30
0.0
  9
$PUCSXDIR
 10
1.0
 20
0.0
 30
0.0
  9
$PUCSYDIR
 10
0.0
 20
1.0
 30
0.0
  9
$PUCSORTHOREF
  2

  9
$PUCSORTHOVIEW
 70
     0
  9
$PUCSORGTOP
 10
0.0
 20
0.0
 30
0.0
  9
$PUCSORGBOTTOM
 10
0.0
 20
0.0
 30
0.0
  9
$PUCSORGLEFT
 10
0.0
 20
0.0
 30
0.0
  9
$PUCSORGRIGHT
 10
0.0
 20
0.0
 30
0.0
  9
$PUCSORGFRONT
 10
0.0
 20
0.0
 30
0.0
  9
$PUCSORGBACK
 10
0.0
 20
0.0
 30
0.0
  9
$USERI1
 70
     0
  9
$USERI2
 70
     0
  9
$USERI3
 70
     0
  9
$USERI4
 70
     0
  9
$USERI5
 70
     0
  9
$USERR1
 40
0.0
  9
$USERR2
 40
0.0
  9
$USERR3
 40
0.0
  9
$USERR4
 40
0.0
  9
$USERR5
 40
0.0
  9
$WORLDVIEW
 70
     1
  9
$SHADEDGE
 70
     3
  9
$SHADEDIF
 70
    70
  9
$TILEMODE
 70
     1
  9
$MAXACTVP
 70
    16
  9
$PINSBASE
 10
0.0
 20
0.0
 30
0.0
  9
$PLIMCHECK
 70
     0
  9
$PEXTMIN
 10
1.000000000000000E+20
 20
1.000000000000000E+20
 30
1.000000000000000E+20
  9
$PEXTMAX
 10
-1.000000000000000E+20
 20
-1.000000000000000E+20
 30
-1.000000000000000E+20
  9
$PLIMMIN
 10
0.0
 20
0.0
  9
$PLIMMAX
 10
12.0
 20
9.0
  9
$UNITMODE
 70
     0
  9
$VISRETAIN
 70
     0
  9
$PLINEGEN
 70
     0
  9
$PSLTSCALE
 70
     0
  9
$TREEDEPTH
 70
  3020
  9
$CMLSTYLE
  2
STANDARD
  9
$CMLJUST
 70
     0
  9
$CMLSCALE
 40
1.0
  9
$PROXYGRAPHICS
 70
     1
  9
$MEASUREMENT
 70
     0
  9
$CELWEIGHT
370
    -1
  9
$ENDCAPS
280
     0
  9
$JOINSTYLE
280
     0
  9
$LWDISPLAY
290
     0
  9
$INSUNITS
 70
     0
  9
$HYPERLINKBASE
  1

  9
$STYLESHEET
  1

  9
$XEDIT
290
     1
  9
$CEPSNTYPE
380
     0
  9
$PSTYLEMODE
290
     1
  9
$FINGERPRINTGUID
  2
{4D67D000-BAD0-11D4-8FCF-00D0B726A456}
  9
$VERSIONGUID
  2
{25BBE8B1-518A-48B6-AC95-C3DF23B9CEE2}
  9
$EXTNAMES
290
     1
  9
$PSVPSCALE
 40
0.0
  9
$OLESTARTUP
290
     0
  0
ENDSEC
  0
SECTION
  2
CLASSES
  0
CLASS
  1
DICTIONARYVAR
  2
AcDbDictionaryVar
  3
AutoCAD 2000
 90
        0
280
     0
281
     0
  0
CLASS
  1
LWPOLYLINE
  2
AcDbPolyline
  3
AutoCAD 2000
 90
        0
280
     0
281
     1
  0
CLASS
  1
ACDBDICTIONARYWDFLT
  2
AcDbDictionaryWithDefault
  3
AutoCAD 2000
 90
        0
280
     0
281
     0
  0
CLASS
  1
ACDBPLACEHOLDER
  2
AcDbPlaceHolder
  3
ObjectDBX Classes
 90
        0
280
     0
281
     0
  0
CLASS
  1
LAYOUT
  2
AcDbLayout
  3
ObjectDBX Classes
 90
        0
280
     0
281
     0
  0
CLASS
  1
LONG_TRANSACTION
  2
AcDbLongTransaction
  3
ObjectDBX Classes
 90
   -65536
280
     1
281
     0
  0
CLASS
  1
LWPOLYLINE
  2
AcDbPolyline
  3
AutoCAD 2000
 90
        0
280
     0
281
     1
  0
CLASS
  1
HATCH
  2
AcDbHatch
  3
AutoCAD 2000
 90
        0
280
     0
281
     1
  0
CLASS
  1
XRECORD
  2
AcDbXrecord
  3
AutoCAD 2000
 90
        0
280
     0
281
     0
  0
CLASS
  1
LONG_TRANSACTION
  2
AcDbLongTransaction
  3
ObjectDBX Classes
 90
   -65536
280
     1
281
     0
  0
CLASS
  1
LWPOLYLINE
  2
AcDbPolyline
  3
AutoCAD 2000
 90
        0
280
     0
281
     1
  0
CLASS
  1
HATCH
  2
AcDbHatch
  3
AutoCAD 2000
 90
        0
280
     0
281
     1
  0
CLASS
  1
XRECORD
  2
AcDbXrecord
  3
AutoCAD 2000
 90
        0
280
     0
281
     0
  0
CLASS
  1
LONG_TRANSACTION
  2
AcDbLongTransaction
  3
ObjectDBX Classes
 90
   -65536
280
     1
281
     0
  0
CLASS
  1
LWPOLYLINE
  2
AcDbPolyline
  3
AutoCAD 2000
 90
        0
280
     0
281
     1
  0
CLASS
  1
HATCH
  2
AcDbHatch
  3
AutoCAD 2000
 90
        0
280
     0
281
     1
  0
CLASS
  1
XRECORD
  2
AcDbXrecord
  3
AutoCAD 2000
 90
        0
280
     0
281
     0
  0
CLASS
  1
LONG_TRANSACTION
  2
AcDbLongTransaction
  3
ObjectDBX Classes
 90
   -65536
280
     1
281
     0
  0
CLASS
  1
LWPOLYLINE
  2
AcDbPolyline
  3
AutoCAD 2000
 90
        0
280
     0
281
     1
  0
CLASS
  1
HATCH
  2
AcDbHatch
  3
AutoCAD 2000
 90
        0
280
     0
281
     1
  0
CLASS
  1
XRECORD
  2
AcDbXrecord
  3
AutoCAD 2000
 90
        0
280
     0
281
     0
  0
CLASS
  1
LONG_TRANSACTION
  2
AcDbLongTransaction
  3
ObjectDBX Classes
 90
   -65536
280
     1
281
     0
  0
CLASS
  1
LWPOLYLINE
  2
AcDbPolyline
  3
AutoCAD 2000
 90
        0
280
     0
281
     1
  0
CLASS
  1
HATCH
  2
AcDbHatch
  3
AutoCAD 2000
 90
        0
280
     0
281
     1
  0
CLASS
  1
XRECORD
  2
AcDbXrecord
  3
AutoCAD 2000
 90
        0
280
     0
281
     0
  0
CLASS
  1
LONG_TRANSACTION
  2
AcDbLongTransaction
  3
ObjectDBX Classes
 90
   -65536
280
     1
281
     0
  0
CLASS
  1
LWPOLYLINE
  2
AcDbPolyline
  3
AutoCAD 2000
 90
        0
280
     0
281
     1
  0
CLASS
  1
HATCH
  2
AcDbHatch
  3
AutoCAD 2000
 90
        0
280
     0
281
     1
  0
CLASS
  1
XRECORD
  2
AcDbXrecord
  3
AutoCAD 2000
 90
        0
280
     0
281
     0
  0
CLASS
  1
LONG_TRANSACTION
  2
AcDbLongTransaction
  3
ObjectDBX Classes
 90
   -65536
280
     1
281
     0
  0
CLASS
  1
LWPOLYLINE
  2
AcDbPolyline
  3
AutoCAD 2000
 90
        0
280
     0
281
     1
  0
CLASS
  1
HATCH
  2
AcDbHatch
  3
AutoCAD 2000
 90
        0
280
     0
281
     1
  0
CLASS
  1
XRECORD
  2
AcDbXrecord
  3
AutoCAD 2000
 90
        0
280
     0
281
     0
  0
CLASS
  1
LONG_TRANSACTION
  2
AcDbLongTransaction
  3
ObjectDBX Classes
 90
   -65536
280
     1
281
     0
  0
CLASS
  1
LWPOLYLINE
  2
AcDbPolyline
  3
AutoCAD 2000
 90
        0
280
     0
281
     1
  0
CLASS
  1
HATCH
  2
AcDbHatch
  3
AutoCAD 2000
 90
        0
280
     0
281
     1
  0
CLASS
  1
XRECORD
  2
AcDbXrecord
  3
AutoCAD 2000
 90
        0
280
     0
281
     0
  0
CLASS
  1
TABLESTYLE
  2
AcDbTableStyle
  3
ObjectDBX Classes
 90
     2047
280
     1
281
     0
  0
CLASS
  1
SORTENTSTABLE
  2
AcDbSortentsTable
  3
AutoCAD 2000
 90
        0
280
     0
281
     0
  0
ENDSEC
  0
SECTION
  2
TABLES
  0
TABLE
  2
VPORT
  5
1D
330
0
100
AcDbSymbolTable
 70
     2
  0
VPORT
  5
223
330
1D
100
AcDbSymbolTableRecord
100
AcDbViewportTableRecord
  2
*Active
 70
     0
 10
0.0
 20
0.0
 11
1.0
 21
1.0
 12
7.17387693564303
 22
5.011993012304451
 13
0.0
 23
0.0
 14
0.063
 24
0.063
 15
0.25
 25
0.25
 16
0.0
 26
0.0
 36
1.0
 17
0.0
 27
0.0
 37
0.0
 40
19.67777060042194
 41
1.814583333333333
 42
50.0
 43
0.0
 44
0.0
 50
0.0
 51
0.0
 71
     0
 72
   100
 73
     1
 74
     0
 75
     0
 76
     0
 77
     0
 78
     0
281
     0
 65
     1
110
0.0
120
0.0
130
0.0
111
1.0
121
0.0
131
0.0
112
0.0
122
1.0
132
0.0
 79
     0
146
0.0
  0
ENDTAB
  0
TABLE
  2
LTYPE
  5
18
330
0
100
AcDbSymbolTable
 70
     1
  0
LTYPE
  5
19
330
18
100
AcDbSymbolTableRecord
100
AcDbLinetypeTableRecord
  2
BYBLOCK
 70
     0
  3

 72
    65
 73
     0
 40
0.0
  0
LTYPE
  5
1A
330
18
100
AcDbSymbolTableRecord
100
AcDbLinetypeTableRecord
  2
BYLAYER
 70
     0
  3

 72
    65
 73
     0
 40
0.0
  0
LTYPE
  5
A
330
18
100
AcDbSymbolTableRecord
100
AcDbLinetypeTableRecord
  2
CONTINUOUS
 70
     0
  3
Solid line
 72
    65
 73
     0
 40
0.0
  0
ENDTAB
  0
TABLE
  2
LAYER
  5
14
330
0
100
AcDbSymbolTable
 70
     2
  0
LAYER
  5
6
330
14
100
AcDbSymbolTableRecord
100
AcDbLayerTableRecord
  2
0
 70
     0
 62
     7
  6
CONTINUOUS
370
    -3
390
7
  0
ENDTAB
  0
TABLE
  2
STYLE
  5
15
330
0
100
AcDbSymbolTable
 70
     1
  0
STYLE
  5
16
330
15
100
AcDbSymbolTableRecord
100
AcDbTextStyleTableRecord
  2
STANDARD
 70
     0
 40
0.0
 41
1.0
 50
0.0
 71
     0
 42
0.18
  3
TXT
  4

  0
ENDTAB
  0
TABLE
  2
VIEW
  5
1B
330
0
100
AcDbSymbolTable
 70
     0
  0
ENDTAB
  0
TABLE
  2
UCS
  5
1C
330
0
100
AcDbSymbolTable
 70
     0
  0
ENDTAB
  0
TABLE
  2
APPID
  5
1F
330
0
100
AcDbSymbolTable
 70
     1
  0
APPID
  5
20
330
1F
100
AcDbSymbolTableRecord
100
AcDbRegAppTableRecord
  2
ACAD
 70
     0
  0
ENDTAB
  0
TABLE
  2
DIMSTYLE
  5
21
330
0
100
AcDbSymbolTable
 70
     1
100
AcDbDimStyleTable
  0
DIMSTYLE
105
28
330
21
100
AcDbSymbolTableRecord
100
AcDbDimStyleTableRecord
  2
STANDARD
 70
     0
  3

  4

340
16
  0
ENDTAB
  0
TABLE
  2
BLOCK_RECORD
  5
1
330
0
100
AcDbSymbolTable
 70
     0
  0
BLOCK_RECORD
  5
2
102
{ACAD_XDICTIONARY
360
3
102
}
330
1
100
AcDbSymbolTableRecord
100
AcDbBlockTableRecord
  2
*MODEL_SPACE
340
C
  0
BLOCK_RECORD
  5
E
330
1
100
AcDbSymbolTableRecord
100
AcDbBlockTableRecord
  2
*PAPER_SPACE
340
13
  0
ENDTAB
  0
ENDSEC
  0
SECTION
  2
BLOCKS
  0
BLOCK
  5
5
330
2
100
AcDbEntity
  8
0
100
AcDbBlockBegin
  2
*MODEL_SPACE
 70
     0
 10
0.0
 20
0.0
 30
0.0
  3
*MODEL_SPACE
  1

  4

  0
ENDBLK
  5
B
330
2
100
AcDbEntity
  8
0
100
AcDbBlockEnd
  0
BLOCK
  5
11
330
E
100
AcDbEntity
 67
     1
  8
0
100
AcDbBlockBegin
  2
*PAPER_SPACE
 70
     0
 10
0.0
 20
0.0
 30
0.0
  3
*PAPER_SPACE
  1

  4

  0
ENDBLK
  5
12
330
E
100
AcDbEntity
 67
     1
  8
0
100
AcDbBlockEnd
  0
ENDSEC
  0
SECTION
  2
ENTITIES
  0
LINE
  5
192
330
2
100
AcDbEntity
  8
0
100
AcDbLine
 10
2.66237976294336
 20
5.374999999462494
 30
0.0
 11
2.662379762943367
 21
0.8749999999124931
 31
0.0
  0
LINE
  5
193
330
2
100
AcDbEntity
  8
0
100
AcDbLine
 10
-2.337620236556631
 20
5.374999999462508
 30
0.0
 11
-2.337620236556624
 21
0.8749999999124931
 31
0.0
  0
LINE
  5
194
330
2
100
AcDbEntity
  8
0
100
AcDbLine
 10
0.0
 20
0.0
 30
0.0
 11
-1.462620236644153
 21
0.0000000000000071
 31
0.0
  0
LINE
  5
195
330
2
100
AcDbEntity
  8
0
100
AcDbLine
 10
-2.337620236556624
 20
0.8749999999124931
 30
0.0
 11
-1.462620236644124
 21
-0.0000000000000071
 31
0.0
  0
CIRCLE
  5
196
330
2
100
AcDbEntity
  8
0
100
AcDbCircle
 10
-1.212620236669146
 20
0.3124999999687432
 30
0.0
 40
0.0779999999922
  0
LINE
  5
197
330
2
100
AcDbEntity
  8
0
100
AcDbLine
 10
2.662379762943367
 20
0.8749999999124931
 30
0.0
 11
1.787379763030877
 21
-0.0000000000000071
 31
0.0
  0
LINE
  5
198
330
2
100
AcDbEntity
  8
0
100
AcDbLine
 10
1.787379763030842
 20
-0.0000000000000071
 30
0.0
 11
0.3247595263866856
 21
0.0000000000000036
 31
0.0
  0
LINE
  5
199
330
2
100
AcDbEntity
  8
0
100
AcDbLine
 10
0.1623797631933392
 20
0.2812499999718767
 30
0.0
 11
0.3247595263866856
 21
0.1874999999812506
 31
0.0
  0
LINE
  5
19A
330
2
100
AcDbEntity
  8
0
100
AcDbLine
 10
0.0
 20
0.0
 30
0.0
 11
0.0
 21
0.1874999999812506
 31
0.0
  0
POINT
  5
19B
330
2
100
AcDbEntity
  8
0
100
AcDbPoint
 10
0.0
 20
0.0
 30
0.0
  0
LINE
  5
19C
330
2
100
AcDbEntity
  8
0
100
AcDbLine
 10
0.0
 20
0.1874999999812506
 30
0.0
 11
0.1623797631933392
 21
0.2812499999718767
 31
0.0
  0
LINE
  5
19D
330
2
100
AcDbEntity
  8
0
100
AcDbLine
 10
0.3247595263866856
 20
0.1874999999812506
 30
0.0
 11
0.3247595263866856
 21
0.0
 31
0.0
  0
POINT
  5
19E
330
2
100
AcDbEntity
  8
0
100
AcDbPoint
 10
0.3247595263866856
 20
0.0000000000000036
 30
0.0
  0
CIRCLE
  5
19F
330
2
100
AcDbEntity
  8
0
100
AcDbCircle
 10
0.1623797631933606
 20
0.6249999999375007
 30
0.0
 40
0.0779999999922
  0
CIRCLE
  5
1A0
330
2
100
AcDbEntity
  8
0
100
AcDbCircle
 10
1.537379763055867
 20
0.3124999999687432
 30
0.0
 40
0.0779999999922
  0
LINE
  5
1A1
330
2
100
AcDbEntity
  8
0
100
AcDbLine
 10
-0.6658702367238192
 20
6.015499999398575
 30
0.0
 11
-0.6658702367238192
 21
2.827999999717196
 31
0.0
  0
LINE
  5
1A2
330
2
100
AcDbEntity
  8
0
100
AcDbLine
 10
-0.6189952367238192
 20
6.249999999375007
 30
0.0
 11
-0.6189952367238192
 21
2.827999999717196
 31
0.0
  0
LINE
  5
1A3
330
2
100
AcDbEntity
  8
0
100
AcDbLine
 10
0.9437547631105332
 20
6.249999999375005
 30
0.0
 11
0.9437547631105403
 21
2.827999999717196
 31
0.0
  0
LINE
  5
1A4
330
2
100
AcDbEntity
  8
0
100
AcDbLine
 10
0.9906297631105332
 20
6.015499999398575
 30
0.0
 11
0.9906297631105403
 21
2.827999999717196
 31
0.0
  0
LINE
  5
1A5
330
2
100
AcDbEntity
  8
0
100
AcDbLine
 10
1.787379763030856
 20
6.249999999374992
 30
0.0
 11
2.66237976294336
 21
5.374999999462494
 31
0.0
  0
LINE
  5
1A6
330
2
100
AcDbEntity
  8
0
100
AcDbLine
 10
-1.462620236644138
 20
6.249999999375007
 30
0.0
 11
-2.337620236556631
 21
5.374999999462508
 31
0.0
  0
LINE
  5
1A7
330
2
100
AcDbEntity
  8
0
100
AcDbLine
 10
0.7877547631309199
 20
2.749999999724848
 30
0.0
 11
-0.4628952367440213
 21
2.749999999724983
 31
0.0
  0
ARC
  5
1A8
330
2
100
AcDbEntity
  8
0
100
AcDbCircle
 10
-1.580400956630044
 20
3.437483332989585
 30
0.0
 40
0.08549999999145
100
AcDbArc
 50
91.49999999999957
 51
268.5000000000016
  0
ARC
  5
1A9
330
2
100
AcDbEntity
  8
0
100
AcDbCircle
 10
-1.547499723373811
 20
3.437483332989585
 30
0.0
 40
0.08549999999145
100
AcDbArc
 50
91.49999999999957
 51
268.5000000000016
  0
ARC
  5
1AA
330
2
100
AcDbEntity
  8
0
100
AcDbCircle
 10
-1.650120236625394
 20
3.437483332989585
 30
0.0
 40
0.08549999999145
100
AcDbArc
 50
91.49999999999957
 51
268.5000000000016
  0
LINE
  5
1AB
330
2
100
AcDbEntity
  8
0
100
AcDbLine
 10
-1.395620236650839
 20
3.529676958777694
 30
0.0
 11
-1.395620236650839
 21
3.345289707201482
 31
0.0
  0
LINE
  5
1AC
330
2
100
AcDbEntity
  8
0
100
AcDbLine
 10
-1.449620236645441
 20
3.346703746966075
 30
0.0
 11
-1.449620236645441
 21
3.528262919013097
 31
0.0
  0
ARC
  5
1AD
330
2
100
AcDbEntity
  8
0
100
AcDbCircle
 10
-2.016617801006166
 20
3.522810696988703
 30
0.0
 40
0.093749999990625
100
AcDbArc
 50
135.0000000000001
 51
315.0
  0
CIRCLE
  5
1AE
330
2
100
AcDbEntity
  8
0
100
AcDbCircle
 10
-1.962620236594145
 20
1.999999999800002
 30
0.0
 40
0.0779999999922
  0
CIRCLE
  5
1AF
330
2
100
AcDbEntity
  8
0
100
AcDbCircle
 10
-0.8376202367066341
 20
1.624999999837494
 30
0.0
 40
0.0779999999922
  0
LINE
  5
1B2
330
2
100
AcDbEntity
  8
0
100
AcDbLine
 10
-1.652358365705489
 20
3.352012631712723
 30
0.0
 11
-1.395620236650839
 21
3.345289707201482
 31
0.0
  0
ARC
  5
1B3
330
2
100
AcDbEntity
  8
0
100
AcDbCircle
 10
-1.603120236630083
 20
2.749999999725
 30
0.0
 40
0.0779999999922
100
AcDbArc
 50
270.0
 51
90.0
  0
ARC
  5
1B4
330
2
100
AcDbEntity
  8
0
100
AcDbCircle
 10
-1.697120236620691
 20
2.749999999725
 30
0.0
 40
0.0779999999922
100
AcDbArc
 50
90.0
 51
270.0
  0
LINE
  5
1B5
330
2
100
AcDbEntity
  8
0
100
AcDbLine
 10
-1.603120236630083
 20
2.671999999732797
 30
0.0
 11
-1.697120236620691
 21
2.671999999732797
 31
0.0
  0
LINE
  5
1B6
330
2
100
AcDbEntity
  8
0
100
AcDbLine
 10
-1.603120236630083
 20
2.827999999717196
 30
0.0
 11
-1.697120236620691
 21
2.827999999717196
 31
0.0
  0
ARC
  5
1B7
330
2
100
AcDbEntity
  8
0
100
AcDbCircle
 10
-0.8533952367049729
 20
2.749999999725
 30
0.0
 40
0.0779999999922
100
AcDbArc
 50
90.0
 51
270.0
  0
LINE
  5
1B8
330
2
100
AcDbEntity
  8
0
100
AcDbLine
 10
-0.8533952367049729
 20
2.671999999732797
 30
0.0
 11
-0.5408952367362261
 21
2.671999999732797
 31
0.0
  0
ARC
  5
1B9
330
2
100
AcDbEntity
  8
0
100
AcDbCircle
 10
-0.5408952367362261
 20
2.749999999725
 30
0.0
 40
0.0779999999922
100
AcDbArc
 50
270.0
 51
359.999999999987
  0
LINE
  5
1BA
330
2
100
AcDbEntity
  8
0
100
AcDbLine
 10
-0.8533952367049729
 20
2.827999999717196
 30
0.0
 11
-0.6189952367238192
 21
2.827999999717196
 31
0.0
  0
LINE
  5
1BB
330
2
100
AcDbEntity
  8
0
100
AcDbLine
 10
-0.6189952367238174
 20
3.181510725806346
 30
0.0
 11
-0.6658702367238192
 21
3.181510725806346
 31
0.0
  0
ARC
  5
1BC
330
2
100
AcDbEntity
  8
0
100
AcDbCircle
 10
-1.580400956630044
 20
4.562483332877086
 30
0.0
 40
0.08549999999145
100
AcDbArc
 50
91.49999999999957
 51
268.5000000000016
  0
ARC
  5
1BD
330
2
100
AcDbEntity
  8
0
100
AcDbCircle
 10
-1.547499723373811
 20
4.562483332877086
 30
0.0
 40
0.08549999999145
100
AcDbArc
 50
91.49999999999957
 51
268.5000000000016
  0
LINE
  5
1BE
330
2
100
AcDbEntity
  8
0
100
AcDbLine
 10
-1.449620236645441
 20
4.471703746853576
 30
0.0
 11
-1.449620236645441
 21
4.653262918900598
 31
0.0
  0
LINE
  5
1BF
330
2
100
AcDbEntity
  8
0
100
AcDbLine
 10
-1.395620236650839
 20
4.654676958665196
 30
0.0
 11
-1.395620236650839
 21
4.470289707088984
 31
0.0
  0
ARC
  5
1C0
330
2
100
AcDbEntity
  8
0
100
AcDbCircle
 10
-1.650120236625394
 20
4.562483332877086
 30
0.0
 40
0.08549999999145
100
AcDbArc
 50
91.49999999999957
 51
268.5000000000016
  0
ARC
  5
1C1
330
2
100
AcDbEntity
  8
0
100
AcDbCircle
 10
-2.016617801006166
 20
4.722810696868702
 30
0.0
 40
0.093749999990625
100
AcDbArc
 50
135.0000000000001
 51
315.0
  0
LINE
  5
1C2
330
2
100
AcDbEntity
  8
0
100
AcDbLine
 10
-1.100384189378717
 20
4.37434403815084
 30
0.0
 11
-1.984267665773521
 21
3.49046056175605
 31
0.0
  0
LINE
  5
1C3
330
2
100
AcDbEntity
  8
0
100
AcDbLine
 10
-1.165084459844033
 20
4.439044308616152
 30
0.0
 11
-2.048967936238826
 21
3.555160832221356
 31
0.0
  0
LINE
  5
1C4
330
2
100
AcDbEntity
  8
0
100
AcDbLine
 10
-1.652358365705489
 20
4.477012631600225
 30
0.0
 11
-1.395620236650839
 21
4.470289707088984
 31
0.0
  0
LINE
  5
1C5
330
2
100
AcDbEntity
  8
0
100
AcDbLine
 10
-1.652358365705496
 20
3.522954034266448
 30
0.0
 11
-1.395620236650839
 21
3.529676958777694
 31
0.0
  0
LINE
  5
1C6
330
2
100
AcDbEntity
  8
0
100
AcDbLine
 10
-1.199025585340987
 20
4.472985434113106
 30
0.0
 11
-2.08290906173578
 21
3.589101957718309
 31
0.0
  0
LINE
  5
1C7
330
2
100
AcDbEntity
  8
0
100
AcDbLine
 10
-1.066443063881764
 20
4.340402912653886
 30
0.0
 11
-1.950326540276567
 21
3.456519436259097
 31
0.0
  0
ARC
  5
1C8
330
2
100
AcDbEntity
  8
0
100
AcDbCircle
 10
-2.016617801006166
 20
3.522810696988703
 30
0.0
 40
0.045749999990625
100
AcDbArc
 50
135.0000000000001
 51
315.0
  0
LINE
  5
1C9
330
2
100
AcDbEntity
  8
0
100
AcDbLine
 10
-0.6189952367238192
 20
3.488284607730408
 30
0.0
 11
-0.6189952367238192
 21
3.56090793679102
 31
0.0
  0
ARC
  5
1CA
330
2
100
AcDbEntity
  8
0
100
AcDbCircle
 10
-1.132734324611374
 20
4.406694173383499
 30
0.0
 40
0.093749999990625
100
AcDbArc
 50
315.0
 51
135.0000000000001
  0
ARC
  5
1CB
330
2
100
AcDbEntity
  8
0
100
AcDbCircle
 10
-1.132734324611374
 20
4.406694173383499
 30
0.0
 40
0.045749999990625
100
AcDbArc
 50
315.0
 51
135.0000000000001
  0
LINE
  5
1CC
330
2
100
AcDbEntity
  8
0
100
AcDbLine
 10
-1.100384189378717
 20
5.574344038030839
 30
0.0
 11
-1.984267665773521
 21
4.69046056163605
 31
0.0
  0
LINE
  5
1CD
330
2
100
AcDbEntity
  8
0
100
AcDbLine
 10
-1.165084459844033
 20
5.639044308496152
 30
0.0
 11
-2.048967936238826
 21
4.755160832101355
 31
0.0
  0
LINE
  5
1CE
330
2
100
AcDbEntity
  8
0
100
AcDbLine
 10
-1.652358365705496
 20
4.647954034153949
 30
0.0
 11
-1.395620236650839
 21
4.654676958665196
 31
0.0
  0
LINE
  5
1CF
330
2
100
AcDbEntity
  8
0
100
AcDbLine
 10
-1.066443063881764
 20
5.540402912533885
 30
0.0
 11
-1.950326540276567
 21
4.656519436139096
 31
0.0
  0
LINE
  5
1D0
330
2
100
AcDbEntity
  8
0
100
AcDbLine
 10
-1.199025585340987
 20
5.672985433993105
 30
0.0
 11
-2.08290906173578
 21
4.789101957598309
 31
0.0
  0
ARC
  5
1D1
330
2
100
AcDbEntity
  8
0
100
AcDbCircle
 10
-2.016617801006166
 20
4.722810696868702
 30
0.0
 40
0.045749999990625
100
AcDbArc
 50
135.0000000000001
 51
315.0
  0
POINT
  5
1D2
330
2
100
AcDbEntity
  8
0
100
AcDbPoint
 10
-2.337620236556631
 20
5.374999999462508
 30
0.0
  0
POINT
  5
1D3
330
2
100
AcDbEntity
  8
0
100
AcDbPoint
 10
-2.337620236556631
 20
5.374999999462508
 30
0.0
  0
ARC
  5
1D4
330
2
100
AcDbEntity
  8
0
100
AcDbCircle
 10
-1.132734324611374
 20
5.606694173263499
 30
0.0
 40
0.093749999990625
100
AcDbArc
 50
315.0
 51
135.0000000000001
  0
ARC
  5
1D5
330
2
100
AcDbEntity
  8
0
100
AcDbCircle
 10
-1.132734324611374
 20
5.606694173263499
 30
0.0
 40
0.045749999990625
100
AcDbArc
 50
315.0
 51
135.0000000000001
  0
POINT
  5
1D6
330
2
100
AcDbEntity
  8
0
100
AcDbPoint
 10
-0.6658702367238192
 20
5.817555632019181
 30
0.0
  0
ARC
  5
1D7
330
2
100
AcDbEntity
  8
0
100
AcDbCircle
 10
1.90526048301694
 20
3.437483332989585
 30
0.0
 40
0.08549999999145
100
AcDbArc
 50
271.4999999999984
 51
88.5000000000004
  0
ARC
  5
1D8
330
2
100
AcDbEntity
  8
0
100
AcDbCircle
 10
1.872359249760708
 20
3.437483332989585
 30
0.0
 40
0.08549999999145
100
AcDbArc
 50
271.4999999999984
 51
88.5000000000004
  0
ARC
  5
1D9
330
2
100
AcDbEntity
  8
0
100
AcDbCircle
 10
1.974879763012119
 20
3.437483332989578
 30
0.0
 40
0.08549999999145
100
AcDbArc
 50
271.4999999999996
 51
88.50000000000162
  0
LINE
  5
1DA
330
2
100
AcDbEntity
  8
0
100
AcDbLine
 10
1.720379763037563
 20
3.345289707201475
 30
0.0
 11
1.720379763037563
 21
3.52967695877768
 31
0.0
  0
LINE
  5
1DB
330
2
100
AcDbEntity
  8
0
100
AcDbLine
 10
1.774379763032165
 20
3.528262919013089
 30
0.0
 11
1.774379763032165
 21
3.346703746966075
 31
0.0
  0
ARC
  5
1DC
330
2
100
AcDbEntity
  8
0
100
AcDbCircle
 10
2.341377327392898
 20
3.522810696988703
 30
0.0
 40
0.093749999990625
100
AcDbArc
 50
225.0
 51
44.99999999999996
  0
ARC
  5
1DD
330
2
100
AcDbEntity
  8
0
100
AcDbCircle
 10
1.927879763016819
 20
2.749999999725
 30
0.0
 40
0.0779999999922
100
AcDbArc
 50
90.0
 51
270.0
  0
LINE
  5
1E0
330
2
100
AcDbEntity
  8
0
100
AcDbLine
 10
1.977117892092217
 20
3.352012631712716
 30
0.0
 11
1.720379763037563
 21
3.345289707201475
 31
0.0
  0
CIRCLE
  5
1E1
330
2
100
AcDbEntity
  8
0
100
AcDbCircle
 10
1.162379763093369
 20
2.124999999787494
 30
0.0
 40
0.0779999999922
  0
CIRCLE
  5
1E2
330
2
100
AcDbEntity
  8
0
100
AcDbCircle
 10
0.1623797631933677
 20
1.874999999812502
 30
0.0
 40
0.0779999999922
  0
ARC
  5
1E3
330
2
100
AcDbEntity
  8
0
100
AcDbCircle
 10
0.8657547631230251
 20
2.749999999725
 30
0.0
 40
0.0779999999922
100
AcDbArc
 50
180.0000000001122
 51
270.0
  0
ARC
  5
1E4
330
2
100
AcDbEntity
  8
0
100
AcDbCircle
 10
1.178254763091776
 20
2.749999999725
 30
0.0
 40
0.0779999999922
100
AcDbArc
 50
270.0
 51
90.0
  0
LINE
  5
1E5
330
2
100
AcDbEntity
  8
0
100
AcDbLine
 10
1.178254763091776
 20
2.671999999732797
 30
0.0
 11
0.8657547631230251
 21
2.671999999732797
 31
0.0
  0
LINE
  5
1E6
330
2
100
AcDbEntity
  8
0
100
AcDbLine
 10
1.178254763091776
 20
2.827999999717196
 30
0.0
 11
0.9437547631105403
 21
2.827999999717198
 31
0.0
  0
LINE
  5
1E7
330
2
100
AcDbEntity
  8
0
100
AcDbLine
 10
0.9906297631105385
 20
3.181510725806346
 30
0.0
 11
0.9437547631105385
 21
3.181510725806346
 31
0.0
  0
CIRCLE
  5
1E8
330
2
100
AcDbEntity
  8
0
100
AcDbCircle
 10
2.287379762980869
 20
1.749999999825
 30
0.0
 40
0.0779999999922
  0
ARC
  5
1E9
330
2
100
AcDbEntity
  8
0
100
AcDbCircle
 10
2.021879763007416
 20
2.749999999725
 30
0.0
 40
0.0779999999922
100
AcDbArc
 50
270.0
 51
90.0
  0
LINE
  5
1EA
330
2
100
AcDbEntity
  8
0
100
AcDbLine
 10
2.021879763007416
 20
2.671999999732797
 30
0.0
 11
1.927879763016819
 21
2.671999999732797
 31
0.0
  0
LINE
  5
1EB
330
2
100
AcDbEntity
  8
0
100
AcDbLine
 10
2.021879763007416
 20
2.827999999717196
 30
0.0
 11
1.927879763016819
 21
2.827999999717196
 31
0.0
  0
LINE
  5
1EC
330
2
100
AcDbEntity
  8
0
100
AcDbLine
 10
1.425143715765449
 20
4.37434403815084
 30
0.0
 11
2.309027192160253
 21
3.49046056175605
 31
0.0
  0
LINE
  5
1ED
330
2
100
AcDbEntity
  8
0
100
AcDbLine
 10
1.489843986230762
 20
4.439044308616152
 30
0.0
 11
2.373727462625558
 21
3.555160832221356
 31
0.0
  0
LINE
  5
1EE
330
2
100
AcDbEntity
  8
0
100
AcDbLine
 10
1.425143715765449
 20
5.574344038030839
 30
0.0
 11
2.309027192160253
 21
4.69046056163605
 31
0.0
  0
LINE
  5
1EF
330
2
100
AcDbEntity
  8
0
100
AcDbLine
 10
1.489843986230762
 20
5.639044308496152
 30
0.0
 11
2.373727462625558
 21
4.755160832101355
 31
0.0
  0
ARC
  5
1F0
330
2
100
AcDbEntity
  8
0
100
AcDbCircle
 10
1.90526048301694
 20
4.562483332877086
 30
0.0
 40
0.08549999999145
100
AcDbArc
 50
271.4999999999984
 51
88.5000000000004
  0
ARC
  5
1F1
330
2
100
AcDbEntity
  8
0
100
AcDbCircle
 10
1.872359249760708
 20
4.562483332877086
 30
0.0
 40
0.08549999999145
100
AcDbArc
 50
271.4999999999984
 51
88.5000000000004
  0
LINE
  5
1F2
330
2
100
AcDbEntity
  8
0
100
AcDbLine
 10
1.977117892092217
 20
4.477012631600218
 30
0.0
 11
1.720379763037563
 21
4.470289707088977
 31
0.0
  0
LINE
  5
1F3
330
2
100
AcDbEntity
  8
0
100
AcDbLine
 10
1.97711789209221
 20
4.647954034153949
 30
0.0
 11
1.720379763037563
 21
4.654676958665181
 31
0.0
  0
LINE
  5
1F4
330
2
100
AcDbEntity
  8
0
100
AcDbLine
 10
1.97711789209221
 20
3.522954034266448
 30
0.0
 11
1.720379763037563
 21
3.52967695877768
 31
0.0
  0
LINE
  5
1F5
330
2
100
AcDbEntity
  8
0
100
AcDbLine
 10
1.523785111727715
 20
5.672985433993105
 30
0.0
 11
2.407668588122512
 21
4.789101957598309
 31
0.0
  0
LINE
  5
1F6
330
2
100
AcDbEntity
  8
0
100
AcDbLine
 10
1.391202590268495
 20
5.540402912533885
 30
0.0
 11
2.275086066663299
 21
4.656519436139096
 31
0.0
  0
LINE
  5
1F7
330
2
100
AcDbEntity
  8
0
100
AcDbLine
 10
1.391202590268495
 20
4.340402912653886
 30
0.0
 11
2.275086066663299
 21
3.456519436259097
 31
0.0
  0
LINE
  5
1F8
330
2
100
AcDbEntity
  8
0
100
AcDbLine
 10
1.523785111727715
 20
4.472985434113106
 30
0.0
 11
2.407668588122512
 21
3.589101957718309
 31
0.0
  0
LINE
  5
1F9
330
2
100
AcDbEntity
  8
0
100
AcDbLine
 10
1.720379763037563
 20
4.470289707088977
 30
0.0
 11
1.720379763037563
 21
4.654676958665181
 31
0.0
  0
LINE
  5
1FA
330
2
100
AcDbEntity
  8
0
100
AcDbLine
 10
1.774379763032165
 20
4.653262918900591
 30
0.0
 11
1.774379763032165
 21
4.471703746853576
 31
0.0
  0
LINE
  5
1FB
330
2
100
AcDbEntity
  8
0
100
AcDbLine
 10
0.9437547631105385
 20
3.488284607730408
 30
0.0
 11
0.9437547631105385
 21
3.56090793679102
 31
0.0
  0
ARC
  5
1FC
330
2
100
AcDbEntity
  8
0
100
AcDbCircle
 10
1.457493850998102
 20
4.406694173383499
 30
0.0
 40
0.093749999990625
100
AcDbArc
 50
44.99999999999996
 51
225.0
  0
ARC
  5
1FD
330
2
100
AcDbEntity
  8
0
100
AcDbCircle
 10
1.457493850998102
 20
4.406694173383499
 30
0.0
 40
0.045749999990625
100
AcDbArc
 50
44.99999999999996
 51
225.0
  0
POINT
  5
1FE
330
2
100
AcDbEntity
  8
0
100
AcDbPoint
 10
0.9906297631105332
 20
5.710156080235086
 30
0.0
  0
ARC
  5
1FF
330
2
100
AcDbEntity
  8
0
100
AcDbCircle
 10
1.457493850998102
 20
5.606694173263499
 30
0.0
 40
0.093749999990625
100
AcDbArc
 50
44.99999999999996
 51
225.0
  0
ARC
  5
200
330
2
100
AcDbEntity
  8
0
100
AcDbCircle
 10
1.457493850998102
 20
5.606694173263499
 30
0.0
 40
0.045749999990625
100
AcDbArc
 50
44.99999999999996
 51
225.0
  0
ARC
  5
201
330
2
100
AcDbEntity
  8
0
100
AcDbCircle
 10
1.974879763012119
 20
4.562483332877079
 30
0.0
 40
0.08549999999145
100
AcDbArc
 50
271.4999999999996
 51
88.50000000000162
  0
ARC
  5
202
330
2
100
AcDbEntity
  8
0
100
AcDbCircle
 10
2.341377327392898
 20
4.722810696868702
 30
0.0
 40
0.093749999990625
100
AcDbArc
 50
225.0
 51
44.99999999999996
  0
ARC
  5
203
330
2
100
AcDbEntity
  8
0
100
AcDbCircle
 10
2.341377327392898
 20
3.522810696988703
 30
0.0
 40
0.045749999990625
100
AcDbArc
 50
225.0
 51
44.99999999999996
  0
ARC
  5
204
330
2
100
AcDbEntity
  8
0
100
AcDbCircle
 10
2.341377327392898
 20
4.722810696868702
 30
0.0
 40
0.045749999990625
100
AcDbArc
 50
225.0
 51
44.99999999999996
  0
POINT
  5
205
330
2
100
AcDbEntity
  8
0
100
AcDbPoint
 10
2.66237976294336
 20
5.374999999462494
 30
0.0
  0
LINE
  5
206
330
2
100
AcDbEntity
  8
0
100
AcDbLine
 10
-0.6189952367238192
 20
6.249999999375005
 30
0.0
 11
-1.462620236644138
 21
6.249999999375007
 31
0.0
  0
POINT
  5
207
330
2
100
AcDbEntity
  8
0
100
AcDbPoint
 10
-1.462620236644138
 20
6.249999999375007
 30
0.0
  0
POINT
  5
208
330
2
100
AcDbEntity
  8
0
100
AcDbPoint
 10
-1.354035249199143
 20
6.249999999375005
 30
0.0
  0
LINE
  5
209
330
2
100
AcDbEntity
  8
0
100
AcDbLine
 10
-0.7485137819153263
 20
6.249999999375
 30
0.0
 11
-0.665870236723821
 21
6.015499999398575
 31
0.0
  0
LINE
  5
20A
330
2
100
AcDbEntity
  8
0
100
AcDbLine
 10
-0.7016387819153263
 20
6.249999999375
 30
0.0
 11
-0.618995236723821
 21
6.015499999398575
 31
0.0
  0
LINE
  5
20B
330
2
100
AcDbEntity
  8
0
100
AcDbLine
 10
-0.7156784762982991
 20
6.156830240640961
 30
0.0
 11
-0.6688034762983008
 21
6.156830240640961
 31
0.0
  0
LINE
  5
20C
330
2
100
AcDbEntity
  8
0
100
AcDbLine
 10
0.9437547631105314
 20
6.249999999375005
 30
0.0
 11
1.787379763030851
 21
6.249999999375007
 31
0.0
  0
LINE
  5
20D
330
2
100
AcDbEntity
  8
0
100
AcDbLine
 10
1.026398308302039
 20
6.249999999375
 30
0.0
 11
0.9437547631105332
 21
6.015499999398575
 31
0.0
  0
LINE
  5
20E
330
2
100
AcDbEntity
  8
0
100
AcDbLine
 10
1.073273308302039
 20
6.249999999375
 30
0.0
 11
0.9906297631105332
 21
6.015499999398575
 31
0.0
  0
LINE
  5
20F
330
2
100
AcDbEntity
  8
0
100
AcDbLine
 10
1.040438002685011
 20
6.156830240640961
 30
0.0
 11
0.9935630026850131
 21
6.156830240640961
 31
0.0
  0
ENDSEC
  0
SECTION
  2
OBJECTS
  0
DICTIONARY
  5
9
330
0
100
AcDbDictionary
281
     1
  3
ACAD_COLOR
350
129
  3
ACAD_GROUP
350
23
  3
ACAD_LAYOUT
350
D
  3
ACAD_MATERIAL
350
128
  3
ACAD_MLINESTYLE
350
24
  3
ACAD_PLOTSETTINGS
350
25
  3
ACAD_PLOTSTYLENAME
350
8
  3
ACAD_TABLESTYLE
350
12A
  3
ACDBHEADERROUNDTRIPXREC
350
22A
  3
AcDbVariableDictionary
350
124
  0
DICTIONARY
  5
3
330
2
100
AcDbDictionary
280
     1
281
     1
  3
ACAD_SORTENTS
360
131
  0
DICTIONARY
  5
129
102
{ACAD_REACTORS
330
9
102
}
330
9
100
AcDbDictionary
281
     1
  0
DICTIONARY
  5
23
102
{ACAD_REACTORS
330
9
102
}
330
9
100
AcDbDictionary
281
     1
  0
DICTIONARY
  5
D
102
{ACAD_REACTORS
330
9
102
}
330
9
100
AcDbDictionary
281
     1
  3
Layout1
350
13
  3
Model
350
C
  0
DICTIONARY
  5
128
102
{ACAD_REACTORS
330
9
102
}
330
9
100
AcDbDictionary
281
     1
  0
DICTIONARY
  5
24
102
{ACAD_REACTORS
330
9
102
}
330
9
100
AcDbDictionary
281
     1
  3
STANDARD
350
27
  0
DICTIONARY
  5
25
102
{ACAD_REACTORS
330
9
102
}
330
9
100
AcDbDictionary
281
     1
  0
ACDBDICTIONARYWDFLT
  5
8
102
{ACAD_REACTORS
330
9
102
}
330
9
100
AcDbDictionary
281
     1
  3
Normal
350
7
100
AcDbDictionaryWithDefault
340
7
  0
DICTIONARY
  5
12A
102
{ACAD_REACTORS
330
9
102
}
330
9
100
AcDbDictionary
281
     1
  3
Standard
350
12B
  0
DICTIONARY
  5
22A
102
{ACAD_REACTORS
330
9
102
}
330
9
100
AcDbDictionary
281
     1
  3
COLORDICT
350
22B
  3
MATERIALDICT
350
22C
  0
DICTIONARY
  5
124
102
{ACAD_REACTORS
330
9
102
}
330
9
100
AcDbDictionary
281
     1
  3
CTABLESTYLE
350
217
  3
HIDETEXT
350
229
  0
SORTENTSTABLE
  5
131
102
{ACAD_REACTORS
330
3
102
}
330
3
100
AcDbSortentsTable
330
2
331
19B
  5
13E
331
1CC
  5
16F
331
194
  5
137
331
1AD
  5
150
331
1B6
  5
159
331
1EF
  5
192
331
204
  5
1A7
331
1ED
  5
190
331
1DC
  5
17F
331
193
  5
136
331
1F7
  5
19A
331
1D2
  5
175
331
1D8
  5
17B
331
203
  5
1A6
331
20B
  5
1AE
331
196
  5
139
331
205
  5
1A8
331
1EC
  5
18F
331
20E
  5
1B1
331
1A0
  5
143
331
20A
  5
1AD
331
1E2
  5
185
331
1D1
  5
174
331
1D0
  5
173
331
1DD
  5
180
331
1FA
  5
19D
331
1C9
  5
16C
331
202
  5
1A5
331
1A9
  5
14C
331
1B4
  5
157
331
1BB
  5
15E
331
1CB
  5
16E
331
1AE
  5
151
331
1E0
  5
183
331
1C6
  5
169
331
20F
  5
1B2
331
1D7
  5
17A
331
197
  5
13A
331
1C3
  5
166
331
1A2
  5
145
331
1A8
  5
14B
331
1E3
  5
186
331
1B8
  5
15B
331
1C5
  5
168
331
1AA
  5
14D
331
1B3
  5
156
331
201
  5
1A4
331
200
  5
1A3
331
1E8
  5
18B
331
1FF
  5
1A2
331
192
  5
135
331
206
  5
1A9
331
195
  5
138
331
1CA
  5
16D
331
1F4
  5
197
331
1BE
  5
161
331
1D5
  5
178
331
20C
  5
1AF
331
1BA
  5
15D
331
20D
  5
1B0
331
209
  5
1AC
331
1AB
  5
14E
331
1CF
  5
172
331
1E1
  5
184
331
1BD
  5
160
331
1FB
  5
19E
331
1D3
  5
176
331
1BC
  5
15F
331
1F5
  5
198
331
1D9
  5
17C
331
1F8
  5
19B
331
1C1
  5
164
331
1BF
  5
162
331
1C2
  5
165
331
1DB
  5
17E
331
1B9
  5
15C
331
1C7
  5
16A
331
1CE
  5
171
331
1B5
  5
158
331
1B2
  5
155
331
198
  5
13B
331
1E5
  5
188
331
1EE
  5
191
331
1F6
  5
199
331
208
  5
1AB
331
1FC
  5
19F
331
1F9
  5
19C
331
1A7
  5
14A
331
1E7
  5
18A
331
1C4
  5
167
331
1FD
  5
1A0
331
1A4
  5
147
331
1AC
  5
14F
331
1F2
  5
195
331
1E9
  5
18C
331
1D6
  5
179
331
1E6
  5
189
331
1F1
  5
194
331
1AF
  5
152
331
1A1
  5
144
331
1A6
  5
149
331
1EA
  5
18D
331
19E
  5
141
331
19F
  5
142
331
19D
  5
140
331
1F0
  5
193
331
19C
  5
13F
331
1B7
  5
15A
331
1A5
  5
148
331
207
  5
1AA
331
1C8
  5
16B
331
19A
  5
13D
331
1CD
  5
170
331
199
  5
13C
331
1D4
  5
177
331
1A3
  5
146
331
1F3
  5
196
331
1EB
  5
18E
331
1FE
  5
1A1
331
1E4
  5
187
331
1DA
  5
17D
331
1C0
  5
163
  0
LAYOUT
  5
13
102
{ACAD_REACTORS
330
D
102
}
102
{ACAD_XDICTIONARY
360
22D
102
}
330
D
100
AcDbPlotSettings
  1

  2
HP LaserJet 4
  4

  6

 40
0.0
 41
0.0
 42
0.0
 43
0.0
 44
0.0
 45
0.0
 46
0.0
 47
0.0
 48
0.0
 49
0.0
140
0.0
141
0.0
142
1.0
143
1.0
 70
   688
 72
     0
 73
     0
 74
     5
  7

 75
    16
147
1.0
148
0.0
149
0.0
100
AcDbLayout
  1
Layout1
 70
     0
 71
     1
 10
0.0
 20
0.0
 11
12.0
 21
9.0
 12
0.0
 22
0.0
 32
0.0
 14
1.000000000000000E+20
 24
1.000000000000000E+20
 34
1.000000000000000E+20
 15
-1.000000000000000E+20
 25
-1.000000000000000E+20
 35
-1.000000000000000E+20
146
0.0
 13
0.0
 23
0.0
 33
0.0
 16
1.0
 26
0.0
 36
0.0
 17
0.0
 27
1.0
 37
0.0
 76
     0
330
E
  0
LAYOUT
  5
C
102
{ACAD_REACTORS
330
D
102
}
102
{ACAD_XDICTIONARY
360
22F
102
}
330
D
100
AcDbPlotSettings
  1

  2
HP LaserJet 4
  4
Letter
  6

 40
7.143749713897705
 41
6.127734661102295
 42
7.14373779296875
 43
7.14373779296875
 44
215.8999938964844
 45
279.3999938964844
 46
0.0
 47
0.0
 48
0.0
 49
0.0
140
0.0
141
0.0
142
1.0
143
1.0
 70
 11952
 72
     0
 73
     1
 74
     0
  7

 75
     0
147
1.0
148
-167.083527895903
149
6.421373101192719
100
AcDbLayout
  1
Model
 70
     1
 71
     0
 10
0.0
 20
0.0
 11
12.0
 21
9.0
 12
0.0
 22
0.0
 32
0.0
 14
0.0
 24
0.0
 34
0.0
 15
0.0
 25
0.0
 35
0.0
146
0.0
 13
0.0
 23
0.0
 33
0.0
 16
1.0
 26
0.0
 36
0.0
 17
0.0
 27
1.0
 37
0.0
 76
     0
330
2
  0
MLINESTYLE
  5
27
102
{ACAD_REACTORS
330
24
102
}
330
24
100
AcDbMlineStyle
  2
STANDARD
 70
     0
  3

 62
   256
 51
90.0
 52
90.0
 71
     2
 49
0.5
 62
   256
  6
BYLAYER
 49
-0.5
 62
   256
  6
BYLAYER
  0
ACDBPLACEHOLDER
  5
7
102
{ACAD_REACTORS
330
8
102
}
330
8
  0
ACAD_PROXY_OBJECT
  5
12B
102
{ACAD_REACTORS
330
12A
102
}
330
12A
100
AcDbProxyObject
 90
      499
 91
      537
 95
   983063
 70
     0
 93
     1841
310
4214DD185B99185C9928B81E85EB51B8AE3F2E07A17AD46E2B8FC02B5E8DC0F42B1CFD028000000C1008070000C3001FDFF8000000C1003FBFF000000182007F7FE00000030400FEFFC00000060801FDFF8000000C1003FBFF00000018200000000000000681FA0B0000001820100E000186003FBFF000000182007F7FE000
310
00030400FEFFC00000060801FDFF8000000C1003FBFF000000182007F7FE000000304000AD7A3703D0AC73F4160000003040201C00030C007F7FE00000030400FEFFC00000060801FDFF8000000C1003FBFF000000182007F7FE00000030400FEFFC000000608000
340
16
340
16
340
16
 94
        0
  0
XRECORD
  5
22B
102
{ACAD_REACTORS
330
22A
102
}
330
22A
100
AcDbXrecord
340
129
  0
XRECORD
  5
22C
102
{ACAD_REACTORS
330
22A
102
}
330
22A
100
AcDbXrecord
340
128
  0
DICTIONARYVAR
  5
217
102
{ACAD_REACTORS
330
124
102
}
330
124
100
DictionaryVariables
280
     0
  1
STANDARD
  0
DICTIONARYVAR
  5
229
102
{ACAD_REACTORS
330
124
102
}
330
124
100
DictionaryVariables
280
     0
  1
0
  0
DICTIONARY
  5
22D
330
13
100
AcDbDictionary
280
     1
281
     1
  3
ACAD_XREC_ROUNDTRIP
360
22E
  0
DICTIONARY
  5
22F
330
C
100
AcDbDictionary
280
     1
281
     1
  3
ACAD_XREC_ROUNDTRIP
360
230
  0
XRECORD
  5
22E
102
{ACAD_REACTORS
330
22D
102
}
330
22D
100
AcDbXrecord
102
SHADEPLOT
 70
     0
102
SHADEPLOTRESLEVEL
 70
     2
102
SHADEPLOTCUSTOMDPI
 70
   300
  0
XRECORD
  5
230
102
{ACAD_REACTORS
330
22F
102
}
330
22F
100
AcDbXrecord
102
SHADEPLOT
 70
     0
102
SHADEPLOTRESLEVEL
 70
     2
102
SHADEPLOTCUSTOMDPI
 70
   300
  0
ENDSEC
  0
EOF
