  0
SECTION
  2
HEADER
  9
$ACADVER
  1
AC1018
  9
$ACADMAINTVER
 70
     6
  9
$DWGCODEPAGE
  3
ANSI_1252
  9
$INSBASE
 10
0.0
 20
0.0
 30
0.0
  9
$EXTMIN
 10
-6.59407923234884
 20
-0.0002501877304866
 30
-0.0000000000112498
  9
$EXTMAX
 10
6.854848036281496
 20
9.538715494261602
 30
0.0000000000002956
  9
$LIMMIN
 10
-0.0625
 20
-0.0625
  9
$LIMMAX
 10
21.12826639170268
 20
15.63285024802469
  9
$ORTHOMODE
 70
     1
  9
$REGENMODE
 70
     1
  9
$FILLMODE
 70
     1
  9
$QTEXTMODE
 70
     0
  9
$MIRRTEXT
 70
     1
  9
$LTSCALE
 40
0.5
  9
$ATTMODE
 70
     1
  9
$TEXTSIZE
 40
0.18
  9
$TRACEWID
 40
0.05
  9
$TEXTSTYLE
  7
STANDARD
  9
$CLAYER
  8
0
  9
$CELTYPE
  6
BYLAYER
  9
$CECOLOR
 62
   256
  9
$CELTSCALE
 40
1.0
  9
$DISPSILH
 70
     0
  9
$DIMSCALE
 40
2.0
  9
$DIMASZ
 40
0.125
  9
$DIMEXO
 40
0.062
  9
$DIMDLI
 40
0.375
  9
$DIMRND
 40
0.0
  9
$DIMDLE
 40
0.0
  9
$DIMEXE
 40
0.08
  9
$DIMTP
 40
0.0
  9
$DIMTM
 40
0.0
  9
$DIMTXT
 40
0.09
  9
$DIMCEN
 40
0.0275
  9
$DIMTSZ
 40
0.0
  9
$DIMTOL
 70
     0
  9
$DIMLIM
 70
     0
  9
$DIMTIH
 70
     1
  9
$DIMTOH
 70
     1
  9
$DIMSE1
 70
     0
  9
$DIMSE2
 70
     0
  9
$DIMTAD
 70
     0
  9
$DIMZIN
 70
     0
  9
$DIMBLK
  1

  9
$DIMASO
 70
     0
  9
$DIMSHO
 70
     0
  9
$DIMPOST
  1

  9
$DIMAPOST
  1

  9
$DIMALT
 70
     0
  9
$DIMALTD
 70
     2
  9
$DIMALTF
 40
25.4
  9
$DIMLFAC
 40
1.0
  9
$DIMTOFL
 70
     0
  9
$DIMTVP
 40
0.0
  9
$DIMTIX
 70
     0
  9
$DIMSOXD
 70
     0
  9
$DIMSAH
 70
     0
  9
$DIMBLK1
  1

  9
$DIMBLK2
  1

  9
$DIMSTYLE
  2
STANDARD
  9
$DIMCLRD
 70
     0
  9
$DIMCLRE
 70
     0
  9
$DIMCLRT
 70
     0
  9
$DIMTFAC
 40
1.0
  9
$DIMGAP
 40
0.09
  9
$DIMJUST
 70
     0
  9
$DIMSD1
 70
     0
  9
$DIMSD2
 70
     0
  9
$DIMTOLJ
 70
     1
  9
$DIMTZIN
 70
     0
  9
$DIMALTZ
 70
     0
  9
$DIMALTTZ
 70
     0
  9
$DIMUPT
 70
     0
  9
$DIMDEC
 70
     5
  9
$DIMTDEC
 70
     5
  9
$DIMALTU
 70
     5
  9
$DIMALTTD
 70
     2
  9
$DIMTXSTY
  7
STANDARD
  9
$DIMAUNIT
 70
     0
  9
$DIMADEC
 70
     0
  9
$DIMALTRND
 40
0.0
  9
$DIMAZIN
 70
     0
  9
$DIMDSEP
 70
    46
  9
$DIMATFIT
 70
     3
  9
$DIMFRAC
 70
     2
  9
$DIMLDRBLK
  1

  9
$DIMLUNIT
 70
     5
  9
$DIMLWD
 70
    -2
  9
$DIMLWE
 70
    -2
  9
$DIMTMOVE
 70
     2
  9
$LUNITS
 70
     5
  9
$LUPREC
 70
     5
  9
$SKETCHINC
 40
0.1
  9
$FILLETRAD
 40
0.0
  9
$AUNITS
 70
     0
  9
$AUPREC
 70
     0
  9
$MENU
  1
simpson
  9
$ELEVATION
 40
0.0
  9
$PELEVATION
 40
0.0
  9
$THICKNESS
 40
0.0
  9
$LIMCHECK
 70
     0
  9
$CHAMFERA
 40
0.0
  9
$CHAMFERB
 40
0.0
  9
$CHAMFERC
 40
0.0
  9
$CHAMFERD
 40
0.0
  9
$SKPOLY
 70
     0
  9
$TDCREATE
 40
2449230.774080903
  9
$TDUCREATE
 40
2449231.107414236
  9
$TDUPDATE
 40
2454434.821130579
  9
$TDUUPDATE
 40
2454435.154463912
  9
$TDINDWG
 40
0.4516983218
  9
$TDUSRTIMER
 40
0.4516983218
  9
$USRTIMER
 70
     1
  9
$ANGBASE
 50
0.0
  9
$ANGDIR
 70
     0
  9
$PDMODE
 70
     0
  9
$PDSIZE
 40
0.0
  9
$PLINEWID
 40
0.0
  9
$SPLFRAME
 70
     0
  9
$SPLINETYPE
 70
     6
  9
$SPLINESEGS
 70
     8
  9
$HANDSEED
  5
1F8A
  9
$SURFTAB1
 70
     6
  9
$SURFTAB2
 70
     6
  9
$SURFTYPE
 70
     6
  9
$SURFU
 70
     6
  9
$SURFV
 70
     6
  9
$UCSBASE
  2

  9
$UCSNAME
  2

  9
$UCSORG
 10
0.0
 20
0.0
 30
0.0
  9
$UCSXDIR
 10
1.0
 20
0.0
 30
0.0
  9
$UCSYDIR
 10
0.0
 20
1.0
 30
0.0
  9
$UCSORTHOREF
  2

  9
$UCSORTHOVIEW
 70
     0
  9
$UCSORGTOP
 10
0.0
 20
0.0
 30
0.0
  9
$UCSORGBOTTOM
 10
0.0
 20
0.0
 30
0.0
  9
$UCSORGLEFT
 10
0.0
 20
0.0
 30
0.0
  9
$UCSORGRIGHT
 10
0.0
 20
0.0
 30
0.0
  9
$UCSORGFRONT
 10
0.0
 20
0.0
 30
0.0
  9
$UCSORGBACK
 10
0.0
 20
0.0
 30
0.0
  9
$PUCSBASE
  2

  9
$PUCSNAME
  2

  9
$PUCSORG
 10
0.0
 20
0.0
 30
0.0
  9
$PUCSXDIR
 10
1.0
 20
0.0
 30
0.0
  9
$PUCSYDIR
 10
0.0
 20
1.0
 30
0.0
  9
$PUCSORTHOREF
  2

  9
$PUCSORTHOVIEW
 70
     0
  9
$PUCSORGTOP
 10
0.0
 20
0.0
 30
0.0
  9
$PUCSORGBOTTOM
 10
0.0
 20
0.0
 30
0.0
  9
$PUCSORGLEFT
 10
0.0
 20
0.0
 30
0.0
  9
$PUCSORGRIGHT
 10
0.0
 20
0.0
 30
0.0
  9
$PUCSORGFRONT
 10
0.0
 20
0.0
 30
0.0
  9
$PUCSORGBACK
 10
0.0
 20
0.0
 30
0.0
  9
$USERI1
 70
     0
  9
$USERI2
 70
     0
  9
$USERI3
 70
     0
  9
$USERI4
 70
     0
  9
$USERI5
 70
     0
  9
$USERR1
 40
0.0
  9
$USERR2
 40
0.0
  9
$USERR3
 40
0.0
  9
$USERR4
 40
0.0
  9
$USERR5
 40
0.0
  9
$WORLDVIEW
 70
     1
  9
$SHADEDGE
 70
     3
  9
$SHADEDIF
 70
    70
  9
$TILEMODE
 70
     1
  9
$MAXACTVP
 70
    16
  9
$PINSBASE
 10
0.0
 20
0.0
 30
0.0
  9
$PLIMCHECK
 70
     0
  9
$PEXTMIN
 10
1.000000000000000E+20
 20
1.000000000000000E+20
 30
1.000000000000000E+20
  9
$PEXTMAX
 10
-1.000000000000000E+20
 20
-1.000000000000000E+20
 30
-1.000000000000000E+20
  9
$PLIMMIN
 10
0.0
 20
0.0
  9
$PLIMMAX
 10
12.0
 20
9.0
  9
$UNITMODE
 70
     0
  9
$VISRETAIN
 70
     0
  9
$PLINEGEN
 70
     0
  9
$PSLTSCALE
 70
     0
  9
$TREEDEPTH
 70
  3020
  9
$CMLSTYLE
  2
STANDARD
  9
$CMLJUST
 70
     0
  9
$CMLSCALE
 40
1.0
  9
$PROXYGRAPHICS
 70
     1
  9
$MEASUREMENT
 70
     0
  9
$CELWEIGHT
370
    -1
  9
$ENDCAPS
280
     0
  9
$JOINSTYLE
280
     0
  9
$LWDISPLAY
290
     0
  9
$INSUNITS
 70
     0
  9
$HYPERLINKBASE
  1

  9
$STYLESHEET
  1

  9
$XEDIT
290
     1
  9
$CEPSNTYPE
380
     0
  9
$PSTYLEMODE
290
     1
  9
$FINGERPRINTGUID
  2
{4D67D000-BAD0-11D4-8FCF-00D0B726A456}
  9
$VERSIONGUID
  2
{65DA6860-DD48-4001-9957-6956C1ED5DE7}
  9
$EXTNAMES
290
     1
  9
$PSVPSCALE
 40
0.0
  9
$OLESTARTUP
290
     0
  9
$SORTENTS
280
   127
  9
$INDEXCTL
280
     0
  9
$HIDETEXT
280
     1
  9
$XCLIPFRAME
290
     0
  9
$HALOGAP
280
     0
  9
$OBSCOLOR
 70
   257
  9
$OBSLTYPE
280
     0
  9
$INTERSECTIONDISPLAY
280
     0
  9
$INTERSECTIONCOLOR
 70
   257
  9
$DIMASSOC
280
     0
  9
$PROJECTNAME
  1

  0
ENDSEC
  0
SECTION
  2
CLASSES
  0
CLASS
  1
DICTIONARYVAR
  2
AcDbDictionaryVar
  3
AutoCAD 2000
 90
        0
 91
        1
280
     0
281
     0
  0
CLASS
  1
LWPOLYLINE
  2
AcDbPolyline
  3
AutoCAD 2000
 90
        0
 91
       11
280
     0
281
     1
  0
CLASS
  1
ACDBDICTIONARYWDFLT
  2
AcDbDictionaryWithDefault
  3
AutoCAD 2000
 90
        0
 91
        1
280
     0
281
     0
  0
CLASS
  1
ACDBPLACEHOLDER
  2
AcDbPlaceHolder
  3
ObjectDBX Classes
 90
        0
 91
        3
280
     0
281
     0
  0
CLASS
  1
LAYOUT
  2
AcDbLayout
  3
ObjectDBX Classes
 90
        0
 91
        3
280
     0
281
     0
  0
CLASS
  1
LONG_TRANSACTION
  2
AcDbLongTransaction
  3
ObjectDBX Classes
 90
   -65536
 91
        8
280
     1
281
     0
  0
CLASS
  1
LWPOLYLINE
  2
AcDbPolyline
  3
AutoCAD 2000
 90
        0
 91
       11
280
     0
281
     1
  0
CLASS
  1
HATCH
  2
AcDbHatch
  3
AutoCAD 2000
 90
        0
 91
       10
280
     0
281
     1
  0
CLASS
  1
XRECORD
  2
AcDbXrecord
  3
AutoCAD 2000
 90
        0
 91
       10
280
     0
281
     0
  0
CLASS
  1
LONG_TRANSACTION
  2
AcDbLongTransaction
  3
ObjectDBX Classes
 90
   -65536
 91
        8
280
     1
281
     0
  0
CLASS
  1
LWPOLYLINE
  2
AcDbPolyline
  3
AutoCAD 2000
 90
        0
 91
       11
280
     0
281
     1
  0
CLASS
  1
HATCH
  2
AcDbHatch
  3
AutoCAD 2000
 90
        0
 91
       10
280
     0
281
     1
  0
CLASS
  1
XRECORD
  2
AcDbXrecord
  3
AutoCAD 2000
 90
        0
 91
       10
280
     0
281
     0
  0
CLASS
  1
LONG_TRANSACTION
  2
AcDbLongTransaction
  3
ObjectDBX Classes
 90
   -65536
 91
        8
280
     1
281
     0
  0
CLASS
  1
LWPOLYLINE
  2
AcDbPolyline
  3
AutoCAD 2000
 90
        0
 91
       11
280
     0
281
     1
  0
CLASS
  1
HATCH
  2
AcDbHatch
  3
AutoCAD 2000
 90
        0
 91
       10
280
     0
281
     1
  0
CLASS
  1
XRECORD
  2
AcDbXrecord
  3
AutoCAD 2000
 90
        0
 91
       10
280
     0
281
     0
  0
CLASS
  1
LONG_TRANSACTION
  2
AcDbLongTransaction
  3
ObjectDBX Classes
 90
   -65536
 91
        8
280
     1
281
     0
  0
CLASS
  1
LWPOLYLINE
  2
AcDbPolyline
  3
AutoCAD 2000
 90
        0
 91
       11
280
     0
281
     1
  0
CLASS
  1
HATCH
  2
AcDbHatch
  3
AutoCAD 2000
 90
        0
 91
       10
280
     0
281
     1
  0
CLASS
  1
XRECORD
  2
AcDbXrecord
  3
AutoCAD 2000
 90
        0
 91
       10
280
     0
281
     0
  0
CLASS
  1
LONG_TRANSACTION
  2
AcDbLongTransaction
  3
ObjectDBX Classes
 90
   -65536
 91
        8
280
     1
281
     0
  0
CLASS
  1
LWPOLYLINE
  2
AcDbPolyline
  3
AutoCAD 2000
 90
        0
 91
       11
280
     0
281
     1
  0
CLASS
  1
HATCH
  2
AcDbHatch
  3
AutoCAD 2000
 90
        0
 91
       10
280
     0
281
     1
  0
CLASS
  1
XRECORD
  2
AcDbXrecord
  3
AutoCAD 2000
 90
        0
 91
       10
280
     0
281
     0
  0
CLASS
  1
LONG_TRANSACTION
  2
AcDbLongTransaction
  3
ObjectDBX Classes
 90
   -65536
 91
        8
280
     1
281
     0
  0
CLASS
  1
LWPOLYLINE
  2
AcDbPolyline
  3
AutoCAD 2000
 90
        0
 91
       11
280
     0
281
     1
  0
CLASS
  1
HATCH
  2
AcDbHatch
  3
AutoCAD 2000
 90
        0
 91
       10
280
     0
281
     1
  0
CLASS
  1
XRECORD
  2
AcDbXrecord
  3
AutoCAD 2000
 90
        0
 91
       10
280
     0
281
     0
  0
CLASS
  1
LONG_TRANSACTION
  2
AcDbLongTransaction
  3
ObjectDBX Classes
 90
   -65536
 91
        8
280
     1
281
     0
  0
CLASS
  1
LWPOLYLINE
  2
AcDbPolyline
  3
AutoCAD 2000
 90
        0
 91
       11
280
     0
281
     1
  0
CLASS
  1
HATCH
  2
AcDbHatch
  3
AutoCAD 2000
 90
        0
 91
       10
280
     0
281
     1
  0
CLASS
  1
XRECORD
  2
AcDbXrecord
  3
AutoCAD 2000
 90
        0
 91
       10
280
     0
281
     0
  0
CLASS
  1
LONG_TRANSACTION
  2
AcDbLongTransaction
  3
ObjectDBX Classes
 90
   -65536
 91
        8
280
     1
281
     0
  0
CLASS
  1
LWPOLYLINE
  2
AcDbPolyline
  3
AutoCAD 2000
 90
        0
 91
       11
280
     0
281
     1
  0
CLASS
  1
HATCH
  2
AcDbHatch
  3
AutoCAD 2000
 90
        0
 91
       10
280
     0
281
     1
  0
CLASS
  1
XRECORD
  2
AcDbXrecord
  3
AutoCAD 2000
 90
        0
 91
       10
280
     0
281
     0
  0
CLASS
  1
TABLESTYLE
  2
AcDbTableStyle
  3
ObjectDBX Classes
 90
     2047
 91
        2
280
     1
281
     0
  0
CLASS
  1
SORTENTSTABLE
  2
AcDbSortentsTable
  3
AutoCAD 2000
 90
        0
 91
        1
280
     0
281
     0
  0
ENDSEC
  0
SECTION
  2
TABLES
  0
TABLE
  2
VPORT
  5
903
330
0
100
AcDbSymbolTable
 70
     5
  0
VPORT
  5
1F6A
330
903
100
AcDbSymbolTableRecord
100
AcDbViewportTableRecord
  2
*Active
 70
     0
 10
0.0
 20
0.0
 11
1.0
 21
1.0
 12
3.319671258819689
 22
5.584972539696277
 13
0.0
 23
0.0
 14
0.063
 24
0.063
 15
0.25
 25
0.25
 16
0.0
 26
0.0
 36
1.0
 17
0.0
 27
0.0
 37
0.0
 40
15.88675700619345
 41
1.780040733197556
 42
50.0
 43
0.0
 44
0.0
 50
0.0
 51
0.0
 71
     0
 72
   100
 73
     1
 74
     0
 75
     0
 76
     0
 77
     0
 78
     0
281
     0
 65
     1
110
0.0
120
0.0
130
0.0
111
1.0
121
0.0
131
0.0
112
0.0
122
1.0
132
0.0
 79
     0
146
0.0
  0
ENDTAB
  0
TABLE
  2
LTYPE
  5
900
330
0
100
AcDbSymbolTable
 70
     6
  0
LTYPE
  5
90C
330
900
100
AcDbSymbolTableRecord
100
AcDbLinetypeTableRecord
  2
BYBLOCK
 70
     0
  3

 72
    65
 73
     0
 40
0.0
  0
LTYPE
  5
90D
330
900
100
AcDbSymbolTableRecord
100
AcDbLinetypeTableRecord
  2
BYLAYER
 70
     0
  3

 72
    65
 73
     0
 40
0.0
  0
LTYPE
  5
90E
330
900
100
AcDbSymbolTableRecord
100
AcDbLinetypeTableRecord
  2
CONTINUOUS
 70
     0
  3
Solid line
 72
    65
 73
     0
 40
0.0
  0
LTYPE
  5
927
330
900
100
AcDbSymbolTableRecord
100
AcDbLinetypeTableRecord
  2
DASHED
 70
     0
  3
__ __ __ __ __ __ __ __ __ __ __ __ __ __ __
 72
    65
 73
     2
 40
0.75
 49
0.5
 74
     0
 49
-0.25
 74
     0
  0
LTYPE
  5
111B
330
900
100
AcDbSymbolTableRecord
100
AcDbLinetypeTableRecord
  2
HIDDEN2
 70
     0
  3
Hidden (.5x) _ _ _ _ _ _ _ _ _ _ _ _ _ _ _ _ _
 72
    65
 73
     2
 40
0.1875
 49
0.125
 74
     0
 49
-0.0625
 74
     0
  0
ENDTAB
  0
TABLE
  2
LAYER
  5
8FD
102
{ACAD_XDICTIONARY
360
D19
102
}
330
0
100
AcDbSymbolTable
 70
    15
  0
LAYER
  5
909
330
8FD
100
AcDbSymbolTableRecord
100
AcDbLayerTableRecord
  2
0
 70
     0
 62
     7
  6
CONTINUOUS
370
    -3
390
957
  0
LAYER
  5
932
330
8FD
100
AcDbSymbolTableRecord
100
AcDbLayerTableRecord
  2
DIM
 70
     0
 62
     5
  6
CONTINUOUS
370
    -3
390
957
  0
LAYER
  5
93F
330
8FD
100
AcDbSymbolTableRecord
100
AcDbLayerTableRecord
  2
DEFPOINTS
 70
     0
 62
     7
  6
CONTINUOUS
290
     0
370
    -3
390
957
  0
ENDTAB
  0
TABLE
  2
STYLE
  5
8FE
330
0
100
AcDbSymbolTable
 70
     5
  0
STYLE
  5
90A
330
8FE
100
AcDbSymbolTableRecord
100
AcDbTextStyleTableRecord
  2
STANDARD
 70
     0
 40
0.0
 41
1.0
 50
0.0
 71
     0
 42
0.18
  3
TXT
  4

  0
ENDTAB
  0
TABLE
  2
VIEW
  5
901
330
0
100
AcDbSymbolTable
 70
     0
  0
ENDTAB
  0
TABLE
  2
UCS
  5
902
330
0
100
AcDbSymbolTable
 70
     0
  0
ENDTAB
  0
TABLE
  2
APPID
  5
904
330
0
100
AcDbSymbolTable
 70
     6
  0
APPID
  5
90B
330
904
100
AcDbSymbolTableRecord
100
AcDbRegAppTableRecord
  2
ACAD
 70
     0
  0
APPID
  5
CC7
330
904
100
AcDbSymbolTableRecord
100
AcDbRegAppTableRecord
  2
CONTENTBLOCKICON
 70
     0
  0
APPID
  5
D18
330
904
100
AcDbSymbolTableRecord
100
AcDbRegAppTableRecord
  2
ACAD_PSEXT
 70
     0
  0
APPID
  5
D65
330
904
100
AcDbSymbolTableRecord
100
AcDbRegAppTableRecord
  2
RAK
 70
     0
  0
APPID
  5
14AB
330
904
100
AcDbSymbolTableRecord
100
AcDbRegAppTableRecord
  2
ACAD_DSTYLE_DIMTEXT_FILL
 70
     0
  0
APPID
  5
193B
330
904
100
AcDbSymbolTableRecord
100
AcDbRegAppTableRecord
  2
AcAecLayerStandard
 70
     0
  0
ENDTAB
  0
TABLE
  2
DIMSTYLE
  5
905
330
0
100
AcDbSymbolTable
 70
     2
100
AcDbDimStyleTable
  0
DIMSTYLE
105
94A
330
905
100
AcDbSymbolTableRecord
100
AcDbDimStyleTableRecord
  2
STANDARD
 70
     0
  3

  4

340
90A
  0
ENDTAB
  0
TABLE
  2
BLOCK_RECORD
  5
8FC
330
0
100
AcDbSymbolTable
 70
    21
  0
BLOCK_RECORD
  5
912
102
{ACAD_XDICTIONARY
360
A80
102
}
330
8FC
100
AcDbSymbolTableRecord
100
AcDbBlockTableRecord
  2
*MODEL_SPACE
340
95A
  0
BLOCK_RECORD
  5
90F
330
8FC
100
AcDbSymbolTableRecord
100
AcDbBlockTableRecord
  2
*PAPER_SPACE
340
95B
  0
ENDTAB
  0
ENDSEC
  0
SECTION
  2
BLOCKS
  0
BLOCK
  5
943
330
912
100
AcDbEntity
  8
0
100
AcDbBlockBegin
  2
*MODEL_SPACE
 70
     0
 10
0.0
 20
0.0
 30
0.0
  3
*MODEL_SPACE
  1

  4

  0
ENDBLK
  5
944
330
912
100
AcDbEntity
  8
0
100
AcDbBlockEnd
  0
BLOCK
  5
941
330
90F
100
AcDbEntity
 67
     1
  8
0
100
AcDbBlockBegin
  2
*PAPER_SPACE
 70
     0
 10
0.0
 20
0.0
 30
0.0
  3
*PAPER_SPACE
  1

  4

  0
ENDBLK
  5
942
330
90F
100
AcDbEntity
 67
     1
  8
0
100
AcDbBlockEnd
  0
ENDSEC
  0
SECTION
  2
ENTITIES
  0
POINT
  5
C
330
912
100
AcDbEntity
  8
0
100
AcDbPoint
 10
-1.391415012578477
 20
6.249999999650003
 30
0.0
  0
POINT
  5
D
330
912
100
AcDbEntity
  8
0
100
AcDbPoint
 10
2.624999999564023
 20
5.374999999737494
 30
0.0
  0
POINT
  5
E
330
912
100
AcDbEntity
  8
0
100
AcDbPoint
 10
-2.374999999935966
 20
5.374999999737508
 30
0.0
  0
POINT
  5
F
330
912
100
AcDbEntity
  8
0
100
AcDbPoint
 10
-1.500000000023473
 20
6.249999999650006
 30
0.0
  0
POINT
  5
10
330
912
100
AcDbEntity
  8
0
100
AcDbPoint
 10
-2.374999999935966
 20
5.374999999737508
 30
0.0
  0
POINT
  5
13
330
912
100
AcDbEntity
  8
0
100
AcDbPoint
 10
-1.500000000023459
 20
0.0000000002749925
 30
0.0
  0
POINT
  5
14
330
912
100
AcDbEntity
  8
0
100
AcDbPoint
 10
0.2873797630073511
 20
0.0000000002750031
 30
0.0
  0
POINT
  5
15
330
912
100
AcDbEntity
  8
0
100
AcDbPoint
 10
-0.0373797633793345
 20
0.0000000002749996
 30
0.0
  0
POINT
  5
17
330
912
100
AcDbEntity
  8
0
100
AcDbPoint
 10
2.624999999564031
 20
0.8750000001874927
 30
0.0
  0
POINT
  5
19
330
912
100
AcDbEntity
  8
0
100
AcDbPoint
 10
2.624999999564031
 20
0.8750000001874927
 30
0.0
  0
ARC
  5
1B
330
912
100
AcDbEntity
  8
0
100
AcDbCircle
 10
-2.053997564385501
 20
3.522810697263703
 30
0.0
 40
0.093749999990625
100
AcDbArc
 50
135.0000000000001
 51
315.0
  0
LINE
  5
1C
330
912
100
AcDbEntity
  8
0
100
AcDbLine
 10
-1.103822827261098
 20
4.340402912928886
 30
0.0
 11
-1.987706303655902
 21
3.456519436534096
 31
0.0
  0
ARC
  5
1D
330
912
100
AcDbEntity
  8
0
100
AcDbCircle
 10
-1.170114087990708
 20
4.406694173658499
 30
0.0
 40
0.093749999990625
100
AcDbArc
 50
315.0
 51
135.0000000000001
  0
LINE
  5
1E
330
912
100
AcDbEntity
  8
0
100
AcDbLine
 10
-1.236405348720322
 20
4.472985434388106
 30
0.0
 11
-2.120288825115114
 21
3.589101957993309
 31
0.0
  0
ARC
  5
1F
330
912
100
AcDbEntity
  8
0
100
AcDbCircle
 10
1.420114087618767
 20
4.406694173658499
 30
0.0
 40
0.093749999990625
100
AcDbArc
 50
44.99999999999996
 51
225.0
  0
ARC
  5
20
330
912
100
AcDbEntity
  8
0
100
AcDbCircle
 10
2.303997564013562
 20
3.522810697263703
 30
0.0
 40
0.093749999990625
100
AcDbArc
 50
225.0
 51
44.99999999999996
  0
LINE
  5
21
330
912
100
AcDbEntity
  8
0
100
AcDbLine
 10
1.486405348348381
 20
4.472985434388106
 30
0.0
 11
2.370288824743176
 21
3.589101957993309
 31
0.0
  0
LINE
  5
22
330
912
100
AcDbEntity
  8
0
100
AcDbLine
 10
1.353822826889161
 20
4.340402912928886
 30
0.0
 11
2.237706303283963
 21
3.456519436534096
 31
0.0
  0
LINE
  5
23
330
912
100
AcDbEntity
  8
0
100
AcDbLine
 10
-0.0373797633793345
 20
0.0000000002749996
 30
0.0
 11
-1.500000000023487
 21
0.0000000002750067
 31
0.0
  0
LINE
  5
24
330
912
100
AcDbEntity
  8
0
100
AcDbLine
 10
1.749999999651507
 20
0.0000000002749925
 30
0.0
 11
0.2873797630073511
 21
0.0000000002750031
 31
0.0
  0
CIRCLE
  5
25
330
912
100
AcDbEntity
  8
0
100
AcDbCircle
 10
0.1249999998140261
 20
0.6250000002125002
 30
0.0
 40
0.0779999999922
  0
ARC
  5
2A
330
912
100
AcDbEntity
  8
0
100
AcDbCircle
 10
-2.053997564385501
 20
4.722810697143702
 30
0.0
 40
0.093749999990625
100
AcDbArc
 50
135.0000000000001
 51
315.0
  0
LINE
  5
2B
330
912
100
AcDbEntity
  8
0
100
AcDbLine
 10
-1.236405348720322
 20
5.672985434268105
 30
0.0
 11
-2.120288825115114
 21
4.789101957873308
 31
0.0
  0
ARC
  5
2C
330
912
100
AcDbEntity
  8
0
100
AcDbCircle
 10
-1.170114087990708
 20
5.606694173538498
 30
0.0
 40
0.093749999990625
100
AcDbArc
 50
315.0
 51
135.0000000000001
  0
LINE
  5
2D
330
912
100
AcDbEntity
  8
0
100
AcDbLine
 10
-1.103822827261098
 20
5.540402912808885
 30
0.0
 11
-1.987706303655902
 21
4.656519436414095
 31
0.0
  0
ARC
  5
2E
330
912
100
AcDbEntity
  8
0
100
AcDbCircle
 10
1.420114087618767
 20
5.606694173538498
 30
0.0
 40
0.093749999990625
100
AcDbArc
 50
44.99999999999996
 51
225.0
  0
LINE
  5
2F
330
912
100
AcDbEntity
  8
0
100
AcDbLine
 10
1.353822826889161
 20
5.540402912808885
 30
0.0
 11
2.237706303283963
 21
4.656519436414095
 31
0.0
  0
LINE
  5
30
330
912
100
AcDbEntity
  8
0
100
AcDbLine
 10
1.486405348348381
 20
5.672985434268105
 30
0.0
 11
2.370288824743176
 21
4.789101957873308
 31
0.0
  0
ARC
  5
31
330
912
100
AcDbEntity
  8
0
100
AcDbCircle
 10
2.303997564013562
 20
4.722810697143702
 30
0.0
 40
0.093749999990625
100
AcDbArc
 50
225.0
 51
44.99999999999996
  0
LINE
  5
4A
330
912
100
AcDbEntity
  8
0
100
AcDbLine
 10
-1.640500000009418
 20
2.827999999992196
 30
0.0
 11
-1.734500000000026
 21
2.827999999992196
 31
0.0
  0
LINE
  5
4B
330
912
100
AcDbEntity
  8
0
100
AcDbLine
 10
-1.640500000009418
 20
2.672000000007797
 30
0.0
 11
-1.734500000000026
 21
2.672000000007797
 31
0.0
  0
ARC
  5
4C
330
912
100
AcDbEntity
  8
0
100
AcDbCircle
 10
-1.734500000000026
 20
2.75
 30
0.0
 40
0.0779999999922
100
AcDbArc
 50
90.0
 51
270.0
  0
ARC
  5
4D
330
912
100
AcDbEntity
  8
0
100
AcDbCircle
 10
-1.640500000009418
 20
2.75
 30
0.0
 40
0.0779999999922
100
AcDbArc
 50
270.0
 51
90.0
  0
LINE
  5
4E
330
912
100
AcDbEntity
  8
0
100
AcDbLine
 10
1.984499999628081
 20
2.827999999992196
 30
0.0
 11
1.890499999637484
 21
2.827999999992196
 31
0.0
  0
LINE
  5
4F
330
912
100
AcDbEntity
  8
0
100
AcDbLine
 10
1.984499999628081
 20
2.672000000007797
 30
0.0
 11
1.890499999637484
 21
2.672000000007797
 31
0.0
  0
ARC
  5
50
330
912
100
AcDbEntity
  8
0
100
AcDbCircle
 10
1.890499999637484
 20
2.75
 30
0.0
 40
0.0779999999922
100
AcDbArc
 50
90.0
 51
270.0
  0
ARC
  5
51
330
912
100
AcDbEntity
  8
0
100
AcDbCircle
 10
1.984499999628081
 20
2.75
 30
0.0
 40
0.0779999999922
100
AcDbArc
 50
270.0
 51
90.0
  0
CIRCLE
  5
54
330
912
100
AcDbEntity
  8
0
100
AcDbCircle
 10
-1.999999999973479
 20
2.000000000075001
 30
0.0
 40
0.0779999999922
  0
LINE
  5
55
330
912
100
AcDbEntity
  8
0
100
AcDbLine
 10
-2.374999999935966
 20
5.374999999737508
 30
0.0
 11
-2.374999999935959
 21
0.8750000001874927
 31
0.0
  0
LINE
  5
56
330
912
100
AcDbEntity
  8
0
100
AcDbLine
 10
2.624999999564023
 20
5.374999999737494
 30
0.0
 11
2.624999999564031
 21
0.8750000001874927
 31
0.0
  0
CIRCLE
  5
5B
330
912
100
AcDbEntity
  8
0
100
AcDbCircle
 10
1.499999999676533
 20
0.3125000002437428
 30
0.0
 40
0.0779999999922
  0
LINE
  5
5C
330
912
100
AcDbEntity
  8
0
100
AcDbLine
 10
-1.500000000023473
 20
6.249999999650006
 30
0.0
 11
-2.374999999935966
 21
5.374999999737508
 31
0.0
  0
LINE
  5
5D
330
912
100
AcDbEntity
  8
0
100
AcDbLine
 10
-2.374999999935959
 20
0.8750000001874927
 30
0.0
 11
-1.500000000023459
 21
0.0000000002749925
 31
0.0
  0
LINE
  5
5E
330
912
100
AcDbEntity
  8
0
100
AcDbLine
 10
2.624999999564031
 20
0.8750000001874927
 30
0.0
 11
1.749999999651543
 21
0.0000000002749925
 31
0.0
  0
CIRCLE
  5
5F
330
912
100
AcDbEntity
  8
0
100
AcDbCircle
 10
-1.25000000004848
 20
0.3125000002437428
 30
0.0
 40
0.0779999999922
  0
LINE
  5
60
330
912
100
AcDbEntity
  8
0
100
AcDbLine
 10
1.749999999651521
 20
6.249999999649992
 30
0.0
 11
2.624999999564023
 21
5.374999999737494
 31
0.0
  0
LINE
  5
62
330
912
100
AcDbEntity
  8
0
100
AcDbLine
 10
-0.6563000001859543
 20
6.250000000000002
 30
0.0
 11
-1.500000000023473
 21
6.249999999650006
 31
0.0
  0
TEXT
  5
14D
330
912
100
AcDbEntity
  8
DIM
100
AcDbText
 10
10.12408449696469
 20
4.068212781541774
 30
0.0
 40
0.18
  1
   
 72
     1
 11
10.39408449696469
 21
4.158212781541773
 31
0.0
100
AcDbText
 73
     2
  0
TEXT
  5
162
330
912
100
AcDbEntity
  8
DIM
100
AcDbText
 10
9.490633768740528
 20
10.30248000976627
 30
0.0
 40
0.18
  1
   
 72
     1
 11
9.760633768740528
 21
10.39248000976627
 31
0.0
100
AcDbText
 73
     2
  0
TEXT
  5
165
330
912
100
AcDbEntity
  8
DIM
100
AcDbText
 10
10.89063376874053
 20
10.30248000976627
 30
0.0
 40
0.18
  1
   
 72
     1
 11
11.16063376874053
 21
10.39248000976627
 31
0.0
100
AcDbText
 73
     2
  0
TEXT
  5
167
330
912
100
AcDbEntity
  8
DIM
100
AcDbText
 10
13.99499283548314
 20
8.991853140450484
 30
0.0
 40
0.18
  1
   
 50
0.0000000000004725
 72
     1
 11
14.26499283548314
 21
9.081853140450486
 31
0.0
100
AcDbText
 73
     2
  0
LINE
  5
183
330
912
100
AcDbEntity
  8
0
100
AcDbLine
 10
0.9063749997312041
 20
3.488284608005408
 30
0.0
 11
0.9063749997312041
 21
3.56090793706602
 31
0.0
  0
TEXT
  5
187
330
912
100
AcDbEntity
  8
DIM
100
AcDbText
 10
6.744271454333585
 20
10.00119208936096
 30
0.0
 40
0.18
  1
   
 72
     1
 11
7.014271454333586
 21
10.09119208936096
 31
0.0
100
AcDbText
 73
     2
  0
LINE
  5
198
330
912
100
AcDbEntity
  8
0
100
AcDbLine
 10
0.906374999731197
 20
6.249999999650003
 30
0.0
 11
1.749999999651516
 21
6.249999999650006
 31
0.0
  0
TEXT
  5
1AA
330
912
100
AcDbEntity
  8
DIM
100
AcDbText
 10
5.897456379333873
 20
13.05801928828673
 30
0.0
 40
0.18
  1
   
 72
     1
 11
6.167456379333873
 21
13.14801928828673
 31
0.0
100
AcDbText
 73
     2
  0
TEXT
  5
1AE
330
912
100
AcDbEntity
  8
DIM
100
AcDbText
 10
5.976576011688149
 20
13.44427333211265
 30
0.0
 40
0.18
  1
   
 72
     1
 11
6.246576011688148
 21
13.53427333211265
 31
0.0
100
AcDbText
 73
     2
  0
TEXT
  5
1EB
330
912
100
AcDbEntity
  8
DIM
100
AcDbText
 10
1.842470867907979
 20
8.650143111240459
 30
0.0
 40
0.18
  1
   
 72
     1
 11
2.112470867907979
 21
8.740143111240458
 31
0.0
100
AcDbText
 73
     2
  0
TEXT
  5
1F4
330
912
100
AcDbEntity
  8
DIM
100
AcDbText
 10
3.603436499739043
 20
5.304072196697443
 30
0.0
 40
0.18
  1
   
 72
     1
 11
3.873436499739043
 21
5.394072196697443
 31
0.0
100
AcDbText
 73
     2
  0
TEXT
  5
1F9
330
912
100
AcDbEntity
  8
DIM
100
AcDbText
 10
6.608749707825803
 20
9.025546603186239
 30
0.0
 40
0.18
  1
   
 72
     1
 11
6.878749707825803
 21
9.115546603186239
 31
0.0
100
AcDbText
 73
     2
  0
ARC
  5
24C
330
912
100
AcDbEntity
  8
0
100
AcDbCircle
 10
1.420114087618767
 20
5.606694173538498
 30
0.0
 40
0.045749999990625
100
AcDbArc
 50
44.99999999999996
 51
225.0
  0
LINE
  5
24D
330
912
100
AcDbEntity
  8
0
100
AcDbLine
 10
1.452464222851427
 20
5.639044308771149
 30
0.0
 11
2.336347699246224
 21
4.755160832376355
 31
0.0
  0
LINE
  5
24E
330
912
100
AcDbEntity
  8
0
100
AcDbLine
 10
1.387763952386115
 20
5.57434403830584
 30
0.0
 11
2.271647428780918
 21
4.690460561911049
 31
0.0
  0
ARC
  5
24F
330
912
100
AcDbEntity
  8
0
100
AcDbCircle
 10
2.303997564013562
 20
4.722810697143702
 30
0.0
 40
0.045749999990625
100
AcDbArc
 50
225.0
 51
44.99999999999996
  0
ARC
  5
250
330
912
100
AcDbEntity
  8
0
100
AcDbCircle
 10
1.420114087618767
 20
4.406694173658499
 30
0.0
 40
0.045749999990625
100
AcDbArc
 50
44.99999999999996
 51
225.0
  0
LINE
  5
251
330
912
100
AcDbEntity
  8
0
100
AcDbLine
 10
1.452464222851427
 20
4.439044308891152
 30
0.0
 11
2.336347699246224
 21
3.555160832496355
 31
0.0
  0
LINE
  5
252
330
912
100
AcDbEntity
  8
0
100
AcDbLine
 10
1.387763952386115
 20
4.374344038425839
 30
0.0
 11
2.271647428780918
 21
3.49046056203105
 31
0.0
  0
ARC
  5
253
330
912
100
AcDbEntity
  8
0
100
AcDbCircle
 10
2.303997564013562
 20
3.522810697263703
 30
0.0
 40
0.045749999990625
100
AcDbArc
 50
225.0
 51
44.99999999999996
  0
LINE
  5
254
330
912
100
AcDbEntity
  8
0
100
AcDbLine
 10
-1.202464223223368
 20
4.439044308891152
 30
0.0
 11
-2.086347699618161
 21
3.555160832496355
 31
0.0
  0
LINE
  5
255
330
912
100
AcDbEntity
  8
0
100
AcDbLine
 10
-1.137763952758052
 20
4.374344038425839
 30
0.0
 11
-2.021647429152855
 21
3.49046056203105
 31
0.0
  0
ARC
  5
256
330
912
100
AcDbEntity
  8
0
100
AcDbCircle
 10
-1.170114087990708
 20
4.406694173658499
 30
0.0
 40
0.045749999990625
100
AcDbArc
 50
315.0
 51
135.0000000000001
  0
ARC
  5
257
330
912
100
AcDbEntity
  8
0
100
AcDbCircle
 10
-2.053997564385501
 20
3.522810697263703
 30
0.0
 40
0.045749999990625
100
AcDbArc
 50
135.0000000000001
 51
315.0
  0
ARC
  5
258
330
912
100
AcDbEntity
  8
0
100
AcDbCircle
 10
-2.053997564385501
 20
4.722810697143702
 30
0.0
 40
0.045749999990625
100
AcDbArc
 50
135.0000000000001
 51
315.0
  0
LINE
  5
259
330
912
100
AcDbEntity
  8
0
100
AcDbLine
 10
-1.202464223223368
 20
5.639044308771149
 30
0.0
 11
-2.086347699618161
 21
4.755160832376355
 31
0.0
  0
ARC
  5
25A
330
912
100
AcDbEntity
  8
0
100
AcDbCircle
 10
-1.170114087990708
 20
5.606694173538498
 30
0.0
 40
0.045749999990625
100
AcDbArc
 50
315.0
 51
135.0000000000001
  0
LINE
  5
25B
330
912
100
AcDbEntity
  8
0
100
AcDbLine
 10
-1.137763952758052
 20
5.57434403830584
 30
0.0
 11
-2.021647429152855
 21
4.690460561911049
 31
0.0
  0
LINE
  5
E83
330
912
100
AcDbEntity
  8
0
  6
Continuous
100
AcDbLine
 10
0.25
 20
0.0
 30
0.0
 11
0.125
 21
0.125
 31
0.0
  0
LINE
  5
E84
330
912
100
AcDbEntity
  8
0
  6
Continuous
100
AcDbLine
 10
0.0
 20
0.0
 30
0.0
 11
0.125
 21
0.125
 31
0.0
  0
LINE
  5
E85
330
912
100
AcDbEntity
  8
0
  6
Continuous
100
AcDbLine
 10
0.0
 20
0.0
 30
0.0
 11
-1.5
 21
0.0
 31
0.0
  0
CIRCLE
  5
E88
330
912
100
AcDbEntity
  8
0
  6
Continuous
100
AcDbCircle
 10
-0.6875
 20
1.625
 30
0.0
 40
0.078
  0
CIRCLE
  5
E89
330
912
100
AcDbEntity
  8
0
  6
Continuous
100
AcDbCircle
 10
-0.5
 20
0.8125
 30
0.0
 40
0.078
  0
CIRCLE
  5
E8A
330
912
100
AcDbEntity
  8
0
  6
Continuous
100
AcDbCircle
 10
0.9375
 20
1.8125
 30
0.0
 40
0.078
  0
CIRCLE
  5
E8B
330
912
100
AcDbEntity
  8
0
  6
Continuous
100
AcDbCircle
 10
0.8125
 20
0.8125
 30
0.0
 40
0.078
  0
CIRCLE
  5
E8C
330
912
100
AcDbEntity
  8
0
  6
Continuous
100
AcDbCircle
 10
2.249999999999998
 20
2.1875
 30
0.0
 40
0.078
  0
LINE
  5
E8D
330
912
100
AcDbEntity
  8
0
  6
Continuous
100
AcDbLine
 10
1.75
 20
0.0
 30
0.0
 11
0.25
 21
0.0
 31
0.0
  0
LINE
  5
E91
330
912
100
AcDbEntity
  8
0
  6
Continuous
100
AcDbLine
 10
1.829463000000004
 20
4.531357999999997
 30
0.0
 11
1.910437000000002
 21
4.671607999999999
 31
0.0
  0
LINE
  5
E92
330
912
100
AcDbEntity
  8
0
  6
Continuous
100
AcDbLine
 10
2.018473
 20
4.484482999999997
 30
0.0
 11
1.856527
 21
4.484482999999997
 31
0.0
  0
LINE
  5
E93
330
912
100
AcDbEntity
  8
0
  6
Continuous
100
AcDbLine
 10
2.045536999999994
 20
4.531357999999997
 30
0.0
 11
1.964562999999998
 21
4.671607999999999
 31
0.0
  0
ARC
  5
E94
330
912
100
AcDbEntity
  8
0
  6
Continuous
100
AcDbCircle
 10
2.018473
 20
4.515732999999997
 30
0.0
 40
0.03125
100
AcDbArc
 50
270.0
 51
30.00000000000012
  0
ARC
  5
E95
330
912
100
AcDbEntity
  8
0
  6
Continuous
100
AcDbCircle
 10
1.9375
 20
4.655982999999999
 30
0.0
 40
0.03125
100
AcDbArc
 50
30.00000000000012
 51
149.9999999999999
  0
ARC
  5
E96
330
912
100
AcDbEntity
  8
0
  6
Continuous
100
AcDbCircle
 10
1.856527
 20
4.515732999999997
 30
0.0
 40
0.03125
100
AcDbArc
 50
149.9999999999999
 51
270.0
  0
LINE
  5
E97
330
912
100
AcDbEntity
  8
0
  6
Continuous
100
AcDbLine
 10
1.829463000000004
 20
3.406357999999997
 30
0.0
 11
1.910437000000002
 21
3.546607999999999
 31
0.0
  0
LINE
  5
E98
330
912
100
AcDbEntity
  8
0
  6
Continuous
100
AcDbLine
 10
2.018473
 20
3.359482999999997
 30
0.0
 11
1.856527
 21
3.359482999999997
 31
0.0
  0
LINE
  5
E99
330
912
100
AcDbEntity
  8
0
  6
Continuous
100
AcDbLine
 10
2.045536999999994
 20
3.406357999999997
 30
0.0
 11
1.964562999999998
 21
3.546607999999999
 31
0.0
  0
ARC
  5
E9A
330
912
100
AcDbEntity
  8
0
  6
Continuous
100
AcDbCircle
 10
2.018473
 20
3.390732999999997
 30
0.0
 40
0.03125
100
AcDbArc
 50
270.0
 51
30.00000000000012
  0
ARC
  5
E9B
330
912
100
AcDbEntity
  8
0
  6
Continuous
100
AcDbCircle
 10
1.9375
 20
3.530982999999999
 30
0.0
 40
0.03125
100
AcDbArc
 50
30.00000000000012
 51
149.9999999999999
  0
ARC
  5
E9C
330
912
100
AcDbEntity
  8
0
  6
Continuous
100
AcDbCircle
 10
1.856527
 20
3.390732999999997
 30
0.0
 40
0.03125
100
AcDbArc
 50
149.9999999999999
 51
270.0
  0
LINE
  5
E9D
330
912
100
AcDbEntity
  8
0
  6
Continuous
100
AcDbLine
 10
-1.795536999999996
 20
3.406357999999997
 30
0.0
 11
-1.714562999999998
 21
3.546607999999999
 31
0.0
  0
LINE
  5
E9E
330
912
100
AcDbEntity
  8
0
  6
Continuous
100
AcDbLine
 10
-1.606527
 20
3.359482999999997
 30
0.0
 11
-1.768473
 21
3.359482999999997
 31
0.0
  0
LINE
  5
E9F
330
912
100
AcDbEntity
  8
0
  6
Continuous
100
AcDbLine
 10
-1.579463000000004
 20
3.406357999999997
 30
0.0
 11
-1.660437000000002
 21
3.546607999999999
 31
0.0
  0
ARC
  5
EA0
330
912
100
AcDbEntity
  8
0
  6
Continuous
100
AcDbCircle
 10
-1.606527
 20
3.390732999999997
 30
0.0
 40
0.03125
100
AcDbArc
 50
270.0
 51
30.00000000000012
  0
ARC
  5
EA1
330
912
100
AcDbEntity
  8
0
  6
Continuous
100
AcDbCircle
 10
-1.6875
 20
3.530982999999999
 30
0.0
 40
0.03125
100
AcDbArc
 50
30.00000000000012
 51
149.9999999999999
  0
ARC
  5
EA2
330
912
100
AcDbEntity
  8
0
  6
Continuous
100
AcDbCircle
 10
-1.768473
 20
3.390732999999997
 30
0.0
 40
0.03125
100
AcDbArc
 50
149.9999999999999
 51
270.0
  0
LINE
  5
EA3
330
912
100
AcDbEntity
  8
0
  6
Continuous
100
AcDbLine
 10
-1.795536999999996
 20
4.531357999999997
 30
0.0
 11
-1.714562999999998
 21
4.671607999999999
 31
0.0
  0
LINE
  5
EA4
330
912
100
AcDbEntity
  8
0
  6
Continuous
100
AcDbLine
 10
-1.606527
 20
4.484482999999997
 30
0.0
 11
-1.768473
 21
4.484482999999997
 31
0.0
  0
LINE
  5
EA5
330
912
100
AcDbEntity
  8
0
  6
Continuous
100
AcDbLine
 10
-1.579463000000004
 20
4.531357999999997
 30
0.0
 11
-1.660437000000002
 21
4.671607999999999
 31
0.0
  0
ARC
  5
EA6
330
912
100
AcDbEntity
  8
0
  6
Continuous
100
AcDbCircle
 10
-1.606527
 20
4.515732999999997
 30
0.0
 40
0.03125
100
AcDbArc
 50
270.0
 51
30.00000000000012
  0
ARC
  5
EA7
330
912
100
AcDbEntity
  8
0
  6
Continuous
100
AcDbCircle
 10
-1.6875
 20
4.655982999999999
 30
0.0
 40
0.03125
100
AcDbArc
 50
30.00000000000012
 51
149.9999999999999
  0
ARC
  5
EA8
330
912
100
AcDbEntity
  8
0
  6
Continuous
100
AcDbCircle
 10
-1.768473
 20
4.515732999999997
 30
0.0
 40
0.03125
100
AcDbArc
 50
149.9999999999999
 51
270.0
  0
LINE
  5
EBC
330
912
100
AcDbEntity
  8
0
  6
Continuous
100
AcDbLine
 10
0.9061999998140458
 20
5.812500000000002
 30
0.0
 11
0.9061999998140458
 21
5.437500000000002
 31
0.0
  0
LINE
  5
EBE
330
912
100
AcDbEntity
  8
0
  6
Continuous
100
AcDbLine
 10
0.9061999998140458
 20
6.250000000000002
 30
0.0
 11
0.9238023869494576
 21
6.243825948041996
 31
0.0
  0
LINE
  5
1332
330
912
100
AcDbEntity
  8
0
  6
HIDDEN2
100
AcDbLine
 10
-0.7012500001859756
 20
3.435817270885533
 30
0.0
 11
-0.8207675897963362
 21
3.348144029570843
 31
0.0
  0
LINE
  5
1335
330
912
100
AcDbEntity
  8
0
  6
HIDDEN2
100
AcDbLine
 10
-0.8207675897963362
 20
3.276855970312592
 30
0.0
 11
-0.7012500001859756
 21
3.195228273393656
 31
0.0
  0
LINE
  5
1338
330
912
100
AcDbEntity
  8
0
  6
HIDDEN2
100
AcDbLine
 10
-0.833558279763519
 20
3.293656415008041
 30
0.0
 11
-0.833558279763519
 21
3.329300444645536
 31
0.0
  0
LINE
  5
1698
330
912
100
AcDbEntity
  8
0
100
AcDbLine
 10
1.9375
 20
4.484482999999997
 30
0.0
 11
1.9375
 21
4.484482999999997
 31
0.0
  0
LINE
  5
1C6B
330
912
100
AcDbEntity
  8
0
  6
Continuous
100
AcDbLine
 10
0.9062499998140261
 20
6.250000000000087
 30
0.0
 11
0.9062499998140261
 21
2.869835737246017
 31
0.0
  0
LINE
  5
1C6C
330
912
100
AcDbEntity
  8
0
  6
Continuous
100
AcDbLine
 10
-0.7012500001859756
 20
6.015632525145998
 30
0.0
 11
-0.7012500001859756
 21
2.86983573724601
 31
0.0
  0
LINE
  5
1C6D
330
912
100
AcDbEntity
  8
0
  6
Continuous
100
AcDbLine
 10
-0.6562500001859739
 20
6.250000000000087
 30
0.0
 11
-0.6562500001859739
 21
2.86983573724601
 31
0.0
  0
LINE
  5
1C6E
330
912
100
AcDbEntity
  8
0
  6
Continuous
100
AcDbLine
 10
0.9512499998140136
 20
6.015632525145998
 30
0.0
 11
0.951249999814042
 21
2.869835737246017
 31
0.0
  0
LINE
  5
1C6F
330
912
100
AcDbEntity
  8
0
  6
Continuous
100
AcDbLine
 10
0.9062499998140261
 20
6.250000000000087
 30
0.0
 11
1.011101975586961
 21
6.213318426004564
 31
0.0
  0
LINE
  5
1C70
330
912
100
AcDbEntity
  8
0
100
AcDbLine
 10
0.8813244050251008
 20
2.749999999999915
 30
0.0
 11
-0.6313244053970344
 21
2.749999999999915
 31
0.0
  0
ARC
  5
1C71
330
912
100
AcDbEntity
  8
0
100
AcDbCircle
 10
0.8813244050251079
 20
2.812499999999915
 30
0.0
 40
0.0625
100
AcDbArc
 50
269.9999999999934
 51
65.07753684888984
  0
ARC
  5
1C72
330
912
100
AcDbEntity
  8
0
100
AcDbCircle
 10
-0.6313244053970397
 20
2.812499999999915
 30
0.0
 40
0.0625
100
AcDbArc
 50
114.9224631511116
 51
270.0000000000049
  0
LINE
  5
1C73
330
912
100
AcDbEntity
  8
0
100
AcDbLine
 10
0.9076613670876306
 20
2.869179929686862
 30
0.0
 11
0.9062499998140261
 21
2.869835737246017
 31
0.0
  0
LINE
  5
1C74
330
912
100
AcDbEntity
  8
0
100
AcDbLine
 10
-0.6576613674595642
 20
2.869179929686862
 30
0.0
 11
-0.6562500001859739
 21
2.86983573724601
 31
0.0
  0
LINE
  5
1C81
330
912
100
AcDbEntity
  8
0
100
AcDbLine
 10
1.125600288239408
 20
3.264974627100099
 30
0.0
 11
0.9512499998140385
 21
3.264974627100102
 31
0.0
  0
LINE
  5
1C82
330
912
100
AcDbEntity
  8
0
100
AcDbLine
 10
1.125600288239408
 20
3.360025372800077
 30
0.0
 11
0.9512499998140385
 21
3.360025372800081
 31
0.0
  0
LINE
  5
1C83
330
912
100
AcDbEntity
  8
0
100
AcDbLine
 10
1.125600288239408
 20
3.264974627100099
 30
0.0
 11
1.125600288239408
 21
3.360025372800077
 31
0.0
  0
LINE
  5
1C84
330
912
100
AcDbEntity
  8
0
100
AcDbLine
 10
1.125600288239408
 20
3.360025372800077
 30
0.0
 11
0.9512499998140367
 21
3.500000000000092
 31
0.0
  0
LINE
  5
1C85
330
912
100
AcDbEntity
  8
0
100
AcDbLine
 10
0.9512499998140402
 20
3.125000000000089
 30
0.0
 11
1.124999999814026
 21
3.264974627100099
 31
0.0
  0
LINE
  5
1C86
330
912
100
AcDbEntity
  8
0
100
AcDbLine
 10
1.125600288239408
 20
4.514974627100099
 30
0.0
 11
0.9512499998140278
 21
4.514974627100102
 31
0.0
  0
LINE
  5
1C87
330
912
100
AcDbEntity
  8
0
100
AcDbLine
 10
1.125600288239408
 20
4.610025372800077
 30
0.0
 11
0.9512499998140278
 21
4.610025372800081
 31
0.0
  0
LINE
  5
1C88
330
912
100
AcDbEntity
  8
0
100
AcDbLine
 10
1.125600288239408
 20
4.514974627100099
 30
0.0
 11
1.125600288239408
 21
4.610025372800077
 31
0.0
  0
LINE
  5
1C89
330
912
100
AcDbEntity
  8
0
100
AcDbLine
 10
1.125600288239408
 20
4.610025372800077
 30
0.0
 11
0.9512499998140367
 21
4.750000000000092
 31
0.0
  0
LINE
  5
1C8A
330
912
100
AcDbEntity
  8
0
100
AcDbLine
 10
0.9512499998140402
 20
4.375000000000089
 30
0.0
 11
1.124999999814026
 21
4.514974627100099
 31
0.0
  0
LINE
  5
1C8B
330
912
100
AcDbEntity
  8
0
100
AcDbLine
 10
1.125600288239408
 20
5.764974627100097
 30
0.0
 11
0.9512499998140189
 21
5.764974627100097
 31
0.0
  0
LINE
  5
1C8C
330
912
100
AcDbEntity
  8
0
100
AcDbLine
 10
1.125600288239408
 20
5.860025372800076
 30
0.0
 11
0.9512499998140171
 21
5.860025372800083
 31
0.0
  0
LINE
  5
1C8D
330
912
100
AcDbEntity
  8
0
100
AcDbLine
 10
1.125600288239408
 20
5.764974627100097
 30
0.0
 11
1.125600288239408
 21
5.860025372800076
 31
0.0
  0
LINE
  5
1C8E
330
912
100
AcDbEntity
  8
0
100
AcDbLine
 10
1.125600288239408
 20
5.860025372800076
 30
0.0
 11
0.9512499998140367
 21
6.000000000000094
 31
0.0
  0
LINE
  5
1C8F
330
912
100
AcDbEntity
  8
0
100
AcDbLine
 10
0.9512499998140402
 20
5.625000000000087
 30
0.0
 11
1.124999999814026
 21
5.764974627100097
 31
0.0
  0
ARC
  5
1C90
330
912
100
AcDbEntity
  8
0
100
AcDbCircle
 10
0.9662499998140142
 20
6.015632525145998
 30
0.0
 40
0.015
100
AcDbArc
 50
149.9999999999963
 51
180.0
  0
ARC
  5
1C91
330
912
100
AcDbEntity
  8
0
100
AcDbCircle
 10
0.9662499998140142
 20
6.015632525145998
 30
0.0
 40
0.06
100
AcDbArc
 50
149.9999999999963
 51
180.0
  0
LINE
  5
1C92
330
912
100
AcDbEntity
  8
0
100
AcDbLine
 10
1.050073118757297
 20
6.190818426004542
 30
0.0
 11
0.9532596187572722
 21
6.023132525145984
 31
0.0
  0
LINE
  5
1C93
330
912
100
AcDbEntity
  8
0
100
AcDbLine
 10
1.011101975586996
 20
6.213318426004543
 30
0.0
 11
0.9142884755869822
 21
6.045632525145985
 31
0.0
  0
LINE
  5
1C94
330
912
100
AcDbEntity
  8
0
100
AcDbLine
 10
1.011101975586961
 20
6.213318426004564
 30
0.0
 11
1.050073118757297
 21
6.190818426004542
 31
0.0
  0
LINE
  5
1C95
330
912
100
AcDbEntity
  8
0
  6
Continuous
100
AcDbLine
 10
-0.6562500001859597
 20
6.250000000000087
 30
0.0
 11
-0.7611019759588942
 21
6.213318426004564
 31
0.0
  0
LINE
  5
1C98
330
912
100
AcDbEntity
  8
0
100
AcDbLine
 10
-0.8000731191292303
 20
6.190818426004542
 30
0.0
 11
-0.7032596191292058
 21
6.023132525145984
 31
0.0
  0
LINE
  5
1C99
330
912
100
AcDbEntity
  8
0
100
AcDbLine
 10
-0.7611019759589297
 20
6.213318426004543
 30
0.0
 11
-0.6642884759589158
 21
6.045632525145985
 31
0.0
  0
LINE
  5
1C9A
330
912
100
AcDbEntity
  8
0
100
AcDbLine
 10
-0.7611019759588942
 20
6.213318426004564
 30
0.0
 11
-0.8000731191292303
 21
6.190818426004542
 31
0.0
  0
LINE
  5
1C9B
330
912
100
AcDbEntity
  8
0
100
AcDbLine
 10
-0.8756002886113414
 20
3.264974627100099
 30
0.0
 11
-0.7012500001859721
 21
3.264974627100102
 31
0.0
  0
LINE
  5
1C9C
330
912
100
AcDbEntity
  8
0
100
AcDbLine
 10
-0.8756002886113414
 20
3.360025372800077
 30
0.0
 11
-0.7012500001859721
 21
3.360025372800081
 31
0.0
  0
LINE
  5
1C9D
330
912
100
AcDbEntity
  8
0
100
AcDbLine
 10
-0.8756002886113414
 20
3.264974627100099
 30
0.0
 11
-0.8756002886113414
 21
3.360025372800077
 31
0.0
  0
LINE
  5
1C9E
330
912
100
AcDbEntity
  8
0
100
AcDbLine
 10
-0.8756002886113414
 20
3.360025372800077
 30
0.0
 11
-0.7012500001859703
 21
3.500000000000092
 31
0.0
  0
LINE
  5
1C9F
330
912
100
AcDbEntity
  8
0
100
AcDbLine
 10
-0.7012500001859738
 20
3.125000000000089
 30
0.0
 11
-0.8750000001859597
 21
3.264974627100099
 31
0.0
  0
LINE
  5
1CA0
330
912
100
AcDbEntity
  8
0
100
AcDbLine
 10
-0.8756002886113414
 20
4.514974627100099
 30
0.0
 11
-0.7012500001859614
 21
4.514974627100102
 31
0.0
  0
LINE
  5
1CA1
330
912
100
AcDbEntity
  8
0
100
AcDbLine
 10
-0.8756002886113414
 20
4.610025372800077
 30
0.0
 11
-0.7012500001859614
 21
4.610025372800081
 31
0.0
  0
LINE
  5
1CA2
330
912
100
AcDbEntity
  8
0
100
AcDbLine
 10
-0.8756002886113414
 20
4.514974627100099
 30
0.0
 11
-0.8756002886113414
 21
4.610025372800077
 31
0.0
  0
LINE
  5
1CA3
330
912
100
AcDbEntity
  8
0
100
AcDbLine
 10
-0.8756002886113414
 20
4.610025372800077
 30
0.0
 11
-0.7012500001859703
 21
4.750000000000092
 31
0.0
  0
LINE
  5
1CA4
330
912
100
AcDbEntity
  8
0
100
AcDbLine
 10
-0.7012500001859738
 20
4.375000000000089
 30
0.0
 11
-0.8750000001859597
 21
4.514974627100099
 31
0.0
  0
LINE
  5
1CA5
330
912
100
AcDbEntity
  8
0
100
AcDbLine
 10
-0.8756002886113414
 20
5.764974627100097
 30
0.0
 11
-0.7012500001859525
 21
5.764974627100097
 31
0.0
  0
LINE
  5
1CA6
330
912
100
AcDbEntity
  8
0
100
AcDbLine
 10
-0.8756002886113414
 20
5.860025372800076
 30
0.0
 11
-0.7012500001859507
 21
5.860025372800083
 31
0.0
  0
LINE
  5
1CA7
330
912
100
AcDbEntity
  8
0
100
AcDbLine
 10
-0.8756002886113414
 20
5.764974627100097
 30
0.0
 11
-0.8756002886113414
 21
5.860025372800076
 31
0.0
  0
LINE
  5
1CA8
330
912
100
AcDbEntity
  8
0
100
AcDbLine
 10
-0.8756002886113414
 20
5.860025372800076
 30
0.0
 11
-0.7012500001859703
 21
6.000000000000094
 31
0.0
  0
LINE
  5
1CA9
330
912
100
AcDbEntity
  8
0
100
AcDbLine
 10
-0.7012500001859738
 20
5.625000000000087
 30
0.0
 11
-0.8750000001859597
 21
5.764974627100097
 31
0.0
  0
LINE
  5
1CC7
330
912
100
AcDbEntity
  8
0
100
AcDbLine
 10
-0.6562500001859739
 20
2.86983573724601
 30
0.0
 11
-0.7012500001859756
 21
2.86983573724601
 31
0.0
  0
LINE
  5
1CC8
330
912
100
AcDbEntity
  8
0
100
AcDbLine
 10
0.9076613670876288
 20
2.869179929686862
 30
0.0
 11
0.951249999814042
 21
2.869835737246017
 31
0.0
  0
ARC
  5
1CC9
330
912
100
AcDbEntity
  8
0
100
AcDbCircle
 10
-0.7162500001859495
 20
6.015632525145998
 30
0.0
 40
0.015
100
AcDbArc
 50
0.000000000000007
 51
30.00000000000377
  0
ARC
  5
1CCA
330
912
100
AcDbEntity
  8
0
100
AcDbCircle
 10
-0.7162500001859495
 20
6.015632525145998
 30
0.0
 40
0.06
100
AcDbArc
 50
0.000000000000007
 51
30.00000000000377
  0
LINE
  5
1CCB
330
912
100
AcDbEntity
  8
0
  6
HIDDEN2
100
AcDbLine
 10
-0.7012500001859756
 20
4.685817270885533
 30
0.0
 11
-0.8207675897963362
 21
4.598144029570843
 31
0.0
  0
LINE
  5
1CCC
330
912
100
AcDbEntity
  8
0
  6
HIDDEN2
100
AcDbLine
 10
-0.8207675897963362
 20
4.526855970312592
 30
0.0
 11
-0.7012500001859756
 21
4.445228273393656
 31
0.0
  0
LINE
  5
1CCD
330
912
100
AcDbEntity
  8
0
  6
HIDDEN2
100
AcDbLine
 10
-0.833558279763519
 20
4.543656415008041
 30
0.0
 11
-0.833558279763519
 21
4.579300444645536
 31
0.0
  0
LINE
  5
1CCE
330
912
100
AcDbEntity
  8
0
  6
HIDDEN2
100
AcDbLine
 10
-0.7012500001859756
 20
5.935817270885531
 30
0.0
 11
-0.8207675897963362
 21
5.848144029570841
 31
0.0
  0
LINE
  5
1CCF
330
912
100
AcDbEntity
  8
0
  6
HIDDEN2
100
AcDbLine
 10
-0.8207675897963362
 20
5.776855970312591
 30
0.0
 11
-0.7012500001859756
 21
5.695228273393655
 31
0.0
  0
LINE
  5
1CD0
330
912
100
AcDbEntity
  8
0
  6
HIDDEN2
100
AcDbLine
 10
-0.833558279763519
 20
5.793656415008039
 30
0.0
 11
-0.833558279763519
 21
5.829300444645535
 31
0.0
  0
LINE
  5
1CD1
330
912
100
AcDbEntity
  8
0
  6
HIDDEN2
100
AcDbLine
 10
0.951249999814042
 20
3.435817270885533
 30
0.0
 11
1.070767589424403
 21
3.348144029570843
 31
0.0
  0
LINE
  5
1CD2
330
912
100
AcDbEntity
  8
0
  6
HIDDEN2
100
AcDbLine
 10
1.070767589424403
 20
3.276855970312592
 30
0.0
 11
0.951249999814042
 21
3.195228273393656
 31
0.0
  0
LINE
  5
1CD3
330
912
100
AcDbEntity
  8
0
  6
HIDDEN2
100
AcDbLine
 10
1.083558279391585
 20
3.293656415008041
 30
0.0
 11
1.083558279391585
 21
3.329300444645536
 31
0.0
  0
LINE
  5
1CD4
330
912
100
AcDbEntity
  8
0
  6
HIDDEN2
100
AcDbLine
 10
0.951249999814042
 20
4.685817270885533
 30
0.0
 11
1.070767589424403
 21
4.598144029570843
 31
0.0
  0
LINE
  5
1CD5
330
912
100
AcDbEntity
  8
0
  6
HIDDEN2
100
AcDbLine
 10
1.070767589424403
 20
4.526855970312592
 30
0.0
 11
0.951249999814042
 21
4.445228273393656
 31
0.0
  0
LINE
  5
1CD6
330
912
100
AcDbEntity
  8
0
  6
HIDDEN2
100
AcDbLine
 10
1.083558279391585
 20
4.543656415008041
 30
0.0
 11
1.083558279391585
 21
4.579300444645536
 31
0.0
  0
LINE
  5
1CD7
330
912
100
AcDbEntity
  8
0
  6
HIDDEN2
100
AcDbLine
 10
0.951249999814042
 20
5.935817270885531
 30
0.0
 11
1.070767589424403
 21
5.848144029570841
 31
0.0
  0
LINE
  5
1CD8
330
912
100
AcDbEntity
  8
0
  6
HIDDEN2
100
AcDbLine
 10
1.070767589424403
 20
5.776855970312591
 30
0.0
 11
0.951249999814042
 21
5.695228273393655
 31
0.0
  0
LINE
  5
1CD9
330
912
100
AcDbEntity
  8
0
  6
HIDDEN2
100
AcDbLine
 10
1.083558279391585
 20
5.793656415008039
 30
0.0
 11
1.083558279391585
 21
5.829300444645535
 31
0.0
  0
LINE
  5
1D23
330
912
100
AcDbEntity
  8
0
100
AcDbLine
 10
-0.7012500001859756
 20
3.181510725774508
 30
0.0
 11
-0.6562500001859739
 21
3.181510725774508
 31
0.0
  0
LINE
  5
1D24
330
912
100
AcDbEntity
  8
0
100
AcDbLine
 10
0.9062499998140261
 20
3.181510725774507
 30
0.0
 11
0.9512499998140349
 21
3.181510725774507
 31
0.0
  0
ENDSEC
  0
SECTION
  2
OBJECTS
  0
DICTIONARY
  5
907
330
0
100
AcDbDictionary
281
     1
  3
ACAD_COLOR
350
D08
  3
ACAD_GROUP
350
908
  3
ACAD_LAYOUT
350
958
  3
ACAD_MATERIAL
350
D07
  3
ACAD_MLINESTYLE
350
915
  3
ACAD_PLOTSETTINGS
350
959
  3
ACAD_PLOTSTYLENAME
350
956
  3
ACAD_TABLESTYLE
350
D09
  3
ACDBVARIABLEDICTIONARY
350
945
  0
DICTIONARY
  5
D19
330
8FD
100
AcDbDictionary
280
     1
281
     1
  3
ACAD_LAYERFILTERS
360
1F23
  3
ACAD_LAYERSTATES
360
D1A
  3
ACLYDICTIONARY
360
1F22
  0
DICTIONARY
  5
A80
330
912
100
AcDbDictionary
280
     1
281
     1
  3
ACAD_SORTENTS
360
13F7
  0
DICTIONARY
  5
D08
102
{ACAD_REACTORS
330
907
102
}
330
907
100
AcDbDictionary
281
     1
  0
DICTIONARY
  5
908
102
{ACAD_REACTORS
330
907
102
}
330
907
100
AcDbDictionary
281
     1
  0
DICTIONARY
  5
958
102
{ACAD_REACTORS
330
907
102
}
330
907
100
AcDbDictionary
281
     1
  3
Layout1
350
95B
  3
Model
350
95A
  0
DICTIONARY
  5
D07
102
{ACAD_REACTORS
330
907
102
}
330
907
100
AcDbDictionary
281
     1
  0
DICTIONARY
  5
915
102
{ACAD_REACTORS
330
907
102
}
330
907
100
AcDbDictionary
281
     1
  3
STANDARD
350
916
  0
DICTIONARY
  5
959
102
{ACAD_REACTORS
330
907
102
}
330
907
100
AcDbDictionary
281
     1
  0
ACDBDICTIONARYWDFLT
  5
956
102
{ACAD_REACTORS
330
907
102
}
330
907
100
AcDbDictionary
281
     1
  3
Normal
350
957
100
AcDbDictionaryWithDefault
340
957
  0
DICTIONARY
  5
D09
102
{ACAD_REACTORS
330
907
102
}
330
907
100
AcDbDictionary
281
     1
  3
Standard
350
D0A
  0
DICTIONARY
  5
945
102
{ACAD_REACTORS
330
907
102
}
330
907
100
AcDbDictionary
281
     1
  3
CTABLESTYLE
350
EC1
  3
DIMADEC
350
946
  3
DIMASSOC
350
1854
  0
DICTIONARY
  5
1F23
102
{ACAD_REACTORS
330
D19
102
}
330
D19
100
AcDbDictionary
281
     1
  0
DICTIONARY
  5
D1A
102
{ACAD_REACTORS
330
D19
102
}
330
D19
100
AcDbDictionary
281
     1
  0
DICTIONARY
  5
1F22
102
{ACAD_REACTORS
330
D19
102
}
330
D19
100
AcDbDictionary
281
     1
1001
ACAD
1000
<All
  0
SORTENTSTABLE
  5
13F7
102
{ACAD_REACTORS
330
A80
102
}
330
A80
100
AcDbSortentsTable
330
912
331
0
  5
1D14
331
EA6
  5
EA6
331
1C9C
  5
1C9C
331
1C9D
  5
1C9D
331
254
  5
254
331
4E
  5
4E
331
167
  5
167
331
EA1
  5
EA1
331
EA4
  5
EA4
331
2E
  5
2E
331
1F9
  5
1F9
331
E83
  5
E83
331
1C86
  5
1C86
331
1C87
  5
1C87
331
2D
  5
2D
331
1C74
  5
1C74
331
1C81
  5
1C81
331
255
  5
255
331
5C
  5
5C
331
1C8C
  5
1C8C
331
1C8D
  5
1C8D
331
1D24
  5
1D24
331
183
  5
183
331
E9B
  5
E9B
331
1C91
  5
1C91
331
1C92
  5
1C92
331
D
  5
D
331
25
  5
25
331
E99
  5
E99
331
E98
  5
E98
331
E97
  5
E97
331
E96
  5
E96
331
E9C
  5
E9C
331
1C73
  5
1C73
331
10
  5
10
331
E9A
  5
E9A
331
F
  5
F
331
1C89
  5
1C89
331
1C8A
  5
1C8A
331
1AA
  5
1AA
331
E94
  5
E94
331
1C
  5
1C
331
1C6F
  5
1C6F
331
1E
  5
1E
331
258
  5
258
331
22
  5
22
331
24D
  5
24D
331
1C6B
  5
1C6B
331
21
  5
21
331
257
  5
257
331
25B
  5
25B
331
1F4
  5
1F4
331
E89
  5
E89
331
25A
  5
25A
331
E95
  5
E95
331
253
  5
253
331
30
  5
30
331
14
  5
14
331
5E
  5
5E
331
5D
  5
5D
331
13
  5
13
331
17
  5
17
331
1332
  5
1332
331
1C90
  5
1C90
331
24
  5
24
331
1CD7
  5
1CD7
331
1CD8
  5
1CD8
331
EA0
  5
EA0
331
1CD9
  5
1CD9
331
1D23
  5
1D23
331
1CC9
  5
1CC9
331
1CCA
  5
1CCA
331
187
  5
187
331
252
  5
252
331
15
  5
15
331
E9F
  5
E9F
331
259
  5
259
331
1B
  5
1B
331
E
  5
E
331
EA8
  5
EA8
331
4A
  5
4A
331
E9E
  5
E9E
331
E9D
  5
E9D
331
1335
  5
1335
331
2C
  5
2C
331
1C95
  5
1C95
331
E93
  5
E93
331
5F
  5
5F
331
E84
  5
E84
331
4C
  5
4C
331
1C88
  5
1C88
331
1C93
  5
1C93
331
1C94
  5
1C94
331
EBE
  5
EBE
331
1CCB
  5
1CCB
331
1CCC
  5
1CCC
331
E8A
  5
E8A
331
2B
  5
2B
331
E88
  5
E88
331
1338
  5
1338
331
EA7
  5
EA7
331
19
  5
19
331
2A
  5
2A
331
E85
  5
E85
331
EBC
  5
EBC
331
1698
  5
1698
331
1C70
  5
1C70
331
EA5
  5
EA5
331
1CCD
  5
1CCD
331
1CCE
  5
1CCE
331
1CD5
  5
1CD5
331
1CD6
  5
1CD6
331
1F
  5
1F
331
1C6D
  5
1C6D
331
1C6E
  5
1C6E
331
1CA2
  5
1CA2
331
1CA3
  5
1CA3
331
4F
  5
4F
331
24C
  5
24C
331
162
  5
162
331
251
  5
251
331
56
  5
56
331
EA2
  5
EA2
331
4D
  5
4D
331
1EB
  5
1EB
331
51
  5
51
331
23
  5
23
331
50
  5
50
331
1CA6
  5
1CA6
331
1CA7
  5
1CA7
331
256
  5
256
331
24F
  5
24F
331
165
  5
165
331
2F
  5
2F
331
1AE
  5
1AE
331
5B
  5
5B
331
E91
  5
E91
331
1C82
  5
1C82
331
31
  5
31
331
1CD3
  5
1CD3
331
1CD4
  5
1CD4
331
E8B
  5
E8B
331
54
  5
54
331
1C85
  5
1C85
331
1CA8
  5
1CA8
331
1CA9
  5
1CA9
331
250
  5
250
331
24E
  5
24E
331
1D
  5
1D
331
1C83
  5
1C83
331
1C84
  5
1C84
331
1C71
  5
1C71
331
1C72
  5
1C72
331
1CD1
  5
1CD1
331
1CD2
  5
1CD2
331
1CCF
  5
1CCF
331
1CD0
  5
1CD0
331
E8D
  5
E8D
331
198
  5
198
331
20
  5
20
331
1C8E
  5
1C8E
331
1C8F
  5
1C8F
331
1C98
  5
1C98
331
1C99
  5
1C99
331
60
  5
60
331
1C6C
  5
1C6C
331
1C9E
  5
1C9E
331
1C9F
  5
1C9F
331
55
  5
55
331
E8C
  5
E8C
331
E92
  5
E92
331
4B
  5
4B
331
1C8B
  5
1C8B
331
1C9A
  5
1C9A
331
1C9B
  5
1C9B
331
62
  5
62
331
1CC7
  5
1CC7
331
1CC8
  5
1CC8
331
14D
  5
14D
331
1CA0
  5
1CA0
331
1CA1
  5
1CA1
331
C
  5
C
331
1CA4
  5
1CA4
331
1CA5
  5
1CA5
331
EA3
  5
EA3
  0
LAYOUT
  5
95B
102
{ACAD_REACTORS
330
958
102
}
330
958
100
AcDbPlotSettings
  1

  2
HP LaserJet 4
  4

  6

 40
0.0
 41
0.0
 42
0.0
 43
0.0
 44
0.0
 45
0.0
 46
0.0
 47
0.0
 48
0.0
 49
0.0
140
0.0
141
0.0
142
1.0
143
1.0
 70
   688
 72
     0
 73
     0
 74
     5
  7

 75
    16
 76
     0
 77
     2
 78
   300
147
1.0
148
0.0
149
0.0
100
AcDbLayout
  1
Layout1
 70
     0
 71
     1
 10
0.0
 20
0.0
 11
12.0
 21
9.0
 12
0.0
 22
0.0
 32
0.0
 14
1.000000000000000E+20
 24
1.000000000000000E+20
 34
1.000000000000000E+20
 15
-1.000000000000000E+20
 25
-1.000000000000000E+20
 35
-1.000000000000000E+20
146
0.0
 13
0.0
 23
0.0
 33
0.0
 16
1.0
 26
0.0
 36
0.0
 17
0.0
 27
1.0
 37
0.0
 76
     0
330
90F
  0
LAYOUT
  5
95A
102
{ACAD_REACTORS
330
958
102
}
330
958
100
AcDbPlotSettings
  1

  2
HP LaserJet 4
  4
Letter
  6

 40
7.143749713897705
 41
6.127734661102295
 42
7.14373779296875
 43
7.14373779296875
 44
215.8999938964844
 45
279.3999938964844
 46
0.0
 47
0.0
 48
0.0
 49
0.0
140
0.0
141
0.0
142
1.0
143
1.0
 70
 11952
 72
     0
 73
     1
 74
     0
  7

 75
     0
 76
     0
 77
     2
 78
   300
147
1.0
148
-167.083527895903
149
6.421373101192719
100
AcDbLayout
  1
Model
 70
     1
 71
     0
 10
0.0
 20
0.0
 11
12.0
 21
9.0
 12
0.0
 22
0.0
 32
0.0
 14
0.0
 24
0.0
 34
0.0
 15
0.0
 25
0.0
 35
0.0
146
0.0
 13
0.0
 23
0.0
 33
0.0
 16
1.0
 26
0.0
 36
0.0
 17
0.0
 27
1.0
 37
0.0
 76
     0
330
912
  0
MLINESTYLE
  5
916
102
{ACAD_REACTORS
330
915
102
}
330
915
100
AcDbMlineStyle
  2
STANDARD
 70
     0
  3

 62
   256
 51
90.0
 52
90.0
 71
     2
 49
0.5
 62
   256
  6
BYLAYER
 49
-0.5
 62
   256
  6
BYLAYER
  0
ACDBPLACEHOLDER
  5
957
102
{ACAD_REACTORS
330
956
102
}
330
956
  0
ACAD_PROXY_OBJECT
  5
D0A
102
{ACAD_REACTORS
330
D09
102
}
330
D09
100
AcDbProxyObject
 90
      499
 91
      537
 95
   983063
 70
     0
 93
     1841
310
4214DD185B99185C9928B81E85EB51B8AE3F2E07A17AD46E2B8FC02B5E8DC0F42B1CFD028000000C1008070000C3001FDFF8000000C1003FBFF000000182007F7FE00000030400FEFFC00000060801FDFF8000000C1003FBFF00000018200000000000000681FA0B0000001820100E000186003FBFF000000182007F7FE000
310
00030400FEFFC00000060801FDFF8000000C1003FBFF000000182007F7FE000000304000AD7A3703D0AC73F4160000003040201C00030C007F7FE00000030400FEFFC00000060801FDFF8000000C1003FBFF000000182007F7FE00000030400FEFFC000000608000
340
90A
340
90A
340
90A
 94
        0
  0
DICTIONARYVAR
  5
EC1
102
{ACAD_REACTORS
330
945
102
}
330
945
100
DictionaryVariables
280
     0
  1
STANDARD
  0
DICTIONARYVAR
  5
946
102
{ACAD_REACTORS
330
945
102
}
330
945
100
DictionaryVariables
280
     0
  1
0
  0
DICTIONARYVAR
  5
1854
102
{ACAD_REACTORS
330
945
102
}
330
945
100
DictionaryVariables
280
     0
  1
0
  0
ENDSEC
  0
EOF
