  0
SECTION
  2
HEADER
  9
$ACADVER
  1
AC1018
  9
$ACADMAINTVER
 70
     6
  9
$DWGCODEPAGE
  3
ANSI_1252
  9
$INSBASE
 10
0.0
 20
0.0
 30
0.0
  9
$EXTMIN
 10
-6.592601412949977
 20
0.0
 30
0.0
  9
$EXTMAX
 10
6.853846853099993
 20
9.537790374882173
 30
0.0
  9
$LIMMIN
 10
-0.0625
 20
-0.0625
  9
$LIMMAX
 10
21.12826639170268
 20
15.63285024802469
  9
$ORTHOMODE
 70
     1
  9
$REGENMODE
 70
     1
  9
$FILLMODE
 70
     1
  9
$QTEXTMODE
 70
     0
  9
$MIRRTEXT
 70
     1
  9
$LTSCALE
 40
0.5
  9
$ATTMODE
 70
     1
  9
$TEXTSIZE
 40
0.18
  9
$TRACEWID
 40
0.05
  9
$TEXTSTYLE
  7
STANDARD
  9
$CLAYER
  8
0
  9
$CELTYPE
  6
BYLAYER
  9
$CECOLOR
 62
   256
  9
$CELTSCALE
 40
1.0
  9
$DISPSILH
 70
     0
  9
$DIMSCALE
 40
2.0
  9
$DIMASZ
 40
0.125
  9
$DIMEXO
 40
0.062
  9
$DIMDLI
 40
0.375
  9
$DIMRND
 40
0.0
  9
$DIMDLE
 40
0.0
  9
$DIMEXE
 40
0.08
  9
$DIMTP
 40
0.0
  9
$DIMTM
 40
0.0
  9
$DIMTXT
 40
0.09
  9
$DIMCEN
 40
0.0275
  9
$DIMTSZ
 40
0.0
  9
$DIMTOL
 70
     0
  9
$DIMLIM
 70
     0
  9
$DIMTIH
 70
     1
  9
$DIMTOH
 70
     1
  9
$DIMSE1
 70
     0
  9
$DIMSE2
 70
     0
  9
$DIMTAD
 70
     0
  9
$DIMZIN
 70
     0
  9
$DIMBLK
  1

  9
$DIMASO
 70
     0
  9
$DIMSHO
 70
     0
  9
$DIMPOST
  1

  9
$DIMAPOST
  1

  9
$DIMALT
 70
     0
  9
$DIMALTD
 70
     2
  9
$DIMALTF
 40
25.4
  9
$DIMLFAC
 40
1.0
  9
$DIMTOFL
 70
     0
  9
$DIMTVP
 40
0.0
  9
$DIMTIX
 70
     0
  9
$DIMSOXD
 70
     0
  9
$DIMSAH
 70
     0
  9
$DIMBLK1
  1

  9
$DIMBLK2
  1

  9
$DIMSTYLE
  2
STANDARD
  9
$DIMCLRD
 70
     0
  9
$DIMCLRE
 70
     0
  9
$DIMCLRT
 70
     0
  9
$DIMTFAC
 40
1.0
  9
$DIMGAP
 40
0.09
  9
$DIMJUST
 70
     0
  9
$DIMSD1
 70
     0
  9
$DIMSD2
 70
     0
  9
$DIMTOLJ
 70
     1
  9
$DIMTZIN
 70
     0
  9
$DIMALTZ
 70
     0
  9
$DIMALTTZ
 70
     0
  9
$DIMUPT
 70
     0
  9
$DIMDEC
 70
     5
  9
$DIMTDEC
 70
     5
  9
$DIMALTU
 70
     5
  9
$DIMALTTD
 70
     2
  9
$DIMTXSTY
  7
STANDARD
  9
$DIMAUNIT
 70
     0
  9
$DIMADEC
 70
     0
  9
$DIMALTRND
 40
0.0
  9
$DIMAZIN
 70
     0
  9
$DIMDSEP
 70
    46
  9
$DIMATFIT
 70
     3
  9
$DIMFRAC
 70
     2
  9
$DIMLDRBLK
  1

  9
$DIMLUNIT
 70
     5
  9
$DIMLWD
 70
    -2
  9
$DIMLWE
 70
    -2
  9
$DIMTMOVE
 70
     2
  9
$LUNITS
 70
     5
  9
$LUPREC
 70
     5
  9
$SKETCHINC
 40
0.1
  9
$FILLETRAD
 40
0.0
  9
$AUNITS
 70
     0
  9
$AUPREC
 70
     0
  9
$MENU
  1
simpson
  9
$ELEVATION
 40
0.0
  9
$PELEVATION
 40
0.0
  9
$THICKNESS
 40
0.0
  9
$LIMCHECK
 70
     0
  9
$CHAMFERA
 40
0.0
  9
$CHAMFERB
 40
0.0
  9
$CHAMFERC
 40
0.0
  9
$CHAMFERD
 40
0.0
  9
$SKPOLY
 70
     0
  9
$TDCREATE
 40
2449230.774080903
  9
$TDUCREATE
 40
2449231.107414236
  9
$TDUPDATE
 40
2454434.821819051
  9
$TDUUPDATE
 40
2454435.155152384
  9
$TDINDWG
 40
0.4517379282
  9
$TDUSRTIMER
 40
0.4517379282
  9
$USRTIMER
 70
     1
  9
$ANGBASE
 50
0.0
  9
$ANGDIR
 70
     0
  9
$PDMODE
 70
     0
  9
$PDSIZE
 40
0.0
  9
$PLINEWID
 40
0.0
  9
$SPLFRAME
 70
     0
  9
$SPLINETYPE
 70
     6
  9
$SPLINESEGS
 70
     8
  9
$HANDSEED
  5
1F59
  9
$SURFTAB1
 70
     6
  9
$SURFTAB2
 70
     6
  9
$SURFTYPE
 70
     6
  9
$SURFU
 70
     6
  9
$SURFV
 70
     6
  9
$UCSBASE
  2

  9
$UCSNAME
  2

  9
$UCSORG
 10
0.0
 20
0.0
 30
0.0
  9
$UCSXDIR
 10
1.0
 20
0.0
 30
0.0
  9
$UCSYDIR
 10
0.0
 20
1.0
 30
0.0
  9
$UCSORTHOREF
  2

  9
$UCSORTHOVIEW
 70
     0
  9
$UCSORGTOP
 10
0.0
 20
0.0
 30
0.0
  9
$UCSORGBOTTOM
 10
0.0
 20
0.0
 30
0.0
  9
$UCSORGLEFT
 10
0.0
 20
0.0
 30
0.0
  9
$UCSORGRIGHT
 10
0.0
 20
0.0
 30
0.0
  9
$UCSORGFRONT
 10
0.0
 20
0.0
 30
0.0
  9
$UCSORGBACK
 10
0.0
 20
0.0
 30
0.0
  9
$PUCSBASE
  2

  9
$PUCSNAME
  2

  9
$PUCSORG
 10
0.0
 20
0.0
 30
0.0
  9
$PUCSXDIR
 10
1.0
 20
0.0
 30
0.0
  9
$PUCSYDIR
 10
0.0
 20
1.0
 30
0.0
  9
$PUCSORTHOREF
  2

  9
$PUCSORTHOVIEW
 70
     0
  9
$PUCSORGTOP
 10
0.0
 20
0.0
 30
0.0
  9
$PUCSORGBOTTOM
 10
0.0
 20
0.0
 30
0.0
  9
$PUCSORGLEFT
 10
0.0
 20
0.0
 30
0.0
  9
$PUCSORGRIGHT
 10
0.0
 20
0.0
 30
0.0
  9
$PUCSORGFRONT
 10
0.0
 20
0.0
 30
0.0
  9
$PUCSORGBACK
 10
0.0
 20
0.0
 30
0.0
  9
$USERI1
 70
     0
  9
$USERI2
 70
     0
  9
$USERI3
 70
     0
  9
$USERI4
 70
     0
  9
$USERI5
 70
     0
  9
$USERR1
 40
0.0
  9
$USERR2
 40
0.0
  9
$USERR3
 40
0.0
  9
$USERR4
 40
0.0
  9
$USERR5
 40
0.0
  9
$WORLDVIEW
 70
     1
  9
$SHADEDGE
 70
     3
  9
$SHADEDIF
 70
    70
  9
$TILEMODE
 70
     1
  9
$MAXACTVP
 70
    16
  9
$PINSBASE
 10
0.0
 20
0.0
 30
0.0
  9
$PLIMCHECK
 70
     0
  9
$PEXTMIN
 10
1.000000000000000E+20
 20
1.000000000000000E+20
 30
1.000000000000000E+20
  9
$PEXTMAX
 10
-1.000000000000000E+20
 20
-1.000000000000000E+20
 30
-1.000000000000000E+20
  9
$PLIMMIN
 10
0.0
 20
0.0
  9
$PLIMMAX
 10
12.0
 20
9.0
  9
$UNITMODE
 70
     0
  9
$VISRETAIN
 70
     0
  9
$PLINEGEN
 70
     0
  9
$PSLTSCALE
 70
     0
  9
$TREEDEPTH
 70
  3020
  9
$CMLSTYLE
  2
STANDARD
  9
$CMLJUST
 70
     0
  9
$CMLSCALE
 40
1.0
  9
$PROXYGRAPHICS
 70
     1
  9
$MEASUREMENT
 70
     0
  9
$CELWEIGHT
370
    -1
  9
$ENDCAPS
280
     0
  9
$JOINSTYLE
280
     0
  9
$LWDISPLAY
290
     0
  9
$INSUNITS
 70
     0
  9
$HYPERLINKBASE
  1

  9
$STYLESHEET
  1

  9
$XEDIT
290
     1
  9
$CEPSNTYPE
380
     0
  9
$PSTYLEMODE
290
     1
  9
$FINGERPRINTGUID
  2
{4D67D000-BAD0-11D4-8FCF-00D0B726A456}
  9
$VERSIONGUID
  2
{454332FD-9604-4784-A466-1ED02261E0B3}
  9
$EXTNAMES
290
     1
  9
$PSVPSCALE
 40
0.0
  9
$OLESTARTUP
290
     0
  9
$SORTENTS
280
   127
  9
$INDEXCTL
280
     0
  9
$HIDETEXT
280
     1
  9
$XCLIPFRAME
290
     0
  9
$HALOGAP
280
     0
  9
$OBSCOLOR
 70
   257
  9
$OBSLTYPE
280
     0
  9
$INTERSECTIONDISPLAY
280
     0
  9
$INTERSECTIONCOLOR
 70
   257
  9
$DIMASSOC
280
     0
  9
$PROJECTNAME
  1

  0
ENDSEC
  0
SECTION
  2
CLASSES
  0
CLASS
  1
DICTIONARYVAR
  2
AcDbDictionaryVar
  3
AutoCAD 2000
 90
        0
 91
        1
280
     0
281
     0
  0
CLASS
  1
LWPOLYLINE
  2
AcDbPolyline
  3
AutoCAD 2000
 90
        0
 91
       11
280
     0
281
     1
  0
CLASS
  1
ACDBDICTIONARYWDFLT
  2
AcDbDictionaryWithDefault
  3
AutoCAD 2000
 90
        0
 91
        1
280
     0
281
     0
  0
CLASS
  1
ACDBPLACEHOLDER
  2
AcDbPlaceHolder
  3
ObjectDBX Classes
 90
        0
 91
        3
280
     0
281
     0
  0
CLASS
  1
LAYOUT
  2
AcDbLayout
  3
ObjectDBX Classes
 90
        0
 91
        3
280
     0
281
     0
  0
CLASS
  1
LONG_TRANSACTION
  2
AcDbLongTransaction
  3
ObjectDBX Classes
 90
   -65536
 91
        8
280
     1
281
     0
  0
CLASS
  1
LWPOLYLINE
  2
AcDbPolyline
  3
AutoCAD 2000
 90
        0
 91
       11
280
     0
281
     1
  0
CLASS
  1
HATCH
  2
AcDbHatch
  3
AutoCAD 2000
 90
        0
 91
       10
280
     0
281
     1
  0
CLASS
  1
XRECORD
  2
AcDbXrecord
  3
AutoCAD 2000
 90
        0
 91
       10
280
     0
281
     0
  0
CLASS
  1
LONG_TRANSACTION
  2
AcDbLongTransaction
  3
ObjectDBX Classes
 90
   -65536
 91
        8
280
     1
281
     0
  0
CLASS
  1
LWPOLYLINE
  2
AcDbPolyline
  3
AutoCAD 2000
 90
        0
 91
       11
280
     0
281
     1
  0
CLASS
  1
HATCH
  2
AcDbHatch
  3
AutoCAD 2000
 90
        0
 91
       10
280
     0
281
     1
  0
CLASS
  1
XRECORD
  2
AcDbXrecord
  3
AutoCAD 2000
 90
        0
 91
       10
280
     0
281
     0
  0
CLASS
  1
LONG_TRANSACTION
  2
AcDbLongTransaction
  3
ObjectDBX Classes
 90
   -65536
 91
        8
280
     1
281
     0
  0
CLASS
  1
LWPOLYLINE
  2
AcDbPolyline
  3
AutoCAD 2000
 90
        0
 91
       11
280
     0
281
     1
  0
CLASS
  1
HATCH
  2
AcDbHatch
  3
AutoCAD 2000
 90
        0
 91
       10
280
     0
281
     1
  0
CLASS
  1
XRECORD
  2
AcDbXrecord
  3
AutoCAD 2000
 90
        0
 91
       10
280
     0
281
     0
  0
CLASS
  1
LONG_TRANSACTION
  2
AcDbLongTransaction
  3
ObjectDBX Classes
 90
   -65536
 91
        8
280
     1
281
     0
  0
CLASS
  1
LWPOLYLINE
  2
AcDbPolyline
  3
AutoCAD 2000
 90
        0
 91
       11
280
     0
281
     1
  0
CLASS
  1
HATCH
  2
AcDbHatch
  3
AutoCAD 2000
 90
        0
 91
       10
280
     0
281
     1
  0
CLASS
  1
XRECORD
  2
AcDbXrecord
  3
AutoCAD 2000
 90
        0
 91
       10
280
     0
281
     0
  0
CLASS
  1
LONG_TRANSACTION
  2
AcDbLongTransaction
  3
ObjectDBX Classes
 90
   -65536
 91
        8
280
     1
281
     0
  0
CLASS
  1
LWPOLYLINE
  2
AcDbPolyline
  3
AutoCAD 2000
 90
        0
 91
       11
280
     0
281
     1
  0
CLASS
  1
HATCH
  2
AcDbHatch
  3
AutoCAD 2000
 90
        0
 91
       10
280
     0
281
     1
  0
CLASS
  1
XRECORD
  2
AcDbXrecord
  3
AutoCAD 2000
 90
        0
 91
       10
280
     0
281
     0
  0
CLASS
  1
LONG_TRANSACTION
  2
AcDbLongTransaction
  3
ObjectDBX Classes
 90
   -65536
 91
        8
280
     1
281
     0
  0
CLASS
  1
LWPOLYLINE
  2
AcDbPolyline
  3
AutoCAD 2000
 90
        0
 91
       11
280
     0
281
     1
  0
CLASS
  1
HATCH
  2
AcDbHatch
  3
AutoCAD 2000
 90
        0
 91
       10
280
     0
281
     1
  0
CLASS
  1
XRECORD
  2
AcDbXrecord
  3
AutoCAD 2000
 90
        0
 91
       10
280
     0
281
     0
  0
CLASS
  1
LONG_TRANSACTION
  2
AcDbLongTransaction
  3
ObjectDBX Classes
 90
   -65536
 91
        8
280
     1
281
     0
  0
CLASS
  1
LWPOLYLINE
  2
AcDbPolyline
  3
AutoCAD 2000
 90
        0
 91
       11
280
     0
281
     1
  0
CLASS
  1
HATCH
  2
AcDbHatch
  3
AutoCAD 2000
 90
        0
 91
       10
280
     0
281
     1
  0
CLASS
  1
XRECORD
  2
AcDbXrecord
  3
AutoCAD 2000
 90
        0
 91
       10
280
     0
281
     0
  0
CLASS
  1
LONG_TRANSACTION
  2
AcDbLongTransaction
  3
ObjectDBX Classes
 90
   -65536
 91
        8
280
     1
281
     0
  0
CLASS
  1
LWPOLYLINE
  2
AcDbPolyline
  3
AutoCAD 2000
 90
        0
 91
       11
280
     0
281
     1
  0
CLASS
  1
HATCH
  2
AcDbHatch
  3
AutoCAD 2000
 90
        0
 91
       10
280
     0
281
     1
  0
CLASS
  1
XRECORD
  2
AcDbXrecord
  3
AutoCAD 2000
 90
        0
 91
       10
280
     0
281
     0
  0
CLASS
  1
TABLESTYLE
  2
AcDbTableStyle
  3
ObjectDBX Classes
 90
     2047
 91
        2
280
     1
281
     0
  0
CLASS
  1
SORTENTSTABLE
  2
AcDbSortentsTable
  3
AutoCAD 2000
 90
        0
 91
        1
280
     0
281
     0
  0
ENDSEC
  0
SECTION
  2
TABLES
  0
TABLE
  2
VPORT
  5
903
330
0
100
AcDbSymbolTable
 70
     3
  0
VPORT
  5
1F53
330
903
100
AcDbSymbolTableRecord
100
AcDbViewportTableRecord
  2
*Active
 70
     0
 10
0.0
 20
0.0
 11
1.0
 21
1.0
 12
3.328769293748412
 22
5.584972539696277
 13
0.0
 23
0.0
 14
0.063
 24
0.063
 15
0.25
 25
0.25
 16
0.0
 26
0.0
 36
1.0
 17
0.0
 27
0.0
 37
0.0
 40
15.88675700619345
 41
1.78118609406953
 42
50.0
 43
0.0
 44
0.0
 50
0.0
 51
0.0
 71
     0
 72
   100
 73
     1
 74
     0
 75
     0
 76
     0
 77
     0
 78
     0
281
     0
 65
     1
110
0.0
120
0.0
130
0.0
111
1.0
121
0.0
131
0.0
112
0.0
122
1.0
132
0.0
 79
     0
146
0.0
  0
ENDTAB
  0
TABLE
  2
LTYPE
  5
900
330
0
100
AcDbSymbolTable
 70
     3
  0
LTYPE
  5
90C
330
900
100
AcDbSymbolTableRecord
100
AcDbLinetypeTableRecord
  2
BYBLOCK
 70
     0
  3

 72
    65
 73
     0
 40
0.0
  0
LTYPE
  5
90D
330
900
100
AcDbSymbolTableRecord
100
AcDbLinetypeTableRecord
  2
BYLAYER
 70
     0
  3

 72
    65
 73
     0
 40
0.0
  0
LTYPE
  5
90E
330
900
100
AcDbSymbolTableRecord
100
AcDbLinetypeTableRecord
  2
CONTINUOUS
 70
     0
  3
Solid line
 72
    65
 73
     0
 40
0.0
  0
LTYPE
  5
927
330
900
100
AcDbSymbolTableRecord
100
AcDbLinetypeTableRecord
  2
DASHED
 70
     0
  3
__ __ __ __ __ __ __ __ __ __ __ __ __ __ __
 72
    65
 73
     2
 40
0.75
 49
0.5
 74
     0
 49
-0.25
 74
     0
  0
LTYPE
  5
111B
330
900
100
AcDbSymbolTableRecord
100
AcDbLinetypeTableRecord
  2
HIDDEN2
 70
     0
  3
Hidden (.5x) _ _ _ _ _ _ _ _ _ _ _ _ _ _ _ _ _
 72
    65
 73
     2
 40
0.1875
 49
0.125
 74
     0
 49
-0.0625
 74
     0
  0
ENDTAB
  0
TABLE
  2
LAYER
  5
8FD
102
{ACAD_XDICTIONARY
360
D19
102
}
330
0
100
AcDbSymbolTable
 70
     3
  0
LAYER
  5
909
330
8FD
100
AcDbSymbolTableRecord
100
AcDbLayerTableRecord
  2
0
 70
     0
 62
     7
  6
CONTINUOUS
370
    -3
390
957
  0
LAYER
  5
932
330
8FD
100
AcDbSymbolTableRecord
100
AcDbLayerTableRecord
  2
DIM
 70
     0
 62
     5
  6
CONTINUOUS
370
    -3
390
957
  0
LAYER
  5
93F
330
8FD
100
AcDbSymbolTableRecord
100
AcDbLayerTableRecord
  2
DEFPOINTS
 70
     0
 62
     7
  6
CONTINUOUS
290
     0
370
    -3
390
957
  0
ENDTAB
  0
TABLE
  2
STYLE
  5
8FE
330
0
100
AcDbSymbolTable
 70
     1
  0
STYLE
  5
90A
330
8FE
100
AcDbSymbolTableRecord
100
AcDbTextStyleTableRecord
  2
STANDARD
 70
     0
 40
0.0
 41
1.0
 50
0.0
 71
     0
 42
0.18
  3
TXT
  4

  0
ENDTAB
  0
TABLE
  2
VIEW
  5
901
330
0
100
AcDbSymbolTable
 70
     0
  0
ENDTAB
  0
TABLE
  2
UCS
  5
902
330
0
100
AcDbSymbolTable
 70
     0
  0
ENDTAB
  0
TABLE
  2
APPID
  5
904
330
0
100
AcDbSymbolTable
 70
     6
  0
APPID
  5
90B
330
904
100
AcDbSymbolTableRecord
100
AcDbRegAppTableRecord
  2
ACAD
 70
     0
  0
APPID
  5
CC7
330
904
100
AcDbSymbolTableRecord
100
AcDbRegAppTableRecord
  2
CONTENTBLOCKICON
 70
     0
  0
APPID
  5
D18
330
904
100
AcDbSymbolTableRecord
100
AcDbRegAppTableRecord
  2
ACAD_PSEXT
 70
     0
  0
APPID
  5
D65
330
904
100
AcDbSymbolTableRecord
100
AcDbRegAppTableRecord
  2
RAK
 70
     0
  0
APPID
  5
14AB
330
904
100
AcDbSymbolTableRecord
100
AcDbRegAppTableRecord
  2
ACAD_DSTYLE_DIMTEXT_FILL
 70
     0
  0
APPID
  5
193B
330
904
100
AcDbSymbolTableRecord
100
AcDbRegAppTableRecord
  2
AcAecLayerStandard
 70
     0
  0
ENDTAB
  0
TABLE
  2
DIMSTYLE
  5
905
330
0
100
AcDbSymbolTable
 70
     1
100
AcDbDimStyleTable
  0
DIMSTYLE
105
94A
330
905
100
AcDbSymbolTableRecord
100
AcDbDimStyleTableRecord
  2
STANDARD
 70
     0
  3

  4

340
90A
  0
ENDTAB
  0
TABLE
  2
BLOCK_RECORD
  5
8FC
330
0
100
AcDbSymbolTable
 70
     0
  0
BLOCK_RECORD
  5
912
102
{ACAD_XDICTIONARY
360
A80
102
}
330
8FC
100
AcDbSymbolTableRecord
100
AcDbBlockTableRecord
  2
*MODEL_SPACE
340
95A
  0
BLOCK_RECORD
  5
90F
330
8FC
100
AcDbSymbolTableRecord
100
AcDbBlockTableRecord
  2
*PAPER_SPACE
340
95B
  0
ENDTAB
  0
ENDSEC
  0
SECTION
  2
BLOCKS
  0
BLOCK
  5
943
330
912
100
AcDbEntity
  8
0
100
AcDbBlockBegin
  2
*MODEL_SPACE
 70
     0
 10
0.0
 20
0.0
 30
0.0
  3
*MODEL_SPACE
  1

  4

  0
ENDBLK
  5
944
330
912
100
AcDbEntity
  8
0
100
AcDbBlockEnd
  0
BLOCK
  5
941
330
90F
100
AcDbEntity
 67
     1
  8
0
100
AcDbBlockBegin
  2
*PAPER_SPACE
 70
     0
 10
0.0
 20
0.0
 30
0.0
  3
*PAPER_SPACE
  1

  4

  0
ENDBLK
  5
942
330
90F
100
AcDbEntity
 67
     1
  8
0
100
AcDbBlockEnd
  0
ENDSEC
  0
SECTION
  2
ENTITIES
  0
LINE
  5
66
330
912
100
AcDbEntity
  8
0
100
AcDbLine
 10
-0.0000000000000071
 20
6.249999999375007
 30
0.0
 11
0.0
 21
2.827999999717203
 31
0.0
  0
LINE
  5
99
330
912
100
AcDbEntity
  8
0
100
AcDbLine
 10
0.0468749999999929
 20
6.249999999375007
 30
0.0
 11
0.046875
 21
2.827999999717203
 31
0.0
  0
LINE
  5
9B
330
912
100
AcDbEntity
  8
0
100
AcDbLine
 10
0.0
 20
0.0
 30
0.0
 11
0.0468750000000071
 21
0.0
 31
0.0
  0
LINE
  5
9C
330
912
100
AcDbEntity
  8
0
100
AcDbLine
 10
0.0
 20
0.8749999999125002
 30
0.0
 11
0.046875
 21
0.8749999999125002
 31
0.0
  0
LINE
  5
9D
330
912
100
AcDbEntity
  8
0
100
AcDbLine
 10
0.0
 20
2.827999999717203
 30
0.0
 11
0.0
 21
0.0
 31
0.0
  0
LINE
  5
9E
330
912
100
AcDbEntity
  8
0
100
AcDbLine
 10
0.046875
 20
2.827999999717203
 30
0.0
 11
0.046875
 21
0.0
 31
0.0
  0
TEXT
  5
14D
330
912
100
AcDbEntity
  8
DIM
100
AcDbText
 10
10.12408449696469
 20
4.068212781541774
 30
0.0
 40
0.18
  1
   
 72
     1
 11
10.39408449696469
 21
4.158212781541773
 31
0.0
100
AcDbText
 73
     2
  0
TEXT
  5
162
330
912
100
AcDbEntity
  8
DIM
100
AcDbText
 10
9.490633768740528
 20
10.30248000976627
 30
0.0
 40
0.18
  1
   
 72
     1
 11
9.760633768740528
 21
10.39248000976627
 31
0.0
100
AcDbText
 73
     2
  0
TEXT
  5
165
330
912
100
AcDbEntity
  8
DIM
100
AcDbText
 10
10.89063376874053
 20
10.30248000976627
 30
0.0
 40
0.18
  1
   
 72
     1
 11
11.16063376874053
 21
10.39248000976627
 31
0.0
100
AcDbText
 73
     2
  0
TEXT
  5
167
330
912
100
AcDbEntity
  8
DIM
100
AcDbText
 10
13.99499283548314
 20
8.991853140450484
 30
0.0
 40
0.18
  1
   
 50
0.0000000000004725
 72
     1
 11
14.26499283548314
 21
9.081853140450486
 31
0.0
100
AcDbText
 73
     2
  0
TEXT
  5
187
330
912
100
AcDbEntity
  8
DIM
100
AcDbText
 10
6.744271454333585
 20
10.00119208936096
 30
0.0
 40
0.18
  1
   
 72
     1
 11
7.014271454333586
 21
10.09119208936096
 31
0.0
100
AcDbText
 73
     2
  0
TEXT
  5
1AA
330
912
100
AcDbEntity
  8
DIM
100
AcDbText
 10
5.897456379333873
 20
13.05801928828673
 30
0.0
 40
0.18
  1
   
 72
     1
 11
6.167456379333873
 21
13.14801928828673
 31
0.0
100
AcDbText
 73
     2
  0
TEXT
  5
1AE
330
912
100
AcDbEntity
  8
DIM
100
AcDbText
 10
5.976576011688149
 20
13.44427333211265
 30
0.0
 40
0.18
  1
   
 72
     1
 11
6.246576011688148
 21
13.53427333211265
 31
0.0
100
AcDbText
 73
     2
  0
LINE
  5
1B1
330
912
100
AcDbEntity
  8
0
100
AcDbLine
 10
-0.0460000000000065
 20
5.647554828005337
 30
0.0
 11
-0.0460000000000065
 21
4.677640438423582
 31
0.0
  0
LINE
  5
1B3
330
912
100
AcDbEntity
  8
0
100
AcDbLine
 10
-0.04600000000001
 20
4.393281889665557
 30
0.0
 11
-0.0460000000000029
 21
3.476073112521316
 31
0.0
  0
TEXT
  5
1EB
330
912
100
AcDbEntity
  8
DIM
100
AcDbText
 10
1.842470867907979
 20
8.650143111240459
 30
0.0
 40
0.18
  1
   
 72
     1
 11
2.112470867907979
 21
8.740143111240458
 31
0.0
100
AcDbText
 73
     2
  0
TEXT
  5
1F4
330
912
100
AcDbEntity
  8
DIM
100
AcDbText
 10
3.603436499739043
 20
5.304072196697443
 30
0.0
 40
0.18
  1
   
 72
     1
 11
3.873436499739043
 21
5.394072196697443
 31
0.0
100
AcDbText
 73
     2
  0
TEXT
  5
1F9
330
912
100
AcDbEntity
  8
DIM
100
AcDbText
 10
6.608749707825803
 20
9.025546603186239
 30
0.0
 40
0.18
  1
   
 72
     1
 11
6.878749707825803
 21
9.115546603186239
 31
0.0
100
AcDbText
 73
     2
  0
LINE
  5
13D9
330
912
100
AcDbEntity
  8
0
  6
HIDDEN2
100
AcDbLine
 10
-0.1176425896104334
 20
3.276855969687501
 30
0.0
 11
-0.0000000000000071
 21
3.196508853578605
 31
0.0
  0
LINE
  5
13DA
330
912
100
AcDbEntity
  8
0
  6
HIDDEN2
100
AcDbLine
 10
-0.0000000000000036
 20
3.434441846542525
 30
0.0
 11
-0.1176425896104334
 21
3.348144028945752
 31
0.0
  0
LINE
  5
13DE
330
912
100
AcDbEntity
  8
0
  6
HIDDEN2
100
AcDbLine
 10
-0.1304332795776162
 20
3.29365641438295
 30
0.0
 11
-0.1304332795776162
 21
3.329300444020445
 31
0.0
  0
ARC
  5
13E0
330
912
100
AcDbEntity
  8
0
100
AcDbCircle
 10
-0.0000000000000036
 20
5.647554828005337
 30
0.0
 40
0.0460000000000029
100
AcDbArc
 50
89.99999999999552
 51
180.0
  0
ARC
  5
13E2
330
912
100
AcDbEntity
  8
0
100
AcDbCircle
 10
-0.0000000000000036
 20
4.677640438423582
 30
0.0
 40
0.0460000000000029
100
AcDbArc
 50
180.0
 51
270.0000000000045
  0
ARC
  5
13E3
330
912
100
AcDbEntity
  8
0
100
AcDbCircle
 10
-0.0000000000000071
 20
4.393281889665557
 30
0.0
 40
0.0460000000000029
100
AcDbArc
 50
89.99999999999552
 51
180.0
  0
ARC
  5
13E4
330
912
100
AcDbEntity
  8
0
100
AcDbCircle
 10
0.0
 20
3.476073112521316
 30
0.0
 40
0.0460000000000029
100
AcDbArc
 50
180.0
 51
270.0000000000045
  0
LINE
  5
1D75
330
912
100
AcDbEntity
  8
0
100
AcDbLine
 10
0.0468749999999929
 20
6.249999999375007
 30
0.0
 11
-0.0293750000000301
 21
6.249999999375
 31
0.0
  0
LINE
  5
1D76
330
912
100
AcDbEntity
  8
0
  6
DASHED
100
AcDbLine
 10
-0.0293750000000053
 20
6.249999999375007
 30
0.0
 11
-0.8106250000000053
 21
6.040664692788191
 31
0.0
  0
ARC
  5
1D77
330
912
100
AcDbEntity
  8
0
  6
Continuous
100
AcDbCircle
 10
-0.0543005947889306
 20
2.812499999374825
 30
0.0
 40
0.0625
100
AcDbArc
 50
25.997977931874
 51
65.07753684888984
  0
LINE
  5
1D78
330
912
100
AcDbEntity
  8
0
  6
Continuous
100
AcDbLine
 10
-0.8106250000000053
 20
6.124999999375007
 30
0.0
 11
-0.8106250000000053
 21
3.181510725499514
 31
0.0
  0
LINE
  5
1D79
330
912
100
AcDbEntity
  8
0
  6
Continuous
100
AcDbLine
 10
-0.0279636327264079
 20
2.869179929061772
 30
0.0
 11
-0.5999293034998345
 21
3.134950162995096
 31
0.0
  0
ARC
  5
1D7A
330
912
100
AcDbEntity
  8
0
  6
Continuous
100
AcDbCircle
 10
-0.8106250000000053
 20
2.681510725499514
 30
0.0
 40
0.5
100
AcDbArc
 50
65.07753684888984
 51
90.0
  0
ARC
  5
1D7B
330
912
100
AcDbEntity
  8
0
  6
Continuous
100
AcDbCircle
 10
-0.5450750000000184
 20
3.374999999374985
 30
0.0
 40
0.078
100
AcDbArc
 50
89.99999999999997
 51
270.0
  0
LINE
  5
1D7C
330
912
100
AcDbEntity
  8
0
  6
Continuous
100
AcDbLine
 10
-0.4510750000000137
 20
3.296999999374997
 30
0.0
 11
-0.545075000000022
 21
3.296999999374997
 31
0.0
  0
LINE
  5
1D7D
330
912
100
AcDbEntity
  8
0
  6
Continuous
100
AcDbLine
 10
-0.4510750000000137
 20
3.452999999375003
 30
0.0
 11
-0.545075000000022
 21
3.452999999375003
 31
0.0
  0
ARC
  5
1D7E
330
912
100
AcDbEntity
  8
0
  6
Continuous
100
AcDbCircle
 10
-0.4510750000000101
 20
3.374999999374985
 30
0.0
 40
0.078
100
AcDbArc
 50
270.0
 51
89.99999999999997
  0
ARC
  5
1D7F
330
912
100
AcDbEntity
  8
0
100
AcDbCircle
 10
-0.5450750000000184
 20
4.062499999374985
 30
0.0
 40
0.078
100
AcDbArc
 50
89.99999999999997
 51
270.0
  0
LINE
  5
1D80
330
912
100
AcDbEntity
  8
0
100
AcDbLine
 10
-0.4510750000000137
 20
4.140499999375003
 30
0.0
 11
-0.545075000000022
 21
4.140499999375003
 31
0.0
  0
LINE
  5
1D81
330
912
100
AcDbEntity
  8
0
100
AcDbLine
 10
-0.4510750000000137
 20
3.984499999374997
 30
0.0
 11
-0.545075000000022
 21
3.984499999374997
 31
0.0
  0
ARC
  5
1D82
330
912
100
AcDbEntity
  8
0
100
AcDbCircle
 10
-0.4510750000000101
 20
4.062499999374985
 30
0.0
 40
0.078
100
AcDbArc
 50
270.0
 51
89.99999999999997
  0
LINE
  5
1D83
330
912
100
AcDbEntity
  8
0
100
AcDbLine
 10
-0.4510750000000137
 20
4.827999999375003
 30
0.0
 11
-0.545075000000022
 21
4.827999999375003
 31
0.0
  0
LINE
  5
1D84
330
912
100
AcDbEntity
  8
0
100
AcDbLine
 10
-0.4510750000000137
 20
4.671999999374997
 30
0.0
 11
-0.545075000000022
 21
4.671999999374997
 31
0.0
  0
ARC
  5
1D85
330
912
100
AcDbEntity
  8
0
100
AcDbCircle
 10
-0.4510750000000101
 20
4.749999999374985
 30
0.0
 40
0.078
100
AcDbArc
 50
270.0
 51
89.99999999999997
  0
ARC
  5
1D86
330
912
100
AcDbEntity
  8
0
100
AcDbCircle
 10
-0.5450750000000184
 20
4.749999999374985
 30
0.0
 40
0.078
100
AcDbArc
 50
89.99999999999997
 51
270.0
  0
LINE
  5
1D87
330
912
100
AcDbEntity
  8
0
100
AcDbLine
 10
-0.4510750000000137
 20
5.359499999374997
 30
0.0
 11
-0.545075000000022
 21
5.359499999374997
 31
0.0
  0
ARC
  5
1D88
330
912
100
AcDbEntity
  8
0
100
AcDbCircle
 10
-0.5450750000000184
 20
5.437499999374992
 30
0.0
 40
0.078
100
AcDbArc
 50
89.99999999999997
 51
270.0
  0
ARC
  5
1D89
330
912
100
AcDbEntity
  8
0
100
AcDbCircle
 10
-0.4510750000000101
 20
5.437499999374992
 30
0.0
 40
0.078
100
AcDbArc
 50
270.0
 51
89.99999999999997
  0
LINE
  5
1D8A
330
912
100
AcDbEntity
  8
0
100
AcDbLine
 10
-0.4510750000000137
 20
5.515499999375003
 30
0.0
 11
-0.545075000000022
 21
5.515499999375003
 31
0.0
  0
LINE
  5
1D8B
330
912
100
AcDbEntity
  8
0
100
AcDbLine
 10
-0.4510750000000137
 20
5.859499999374997
 30
0.0
 11
-0.545075000000022
 21
5.859499999374997
 31
0.0
  0
ARC
  5
1D8C
330
912
100
AcDbEntity
  8
0
100
AcDbCircle
 10
-0.5450750000000184
 20
5.937499999374992
 30
0.0
 40
0.078
100
AcDbArc
 50
89.99999999999997
 51
270.0
  0
ARC
  5
1D8D
330
912
100
AcDbEntity
  8
0
100
AcDbCircle
 10
-0.4510750000000101
 20
5.937499999374992
 30
0.0
 40
0.078
100
AcDbArc
 50
270.0
 51
89.99999999999997
  0
LINE
  5
1D8E
330
912
100
AcDbEntity
  8
0
100
AcDbLine
 10
-0.4510750000000101
 20
6.015499999375003
 30
0.0
 11
-0.5450750000000184
 21
6.015499999375003
 31
0.0
  0
LINE
  5
1D8F
330
912
100
AcDbEntity
  8
0
  6
Continuous
100
AcDbLine
 10
-0.1724752884254386
 20
3.264974626475009
 30
0.0
 11
0.0018749999999983
 21
3.264974626475013
 31
0.0
  0
LINE
  5
1D90
330
912
100
AcDbEntity
  8
0
  6
Continuous
100
AcDbLine
 10
-0.1724752884254386
 20
3.360025372174988
 30
0.0
 11
0.0018749999999983
 21
3.360025372174992
 31
0.0
  0
LINE
  5
1D91
330
912
100
AcDbEntity
  8
0
  6
Continuous
100
AcDbLine
 10
-0.1724752884254386
 20
3.264974626475009
 30
0.0
 11
-0.1724752884254386
 21
3.360025372174988
 31
0.0
  0
LINE
  5
1D92
330
912
100
AcDbEntity
  8
0
  6
Continuous
100
AcDbLine
 10
-0.1724752884254386
 20
3.360025372174988
 30
0.0
 11
-0.0441240101764713
 21
3.463070354123696
 31
0.0
  0
LINE
  5
1D93
330
912
100
AcDbEntity
  8
0
  6
Continuous
100
AcDbLine
 10
0.0018749999999308
 20
3.124999999375
 30
0.0
 11
-0.1718750000000568
 21
3.264974626475009
 31
0.0
  0
LINE
  5
1D94
330
912
100
AcDbEntity
  8
0
100
AcDbLine
 10
-0.1724752884254386
 20
4.514974626475009
 30
0.0
 11
0.0018749999999947
 21
4.514974626475009
 31
0.0
  0
LINE
  5
1D95
330
912
100
AcDbEntity
  8
0
100
AcDbLine
 10
-0.1724752884254386
 20
4.610025372174988
 30
0.0
 11
0.0018749999999947
 21
4.610025372174988
 31
0.0
  0
LINE
  5
1D96
330
912
100
AcDbEntity
  8
0
100
AcDbLine
 10
-0.1724752884254386
 20
4.514974626475009
 30
0.0
 11
-0.1724752884254386
 21
4.610025372174988
 31
0.0
  0
LINE
  5
1D97
330
912
100
AcDbEntity
  8
0
100
AcDbLine
 10
-0.1724752884254386
 20
4.610025372174988
 30
0.0
 11
-0.0460000000000065
 21
4.71156424261363
 31
0.0
  0
LINE
  5
1D98
330
912
100
AcDbEntity
  8
0
100
AcDbLine
 10
-0.0425411005073464
 20
4.410782025882874
 30
0.0
 11
-0.1718750000000568
 21
4.514974626475009
 31
0.0
  0
LINE
  5
1D99
330
912
100
AcDbEntity
  8
0
100
AcDbLine
 10
-0.1724752884254386
 20
5.764974626475009
 30
0.0
 11
0.0018749999999947
 21
5.764974626475016
 31
0.0
  0
LINE
  5
1D9A
330
912
100
AcDbEntity
  8
0
100
AcDbLine
 10
-0.1724752884254386
 20
5.860025372174988
 30
0.0
 11
0.0018749999999947
 21
5.860025372174995
 31
0.0
  0
LINE
  5
1D9B
330
912
100
AcDbEntity
  8
0
100
AcDbLine
 10
-0.1724752884254386
 20
5.764974626475009
 30
0.0
 11
-0.1724752884254386
 21
5.860025372174988
 31
0.0
  0
LINE
  5
1D9C
330
912
100
AcDbEntity
  8
0
100
AcDbLine
 10
-0.1724752884254386
 20
5.860025372174988
 30
0.0
 11
0.0018749999999343
 21
5.999999999375
 31
0.0
  0
LINE
  5
1D9D
330
912
100
AcDbEntity
  8
0
100
AcDbLine
 10
-0.0437524124435349
 20
5.661757870122123
 30
0.0
 11
-0.1718750000000568
 21
5.764974626475009
 31
0.0
  0
LINE
  5
1D9E
330
912
100
AcDbEntity
  8
0
100
AcDbLine
 10
-0.7415173144157947
 20
6.213318425379498
 30
0.0
 11
-0.7351469552246499
 21
6.190818425379497
 31
0.0
  0
LINE
  5
1D9F
330
912
100
AcDbEntity
  8
0
100
AcDbLine
 10
-0.7415173144157947
 20
6.213318425379498
 30
0.0
 11
-0.8106250000000053
 21
6.124999999375007
 31
0.0
  0
LINE
  5
1DA0
330
912
100
AcDbEntity
  8
0
100
AcDbLine
 10
-0.7351469552246428
 20
6.190818425379476
 30
0.0
 11
-0.8106250000000053
 21
6.124999999375007
 31
0.0
  0
LINE
  5
1DA1
330
912
100
AcDbEntity
  8
0
100
AcDbLine
 10
-0.7351469552246428
 20
6.190818425379476
 30
0.0
 11
-0.0293750000000053
 21
6.249999999375007
 31
0.0
  0
LINE
  5
1DA2
330
912
100
AcDbEntity
  8
0
100
AcDbLine
 10
-0.7415173144157947
 20
6.213318425379498
 30
0.0
 11
-0.0293750000000053
 21
6.249999999375007
 31
0.0
  0
LINE
  5
1EF9
330
912
100
AcDbEntity
  8
0
  6
HIDDEN2
100
AcDbLine
 10
-0.1176425896104334
 20
4.526855969687501
 30
0.0
 11
-0.0000000000000071
 21
4.446508853578605
 31
0.0
  0
LINE
  5
1EFA
330
912
100
AcDbEntity
  8
0
  6
HIDDEN2
100
AcDbLine
 10
-0.0400698451912724
 20
4.655048238301683
 30
0.0
 11
-0.1176425896104334
 21
4.598144028945752
 31
0.0
  0
LINE
  5
1EFB
330
912
100
AcDbEntity
  8
0
  6
HIDDEN2
100
AcDbLine
 10
-0.1304332795776162
 20
4.54365641438295
 30
0.0
 11
-0.1304332795776162
 21
4.579300444020445
 31
0.0
  0
LINE
  5
1EFC
330
912
100
AcDbEntity
  8
0
  6
HIDDEN2
100
AcDbLine
 10
-0.1176425896104334
 20
5.7768559696875
 30
0.0
 11
-0.0000000000000071
 21
5.696508853578603
 31
0.0
  0
LINE
  5
1EFD
330
912
100
AcDbEntity
  8
0
  6
HIDDEN2
100
AcDbLine
 10
-0.0000000000000036
 20
5.934441846542523
 30
0.0
 11
-0.1176425896104334
 21
5.84814402894575
 31
0.0
  0
LINE
  5
1EFE
330
912
100
AcDbEntity
  8
0
  6
HIDDEN2
100
AcDbLine
 10
-0.1304332795776162
 20
5.793656414382948
 30
0.0
 11
-0.1304332795776162
 21
5.829300444020444
 31
0.0
  0
ENDSEC
  0
SECTION
  2
OBJECTS
  0
DICTIONARY
  5
907
330
0
100
AcDbDictionary
281
     1
  3
ACAD_COLOR
350
D08
  3
ACAD_GROUP
350
908
  3
ACAD_LAYOUT
350
958
  3
ACAD_MATERIAL
350
D07
  3
ACAD_MLINESTYLE
350
915
  3
ACAD_PLOTSETTINGS
350
959
  3
ACAD_PLOTSTYLENAME
350
956
  3
ACAD_TABLESTYLE
350
D09
  3
ACDBVARIABLEDICTIONARY
350
945
  0
DICTIONARY
  5
D19
330
8FD
100
AcDbDictionary
280
     1
281
     1
  3
ACAD_LAYERFILTERS
360
1F23
  3
ACAD_LAYERSTATES
360
D1A
  3
ACLYDICTIONARY
360
1F22
  0
DICTIONARY
  5
A80
330
912
100
AcDbDictionary
280
     1
281
     1
  3
ACAD_SORTENTS
360
13F7
  0
DICTIONARY
  5
D08
102
{ACAD_REACTORS
330
907
102
}
330
907
100
AcDbDictionary
281
     1
  0
DICTIONARY
  5
908
102
{ACAD_REACTORS
330
907
102
}
330
907
100
AcDbDictionary
281
     1
  0
DICTIONARY
  5
958
102
{ACAD_REACTORS
330
907
102
}
330
907
100
AcDbDictionary
281
     1
  3
Layout1
350
95B
  3
Model
350
95A
  0
DICTIONARY
  5
D07
102
{ACAD_REACTORS
330
907
102
}
330
907
100
AcDbDictionary
281
     1
  0
DICTIONARY
  5
915
102
{ACAD_REACTORS
330
907
102
}
330
907
100
AcDbDictionary
281
     1
  3
STANDARD
350
916
  0
DICTIONARY
  5
959
102
{ACAD_REACTORS
330
907
102
}
330
907
100
AcDbDictionary
281
     1
  0
ACDBDICTIONARYWDFLT
  5
956
102
{ACAD_REACTORS
330
907
102
}
330
907
100
AcDbDictionary
281
     1
  3
Normal
350
957
100
AcDbDictionaryWithDefault
340
957
  0
DICTIONARY
  5
D09
102
{ACAD_REACTORS
330
907
102
}
330
907
100
AcDbDictionary
281
     1
  3
Standard
350
D0A
  0
DICTIONARY
  5
945
102
{ACAD_REACTORS
330
907
102
}
330
907
100
AcDbDictionary
281
     1
  3
CTABLESTYLE
350
EC1
  3
DIMADEC
350
946
  3
DIMASSOC
350
1854
  0
DICTIONARY
  5
1F23
102
{ACAD_REACTORS
330
D19
102
}
330
D19
100
AcDbDictionary
281
     1
  0
DICTIONARY
  5
D1A
102
{ACAD_REACTORS
330
D19
102
}
330
D19
100
AcDbDictionary
281
     1
  0
DICTIONARY
  5
1F22
102
{ACAD_REACTORS
330
D19
102
}
330
D19
100
AcDbDictionary
281
     1
1001
ACAD
1000
<All
  0
SORTENTSTABLE
  5
13F7
102
{ACAD_REACTORS
330
A80
102
}
330
A80
100
AcDbSortentsTable
330
912
331
0
  5
4C
331
13E2
  5
13E2
331
13E0
  5
13E0
331
9D
  5
9D
331
13E4
  5
13E4
331
167
  5
167
331
165
  5
165
331
1F4
  5
1F4
331
9C
  5
9C
331
13DA
  5
13DA
331
66
  5
66
331
1AA
  5
1AA
331
187
  5
187
331
1B1
  5
1B1
331
9E
  5
9E
331
1AE
  5
1AE
331
1EB
  5
1EB
331
162
  5
162
331
1B3
  5
1B3
331
13E3
  5
13E3
331
9B
  5
9B
331
99
  5
99
331
13D9
  5
13D9
331
13DE
  5
13DE
331
1F9
  5
1F9
331
14D
  5
14D
  0
LAYOUT
  5
95B
102
{ACAD_REACTORS
330
958
102
}
330
958
100
AcDbPlotSettings
  1

  2
HP LaserJet 4
  4

  6

 40
0.0
 41
0.0
 42
0.0
 43
0.0
 44
0.0
 45
0.0
 46
0.0
 47
0.0
 48
0.0
 49
0.0
140
0.0
141
0.0
142
1.0
143
1.0
 70
   688
 72
     0
 73
     0
 74
     5
  7

 75
    16
 76
     0
 77
     2
 78
   300
147
1.0
148
0.0
149
0.0
100
AcDbLayout
  1
Layout1
 70
     0
 71
     1
 10
0.0
 20
0.0
 11
12.0
 21
9.0
 12
0.0
 22
0.0
 32
0.0
 14
1.000000000000000E+20
 24
1.000000000000000E+20
 34
1.000000000000000E+20
 15
-1.000000000000000E+20
 25
-1.000000000000000E+20
 35
-1.000000000000000E+20
146
0.0
 13
0.0
 23
0.0
 33
0.0
 16
1.0
 26
0.0
 36
0.0
 17
0.0
 27
1.0
 37
0.0
 76
     0
330
90F
  0
LAYOUT
  5
95A
102
{ACAD_REACTORS
330
958
102
}
330
958
100
AcDbPlotSettings
  1

  2
HP LaserJet 4
  4
Letter
  6

 40
7.143749713897705
 41
6.127734661102295
 42
7.14373779296875
 43
7.14373779296875
 44
215.8999938964844
 45
279.3999938964844
 46
0.0
 47
0.0
 48
0.0
 49
0.0
140
0.0
141
0.0
142
1.0
143
1.0
 70
 11952
 72
     0
 73
     1
 74
     0
  7

 75
     0
 76
     0
 77
     2
 78
   300
147
1.0
148
-167.083527895903
149
6.421373101192719
100
AcDbLayout
  1
Model
 70
     1
 71
     0
 10
0.0
 20
0.0
 11
12.0
 21
9.0
 12
0.0
 22
0.0
 32
0.0
 14
0.0
 24
0.0
 34
0.0
 15
0.0
 25
0.0
 35
0.0
146
0.0
 13
0.0
 23
0.0
 33
0.0
 16
1.0
 26
0.0
 36
0.0
 17
0.0
 27
1.0
 37
0.0
 76
     0
330
912
  0
MLINESTYLE
  5
916
102
{ACAD_REACTORS
330
915
102
}
330
915
100
AcDbMlineStyle
  2
STANDARD
 70
     0
  3

 62
   256
 51
90.0
 52
90.0
 71
     2
 49
0.5
 62
   256
  6
BYLAYER
 49
-0.5
 62
   256
  6
BYLAYER
  0
ACDBPLACEHOLDER
  5
957
102
{ACAD_REACTORS
330
956
102
}
330
956
  0
ACAD_PROXY_OBJECT
  5
D0A
102
{ACAD_REACTORS
330
D09
102
}
330
D09
100
AcDbProxyObject
 90
      499
 91
      537
 95
   983063
 70
     0
 93
     1841
310
4214DD185B99185C9928B81E85EB51B8AE3F2E07A17AD46E2B8FC02B5E8DC0F42B1CFD028000000C1008070000C3001FDFF8000000C1003FBFF000000182007F7FE00000030400FEFFC00000060801FDFF8000000C1003FBFF00000018200000000000000681FA0B0000001820100E000186003FBFF000000182007F7FE000
310
00030400FEFFC00000060801FDFF8000000C1003FBFF000000182007F7FE000000304000AD7A3703D0AC73F4160000003040201C00030C007F7FE00000030400FEFFC00000060801FDFF8000000C1003FBFF000000182007F7FE00000030400FEFFC000000608000
340
90A
340
90A
340
90A
 94
        0
  0
DICTIONARYVAR
  5
EC1
102
{ACAD_REACTORS
330
945
102
}
330
945
100
DictionaryVariables
280
     0
  1
STANDARD
  0
DICTIONARYVAR
  5
946
102
{ACAD_REACTORS
330
945
102
}
330
945
100
DictionaryVariables
280
     0
  1
0
  0
DICTIONARYVAR
  5
1854
102
{ACAD_REACTORS
330
945
102
}
330
945
100
DictionaryVariables
280
     0
  1
0
  0
ENDSEC
  0
EOF
