  0
SECTION
  2
HEADER
  9
$ACADVER
  1
AC1015
  9
$ACADMAINTVER
 70
     6
  9
$DWGCODEPAGE
  3
ANSI_1252
  9
$INSBASE
 10
0.0
 20
0.0
 30
0.0
  9
$EXTMIN
 10
-8.578420829451531
 20
-0.0000000000000053
 30
0.0
  9
$EXTMAX
 10
8.578420829451531
 20
11.62500000000002
 30
0.0
  9
$LIMMIN
 10
0.0
 20
0.0
  9
$LIMMAX
 10
31.5
 20
24.0
  9
$ORTHOMODE
 70
     1
  9
$REGENMODE
 70
     1
  9
$FILLMODE
 70
     1
  9
$QTEXTMODE
 70
     0
  9
$MIRRTEXT
 70
     1
  9
$LTSCALE
 40
1.0
  9
$ATTMODE
 70
     1
  9
$TEXTSIZE
 40
0.27
  9
$TRACEWID
 40
0.05
  9
$TEXTSTYLE
  7
STANDARD
  9
$CLAYER
  8
0
  9
$CELTYPE
  6
BYLAYER
  9
$CECOLOR
 62
   256
  9
$CELTSCALE
 40
1.0
  9
$DISPSILH
 70
     0
  9
$DIMSCALE
 40
1.0
  9
$DIMASZ
 40
0.375
  9
$DIMEXO
 40
0.0625
  9
$DIMDLI
 40
0.75
  9
$DIMRND
 40
0.0
  9
$DIMDLE
 40
0.0
  9
$DIMEXE
 40
0.18
  9
$DIMTP
 40
0.0
  9
$DIMTM
 40
0.0
  9
$DIMTXT
 40
0.27
  9
$DIMCEN
 40
-0.06
  9
$DIMTSZ
 40
0.0
  9
$DIMTOL
 70
     0
  9
$DIMLIM
 70
     0
  9
$DIMTIH
 70
     1
  9
$DIMTOH
 70
     1
  9
$DIMSE1
 70
     0
  9
$DIMSE2
 70
     0
  9
$DIMTAD
 70
     0
  9
$DIMZIN
 70
     0
  9
$DIMBLK
  1

  9
$DIMASO
 70
     0
  9
$DIMSHO
 70
     0
  9
$DIMPOST
  1

  9
$DIMAPOST
  1

  9
$DIMALT
 70
     0
  9
$DIMALTD
 70
     2
  9
$DIMALTF
 40
25.4
  9
$DIMLFAC
 40
1.0
  9
$DIMTOFL
 70
     0
  9
$DIMTVP
 40
0.0
  9
$DIMTIX
 70
     0
  9
$DIMSOXD
 70
     0
  9
$DIMSAH
 70
     0
  9
$DIMBLK1
  1

  9
$DIMBLK2
  1

  9
$DIMSTYLE
  2
STANDARD
  9
$DIMCLRD
 70
     0
  9
$DIMCLRE
 70
     0
  9
$DIMCLRT
 70
     0
  9
$DIMTFAC
 40
1.0
  9
$DIMGAP
 40
0.09375
  9
$DIMJUST
 70
     0
  9
$DIMSD1
 70
     0
  9
$DIMSD2
 70
     0
  9
$DIMTOLJ
 70
     1
  9
$DIMTZIN
 70
     0
  9
$DIMALTZ
 70
     0
  9
$DIMALTTZ
 70
     0
  9
$DIMUPT
 70
     0
  9
$DIMDEC
 70
     5
  9
$DIMTDEC
 70
     4
  9
$DIMALTU
 70
     5
  9
$DIMALTTD
 70
     2
  9
$DIMTXSTY
  7
STANDARD
  9
$DIMAUNIT
 70
     0
  9
$DIMADEC
 70
     0
  9
$DIMALTRND
 40
0.0
  9
$DIMAZIN
 70
     0
  9
$DIMDSEP
 70
    46
  9
$DIMATFIT
 70
     3
  9
$DIMFRAC
 70
     2
  9
$DIMLDRBLK
  1

  9
$DIMLUNIT
 70
     5
  9
$DIMLWD
 70
    -2
  9
$DIMLWE
 70
    -2
  9
$DIMTMOVE
 70
     2
  9
$LUNITS
 70
     5
  9
$LUPREC
 70
     5
  9
$SKETCHINC
 40
0.1
  9
$FILLETRAD
 40
0.046
  9
$AUNITS
 70
     0
  9
$AUPREC
 70
     0
  9
$MENU
  1
ACAD
  9
$ELEVATION
 40
0.0
  9
$PELEVATION
 40
0.0
  9
$THICKNESS
 40
0.0
  9
$LIMCHECK
 70
     0
  9
$CHAMFERA
 40
0.0
  9
$CHAMFERB
 40
0.0
  9
$CHAMFERC
 40
0.0
  9
$CHAMFERD
 40
0.0
  9
$SKPOLY
 70
     0
  9
$TDCREATE
 40
2450361.983267361
  9
$TDUCREATE
 40
2450362.316600694
  9
$TDUPDATE
 40
2454181.736295243
  9
$TDUUPDATE
 40
2454182.069628576
  9
$TDINDWG
 40
1.0416095023
  9
$TDUSRTIMER
 40
0.0
  9
$USRTIMER
 70
     0
  9
$ANGBASE
 50
0.0
  9
$ANGDIR
 70
     0
  9
$PDMODE
 70
     0
  9
$PDSIZE
 40
0.0
  9
$PLINEWID
 40
0.0
  9
$SPLFRAME
 70
     0
  9
$SPLINETYPE
 70
     6
  9
$SPLINESEGS
 70
     8
  9
$HANDSEED
  5
29BE
  9
$SURFTAB1
 70
     6
  9
$SURFTAB2
 70
     6
  9
$SURFTYPE
 70
     6
  9
$SURFU
 70
     6
  9
$SURFV
 70
     6
  9
$UCSBASE
  2

  9
$UCSNAME
  2

  9
$UCSORG
 10
0.0
 20
0.0
 30
0.0
  9
$UCSXDIR
 10
1.0
 20
0.0
 30
0.0
  9
$UCSYDIR
 10
0.0
 20
1.0
 30
0.0
  9
$UCSORTHOREF
  2

  9
$UCSORTHOVIEW
 70
     0
  9
$UCSORGTOP
 10
0.0
 20
0.0
 30
0.0
  9
$UCSORGBOTTOM
 10
0.0
 20
0.0
 30
0.0
  9
$UCSORGLEFT
 10
0.0
 20
0.0
 30
0.0
  9
$UCSORGRIGHT
 10
0.0
 20
0.0
 30
0.0
  9
$UCSORGFRONT
 10
0.0
 20
0.0
 30
0.0
  9
$UCSORGBACK
 10
0.0
 20
0.0
 30
0.0
  9
$PUCSBASE
  2

  9
$PUCSNAME
  2

  9
$PUCSORG
 10
0.0
 20
0.0
 30
0.0
  9
$PUCSXDIR
 10
1.0
 20
0.0
 30
0.0
  9
$PUCSYDIR
 10
0.0
 20
1.0
 30
0.0
  9
$PUCSORTHOREF
  2

  9
$PUCSORTHOVIEW
 70
     0
  9
$PUCSORGTOP
 10
0.0
 20
0.0
 30
0.0
  9
$PUCSORGBOTTOM
 10
0.0
 20
0.0
 30
0.0
  9
$PUCSORGLEFT
 10
0.0
 20
0.0
 30
0.0
  9
$PUCSORGRIGHT
 10
0.0
 20
0.0
 30
0.0
  9
$PUCSORGFRONT
 10
0.0
 20
0.0
 30
0.0
  9
$PUCSORGBACK
 10
0.0
 20
0.0
 30
0.0
  9
$USERI1
 70
     0
  9
$USERI2
 70
     0
  9
$USERI3
 70
     0
  9
$USERI4
 70
     0
  9
$USERI5
 70
     0
  9
$USERR1
 40
0.0
  9
$USERR2
 40
0.0
  9
$USERR3
 40
0.0
  9
$USERR4
 40
0.0
  9
$USERR5
 40
0.0
  9
$WORLDVIEW
 70
     1
  9
$SHADEDGE
 70
     3
  9
$SHADEDIF
 70
    70
  9
$TILEMODE
 70
     1
  9
$MAXACTVP
 70
    16
  9
$PINSBASE
 10
0.0
 20
0.0
 30
0.0
  9
$PLIMCHECK
 70
     0
  9
$PEXTMIN
 10
1.000000000000000E+20
 20
1.000000000000000E+20
 30
1.000000000000000E+20
  9
$PEXTMAX
 10
-1.000000000000000E+20
 20
-1.000000000000000E+20
 30
-1.000000000000000E+20
  9
$PLIMMIN
 10
0.0
 20
0.0
  9
$PLIMMAX
 10
12.0
 20
9.0
  9
$UNITMODE
 70
     0
  9
$VISRETAIN
 70
     1
  9
$PLINEGEN
 70
     1
  9
$PSLTSCALE
 70
     0
  9
$TREEDEPTH
 70
  3020
  9
$CMLSTYLE
  2
STANDARD
  9
$CMLJUST
 70
     0
  9
$CMLSCALE
 40
1.0
  9
$PROXYGRAPHICS
 70
     1
  9
$MEASUREMENT
 70
     0
  9
$CELWEIGHT
370
    -1
  9
$ENDCAPS
280
     0
  9
$JOINSTYLE
280
     0
  9
$LWDISPLAY
290
     0
  9
$INSUNITS
 70
     0
  9
$HYPERLINKBASE
  1

  9
$STYLESHEET
  1

  9
$XEDIT
290
     1
  9
$CEPSNTYPE
380
     0
  9
$PSTYLEMODE
290
     1
  9
$FINGERPRINTGUID
  2
{B4B5AE23-2B15-11D4-AFE6-00805F15063D}
  9
$VERSIONGUID
  2
{C40F4627-062E-4885-80E6-66865ADD357E}
  9
$EXTNAMES
290
     1
  9
$PSVPSCALE
 40
0.0
  9
$OLESTARTUP
290
     0
  0
ENDSEC
  0
SECTION
  2
CLASSES
  0
CLASS
  1
DICTIONARYVAR
  2
AcDbDictionaryVar
  3
AutoCAD 2000
 90
        0
280
     0
281
     0
  0
CLASS
  1
LWPOLYLINE
  2
AcDbPolyline
  3
AutoCAD 2000
 90
        0
280
     0
281
     1
  0
CLASS
  1
ACDBDICTIONARYWDFLT
  2
AcDbDictionaryWithDefault
  3
AutoCAD 2000
 90
        0
280
     0
281
     0
  0
CLASS
  1
ACDBPLACEHOLDER
  2
AcDbPlaceHolder
  3
ObjectDBX Classes
 90
        0
280
     0
281
     0
  0
CLASS
  1
LAYOUT
  2
AcDbLayout
  3
ObjectDBX Classes
 90
        0
280
     0
281
     0
  0
CLASS
  1
LONG_TRANSACTION
  2
AcDbLongTransaction
  3
ObjectDBX Classes
 90
   -65536
280
     1
281
     0
  0
CLASS
  1
LWPOLYLINE
  2
AcDbPolyline
  3
AutoCAD 2000
 90
        0
280
     0
281
     1
  0
CLASS
  1
HATCH
  2
AcDbHatch
  3
AutoCAD 2000
 90
        0
280
     0
281
     1
  0
CLASS
  1
XRECORD
  2
AcDbXrecord
  3
AutoCAD 2000
 90
        0
280
     0
281
     0
  0
CLASS
  1
LONG_TRANSACTION
  2
AcDbLongTransaction
  3
ObjectDBX Classes
 90
   -65536
280
     1
281
     0
  0
CLASS
  1
LWPOLYLINE
  2
AcDbPolyline
  3
AutoCAD 2000
 90
        0
280
     0
281
     1
  0
CLASS
  1
HATCH
  2
AcDbHatch
  3
AutoCAD 2000
 90
        0
280
     0
281
     1
  0
CLASS
  1
XRECORD
  2
AcDbXrecord
  3
AutoCAD 2000
 90
        0
280
     0
281
     0
  0
CLASS
  1
LONG_TRANSACTION
  2
AcDbLongTransaction
  3
ObjectDBX Classes
 90
   -65536
280
     1
281
     0
  0
CLASS
  1
LWPOLYLINE
  2
AcDbPolyline
  3
AutoCAD 2000
 90
        0
280
     0
281
     1
  0
CLASS
  1
HATCH
  2
AcDbHatch
  3
AutoCAD 2000
 90
        0
280
     0
281
     1
  0
CLASS
  1
XRECORD
  2
AcDbXrecord
  3
AutoCAD 2000
 90
        0
280
     0
281
     0
  0
CLASS
  1
LONG_TRANSACTION
  2
AcDbLongTransaction
  3
ObjectDBX Classes
 90
   -65536
280
     1
281
     0
  0
CLASS
  1
LWPOLYLINE
  2
AcDbPolyline
  3
AutoCAD 2000
 90
        0
280
     0
281
     1
  0
CLASS
  1
HATCH
  2
AcDbHatch
  3
AutoCAD 2000
 90
        0
280
     0
281
     1
  0
CLASS
  1
XRECORD
  2
AcDbXrecord
  3
AutoCAD 2000
 90
        0
280
     0
281
     0
  0
CLASS
  1
LONG_TRANSACTION
  2
AcDbLongTransaction
  3
ObjectDBX Classes
 90
   -65536
280
     1
281
     0
  0
CLASS
  1
LWPOLYLINE
  2
AcDbPolyline
  3
AutoCAD 2000
 90
        0
280
     0
281
     1
  0
CLASS
  1
HATCH
  2
AcDbHatch
  3
AutoCAD 2000
 90
        0
280
     0
281
     1
  0
CLASS
  1
XRECORD
  2
AcDbXrecord
  3
AutoCAD 2000
 90
        0
280
     0
281
     0
  0
CLASS
  1
TABLESTYLE
  2
AcDbTableStyle
  3
ObjectDBX Classes
 90
     2047
280
     1
281
     0
  0
ENDSEC
  0
SECTION
  2
TABLES
  0
TABLE
  2
VPORT
  5
8
330
0
100
AcDbSymbolTable
 70
     3
  0
VPORT
  5
29AC
330
8
100
AcDbSymbolTableRecord
100
AcDbViewportTableRecord
  2
*Active
 70
     0
 10
0.0
 20
0.0
 11
1.0
 21
1.0
 12
6.927271643838836
 22
3.665821356735005
 13
0.0
 23
0.0
 14
0.0625
 24
0.0625
 15
0.5
 25
0.5
 16
0.0
 26
0.0
 36
1.0
 17
0.0
 27
0.0
 37
0.0
 40
34.35876071929719
 41
1.814583333333333
 42
50.0
 43
0.0
 44
0.0
 50
0.0
 51
0.0
 71
     0
 72
  5000
 73
     1
 74
     0
 75
     0
 76
     0
 77
     0
 78
     0
281
     0
 65
     1
110
0.0
120
0.0
130
0.0
111
1.0
121
0.0
131
0.0
112
0.0
122
1.0
132
0.0
 79
     0
146
0.0
  0
ENDTAB
  0
TABLE
  2
LTYPE
  5
5
330
0
100
AcDbSymbolTable
 70
     2
  0
LTYPE
  5
11
330
5
100
AcDbSymbolTableRecord
100
AcDbLinetypeTableRecord
  2
BYBLOCK
 70
     0
  3

 72
    65
 73
     0
 40
0.0
  0
LTYPE
  5
12
330
5
100
AcDbSymbolTableRecord
100
AcDbLinetypeTableRecord
  2
BYLAYER
 70
     0
  3

 72
    65
 73
     0
 40
0.0
  0
LTYPE
  5
13
330
5
100
AcDbSymbolTableRecord
100
AcDbLinetypeTableRecord
  2
CONTINUOUS
 70
     0
  3
Solid line
 72
    65
 73
     0
 40
0.0
  0
LTYPE
  5
2F
330
5
100
AcDbSymbolTableRecord
100
AcDbLinetypeTableRecord
  2
HIDDEN
 70
     0
  3
_ _ _ _ _ _ _ _ _ _ _ _ _ _ _ _ _ _ _ _ _ _ _
 72
    65
 73
     2
 40
0.375
 49
0.25
 74
     0
 49
-0.125
 74
     0
  0
ENDTAB
  0
TABLE
  2
LAYER
  5
2
330
0
100
AcDbSymbolTable
 70
     1
  0
LAYER
  5
E
330
2
100
AcDbSymbolTableRecord
100
AcDbLayerTableRecord
  2
0
 70
     0
 62
     7
  6
CONTINUOUS
370
    -3
390
1AB0
  0
ENDTAB
  0
TABLE
  2
STYLE
  5
3
330
0
100
AcDbSymbolTable
 70
     1
  0
STYLE
  5
F
330
3
100
AcDbSymbolTableRecord
100
AcDbTextStyleTableRecord
  2
STANDARD
 70
     0
 40
0.0
 41
1.0
 50
0.0
 71
     0
 42
0.27
  3
txt
  4

  0
ENDTAB
  0
TABLE
  2
VIEW
  5
6
330
0
100
AcDbSymbolTable
 70
     2
  0
VIEW
  5
31
330
6
100
AcDbSymbolTableRecord
100
AcDbViewTableRecord
  2
UPLEFT
 70
     0
 40
7.267558989926865
 10
11.14952248225718
 20
17.744997930178
 41
1.0
 11
0.0
 21
0.0
 31
1.0
 12
0.0
 22
0.0
 32
0.0
 42
50.0
 43
0.0
 44
0.0
 50
0.0
 71
     0
281
     0
 72
     0
  0
VIEW
  5
32
330
6
100
AcDbSymbolTableRecord
100
AcDbViewTableRecord
  2
PRINTER
 70
     0
 40
23.6875
 10
15.90625
 20
11.84375
 41
31.8125
 11
0.0
 21
0.0
 31
1.0
 12
0.0
 22
0.0
 32
0.0
 42
50.0
 43
0.0
 44
0.0
 50
0.0
 71
     0
281
     0
 72
     0
  0
ENDTAB
  0
TABLE
  2
UCS
  5
7
330
0
100
AcDbSymbolTable
 70
     0
  0
ENDTAB
  0
TABLE
  2
APPID
  5
9
330
0
100
AcDbSymbolTable
 70
     3
  0
APPID
  5
10
330
9
100
AcDbSymbolTableRecord
100
AcDbRegAppTableRecord
  2
ACAD
 70
     0
  0
APPID
  5
1FF4
330
9
100
AcDbSymbolTableRecord
100
AcDbRegAppTableRecord
  2
RAK
 70
     0
  0
APPID
  5
2779
330
9
100
AcDbSymbolTableRecord
100
AcDbRegAppTableRecord
  2
DCO15
 70
     0
  0
ENDTAB
  0
TABLE
  2
DIMSTYLE
  5
A
330
0
100
AcDbSymbolTable
 70
     1
100
AcDbDimStyleTable
  0
DIMSTYLE
105
474
330
A
100
AcDbSymbolTableRecord
100
AcDbDimStyleTableRecord
  2
STANDARD
 70
     0
  3

  4

340
F
  0
ENDTAB
  0
TABLE
  2
BLOCK_RECORD
  5
1
330
0
100
AcDbSymbolTable
 70
     0
  0
BLOCK_RECORD
  5
17
330
1
100
AcDbSymbolTableRecord
100
AcDbBlockTableRecord
  2
*MODEL_SPACE
340
1AB3
  0
BLOCK_RECORD
  5
14
330
1
100
AcDbSymbolTableRecord
100
AcDbBlockTableRecord
  2
*PAPER_SPACE
340
1AB4
  0
ENDTAB
  0
ENDSEC
  0
SECTION
  2
BLOCKS
  0
BLOCK
  5
45
330
17
100
AcDbEntity
  8
0
100
AcDbBlockBegin
  2
*MODEL_SPACE
 70
     0
 10
0.0
 20
0.0
 30
0.0
  3
*MODEL_SPACE
  1

  4

  0
ENDBLK
  5
46
330
17
100
AcDbEntity
  8
0
100
AcDbBlockEnd
  0
BLOCK
  5
43
330
14
100
AcDbEntity
 67
     1
  8
0
100
AcDbBlockBegin
  2
*PAPER_SPACE
 70
     0
 10
0.0
 20
0.0
 30
0.0
  3
*PAPER_SPACE
  1

  4

  0
ENDBLK
  5
44
330
14
100
AcDbEntity
 67
     1
  8
0
100
AcDbBlockEnd
  0
ENDSEC
  0
SECTION
  2
ENTITIES
  0
LINE
  5
28C9
330
17
100
AcDbEntity
  8
0
100
AcDbLine
 10
0.0
 20
11.62500000000002
 30
0.0
 11
0.0
 21
0.0
 31
0.0
  0
LINE
  5
28CA
330
17
100
AcDbEntity
  8
0
100
AcDbLine
 10
-0.0450000000000017
 20
11.62500000000002
 30
0.0
 11
-0.0449999999999982
 21
0.0
 31
0.0
  0
LINE
  5
28CF
330
17
100
AcDbEntity
  8
0
100
AcDbLine
 10
0.0
 20
0.0
 30
0.0
 11
-0.0449999999999982
 21
0.0
 31
0.0
  0
LINE
  5
28D0
330
17
100
AcDbEntity
  8
0
100
AcDbLine
 10
0.0
 20
0.2500000000000018
 30
0.0
 11
-0.0450000000000017
 21
0.2500000000000018
 31
0.0
  0
LINE
  5
28F3
330
17
100
AcDbEntity
  8
0
100
AcDbLine
 10
0.7811999999998989
 20
8.558264697538911
 30
0.0
 11
0.7811999999998989
 21
11.50000000000001
 31
0.0
  0
LINE
  5
28F4
330
17
100
AcDbEntity
  8
0
100
AcDbLine
 10
0.4686999421977234
 20
11.251853204254
 30
0.0
 11
0.4686999421977234
 21
11.371853204254
 31
0.0
  0
LINE
  5
28F5
330
17
100
AcDbEntity
  8
0
100
AcDbLine
 10
0.0625000000000071
 20
9.786855994477021
 30
0.0
 11
0.0625000000000071
 21
8.892625645260585
 31
0.0
  0
ARC
  5
28F6
330
17
100
AcDbEntity
  8
0
100
AcDbCircle
 10
0.7811999975785398
 20
8.058264697538911
 30
0.0
 40
0.5
100
AcDbArc
 50
89.99999972253229
 51
118.5000000000003
  0
LINE
  5
28F7
330
17
100
AcDbEntity
  8
0
100
AcDbLine
 10
-0.000121970355039
 20
8.20298807107063
 30
0.0
 11
0.5426206174487334
 21
8.497673253869893
 31
0.0
  0
ARC
  5
28F8
330
17
100
AcDbEntity
  8
0
100
AcDbCircle
 10
-0.0001249999171762
 20
8.125000000000012
 30
0.0
 40
0.078
100
AcDbArc
 50
89.98164144586023
 51
90.0
  0
ARC
  5
28F9
330
17
100
AcDbEntity
  8
0
100
AcDbCircle
 10
0.5156999999999812
 20
8.875000000000009
 30
0.0
 40
0.078
100
AcDbArc
 50
270.0
 51
90.0
  0
LINE
  5
28FA
330
17
100
AcDbEntity
  8
0
100
AcDbLine
 10
0.4686999421977092
 20
9.001853204254003
 30
0.0
 11
0.4686999421977092
 21
9.121853204254
 31
0.0
  0
ARC
  5
28FB
330
17
100
AcDbEntity
  8
0
100
AcDbCircle
 10
-0.0314999999999941
 20
8.892625645260585
 30
0.0
 40
0.094
100
AcDbArc
 50
289.5790071662275
 51
0.000000000000007
  0
ARC
  5
28FC
330
17
100
AcDbEntity
  8
0
100
AcDbCircle
 10
0.4216999999997881
 20
8.875000000000002
 30
0.0
 40
0.078
100
AcDbArc
 50
90.0
 51
270.0
  0
LINE
  5
28FD
330
17
100
AcDbEntity
  8
0
100
AcDbLine
 10
0.4216998843954514
 20
8.952999999999991
 30
0.0
 11
0.5156999999999812
 21
8.953000000000275
 31
0.0
  0
LINE
  5
28FE
330
17
100
AcDbEntity
  8
0
100
AcDbLine
 10
0.4216998527677447
 20
8.797000000000056
 30
0.0
 11
0.5156999999999812
 21
8.796999999999345
 31
0.0
  0
LINE
  5
28FF
330
17
100
AcDbEntity
  8
0
100
AcDbLine
 10
0.5286999421977079
 20
9.061853204254001
 30
0.0
 11
0.4086999421977104
 21
9.061853204254001
 31
0.0
  0
ARC
  5
2900
330
17
100
AcDbEntity
  8
0
100
AcDbCircle
 10
0.5156999999999954
 20
10.37500000000001
 30
0.0
 40
0.078
100
AcDbArc
 50
270.0
 51
90.0
  0
ARC
  5
2901
330
17
100
AcDbEntity
  8
0
100
AcDbCircle
 10
0.4216999999997881
 20
10.375
 30
0.0
 40
0.078
100
AcDbArc
 50
90.0
 51
270.0
  0
LINE
  5
2902
330
17
100
AcDbEntity
  8
0
100
AcDbLine
 10
0.0625000000000071
 20
10.98685599447702
 30
0.0
 11
0.0625000000000071
 21
10.09262564526059
 31
0.0
  0
ARC
  5
2903
330
17
100
AcDbEntity
  8
0
100
AcDbCircle
 10
0.5156999999999812
 20
9.625000000000009
 30
0.0
 40
0.078
100
AcDbArc
 50
270.0
 51
90.0
  0
ARC
  5
2904
330
17
100
AcDbEntity
  8
0
100
AcDbCircle
 10
-0.0314999999999941
 20
9.786855994477021
 30
0.0
 40
0.094
100
AcDbArc
 50
0.000000000000007
 51
70.42099283377254
  0
ARC
  5
2905
330
17
100
AcDbEntity
  8
0
100
AcDbCircle
 10
0.4216999999997881
 20
9.625000000000002
 30
0.0
 40
0.078
100
AcDbArc
 50
90.0
 51
270.0
  0
LINE
  5
2906
330
17
100
AcDbEntity
  8
0
100
AcDbLine
 10
0.4686999421977092
 20
9.751853204254003
 30
0.0
 11
0.4686999421977092
 21
9.871853204254
 31
0.0
  0
LINE
  5
2907
330
17
100
AcDbEntity
  8
0
100
AcDbLine
 10
0.4216998843954514
 20
9.702999999999991
 30
0.0
 11
0.5156999999999812
 21
9.703000000000275
 31
0.0
  0
LINE
  5
2908
330
17
100
AcDbEntity
  8
0
100
AcDbLine
 10
0.4216998527677447
 20
9.547000000000056
 30
0.0
 11
0.5156999999999812
 21
9.546999999999345
 31
0.0
  0
LINE
  5
2909
330
17
100
AcDbEntity
  8
0
100
AcDbLine
 10
0.5286999421977079
 20
9.811853204254001
 30
0.0
 11
0.4086999421977104
 21
9.811853204254001
 31
0.0
  0
ARC
  5
290A
330
17
100
AcDbEntity
  8
0
100
AcDbCircle
 10
-0.0314999999999941
 20
10.09262564526059
 30
0.0
 40
0.094
100
AcDbArc
 50
289.5790071662275
 51
0.000000000000007
  0
LINE
  5
290B
330
17
100
AcDbEntity
  8
0
100
AcDbLine
 10
0.4216998527677447
 20
10.29700000000006
 30
0.0
 11
0.5157000000000096
 21
10.29699999999935
 31
0.0
  0
ARC
  5
290C
330
17
100
AcDbEntity
  8
0
100
AcDbCircle
 10
0.5156999999999954
 20
11.12500000000001
 30
0.0
 40
0.078
100
AcDbArc
 50
270.0
 51
90.0
  0
LINE
  5
290D
330
17
100
AcDbEntity
  8
0
100
AcDbLine
 10
0.4686999421977234
 20
10.501853204254
 30
0.0
 11
0.4686999421977234
 21
10.621853204254
 31
0.0
  0
LINE
  5
290E
330
17
100
AcDbEntity
  8
0
100
AcDbLine
 10
0.4216998843954514
 20
10.45299999999999
 30
0.0
 11
0.5157000000000096
 21
10.45300000000028
 31
0.0
  0
LINE
  5
290F
330
17
100
AcDbEntity
  8
0
100
AcDbLine
 10
0.5286999421977221
 20
10.561853204254
 30
0.0
 11
0.4086999421977247
 21
10.561853204254
 31
0.0
  0
ARC
  5
2910
330
17
100
AcDbEntity
  8
0
100
AcDbCircle
 10
-0.0314999999999941
 20
10.98685599447702
 30
0.0
 40
0.094
100
AcDbArc
 50
0.000000000000007
 51
70.42099283377254
  0
ARC
  5
2911
330
17
100
AcDbEntity
  8
0
100
AcDbCircle
 10
0.4216999999997881
 20
11.125
 30
0.0
 40
0.078
100
AcDbArc
 50
90.0
 51
270.0
  0
LINE
  5
2912
330
17
100
AcDbEntity
  8
0
100
AcDbLine
 10
0.4216998843954514
 20
11.20299999999999
 30
0.0
 11
0.5156999999999954
 21
11.20300000000028
 31
0.0
  0
LINE
  5
2913
330
17
100
AcDbEntity
  8
0
100
AcDbLine
 10
0.4216998527677447
 20
11.04700000000006
 30
0.0
 11
0.5157000000000096
 21
11.04699999999935
 31
0.0
  0
LINE
  5
2914
330
17
100
AcDbEntity
  8
0
100
AcDbLine
 10
0.5286999421977221
 20
11.311853204254
 30
0.0
 11
0.4086999421977247
 21
11.311853204254
 31
0.0
  0
LINE
  5
2915
330
17
100
AcDbEntity
  8
0
100
AcDbLine
 10
0.6561999999998989
 20
11.62500000000001
 30
0.0
 11
-0.0450000000000017
 21
11.62500000000001
 31
0.0
  0
LINE
  5
2916
330
17
100
AcDbEntity
  8
0
  6
HIDDEN
100
AcDbLine
 10
0.0
 20
11.62500000000002
 30
0.0
 11
0.78125
 21
11.4156646934132
 31
0.0
  0
LINE
  5
2917
330
17
100
AcDbEntity
  8
0
100
AcDbLine
 10
0.0
 20
11.375
 30
0.0
 11
-0.0450000000000088
 21
11.375
 31
0.0
  0
LINE
  5
2918
330
17
100
AcDbEntity
  8
0
100
AcDbLine
 10
0.7811999999998989
 20
11.50000000000001
 30
0.0
 11
0.6561999999998989
 21
11.62500000000001
 31
0.0
  0
VIEWPORT
  5
FA8
102
{ACAD_XDICTIONARY
360
29BC
102
}
330
14
100
AcDbEntity
 67
     1
  8
0
100
AcDbViewport
 10
6.599999953899539
 20
4.499999968567867
 30
0.0
 40
35.57762997558133
 41
24.25747498335091
 68
     1
 69
     1
 12
6.599999953899539
 22
4.499999968567867
 13
0.0
 23
0.0
 14
0.0625
 24
0.0625
 15
0.5
 25
0.5
 16
0.0
 26
0.0
 36
1.0
 17
0.0
 27
0.0
 37
0.0
 42
50.0
 43
0.0
 44
0.0
 45
24.25747498335091
 50
0.0
 51
0.0
 72
  5000
 90
    32800
  1

281
     0
 71
     1
 74
     0
110
0.0
120
0.0
130
0.0
111
1.0
121
0.0
131
0.0
112
0.0
122
1.0
132
0.0
 79
     0
146
0.0
  0
ENDSEC
  0
SECTION
  2
OBJECTS
  0
DICTIONARY
  5
C
330
0
100
AcDbDictionary
281
     1
  3
ACAD_COLOR
350
2990
  3
ACAD_GROUP
350
D
  3
ACAD_LAYOUT
350
1AB1
  3
ACAD_MATERIAL
350
298F
  3
ACAD_MLINESTYLE
350
1A
  3
ACAD_PLOTSETTINGS
350
1AB2
  3
ACAD_PLOTSTYLENAME
350
1AAF
  3
ACAD_TABLESTYLE
350
2991
  3
ACDBHEADERROUNDTRIPXREC
350
29B5
  3
ACDBVARIABLEDICTIONARY
350
47
  3
ASE_INDEX_DICTIONARY
350
2778
  0
DICTIONARY
  5
29BC
330
FA8
100
AcDbDictionary
280
     1
281
     1
  3
ACAD_XREC_ROUNDTRIP
360
29BD
  0
DICTIONARY
  5
2990
102
{ACAD_REACTORS
330
C
102
}
330
C
100
AcDbDictionary
281
     1
  0
DICTIONARY
  5
D
102
{ACAD_REACTORS
330
C
102
}
330
C
100
AcDbDictionary
281
     1
  0
DICTIONARY
  5
1AB1
102
{ACAD_REACTORS
330
C
102
}
330
C
100
AcDbDictionary
281
     1
  3
Layout1
350
1AB4
  3
Model
350
1AB3
  0
DICTIONARY
  5
298F
102
{ACAD_REACTORS
330
C
102
}
330
C
100
AcDbDictionary
281
     1
  0
DICTIONARY
  5
1A
102
{ACAD_REACTORS
330
C
102
}
330
C
100
AcDbDictionary
281
     1
  3
STANDARD
350
1B
  0
DICTIONARY
  5
1AB2
102
{ACAD_REACTORS
330
C
102
}
330
C
100
AcDbDictionary
281
     1
  0
ACDBDICTIONARYWDFLT
  5
1AAF
102
{ACAD_REACTORS
330
C
102
}
330
C
100
AcDbDictionary
281
     1
  3
Normal
350
1AB0
100
AcDbDictionaryWithDefault
340
1AB0
  0
DICTIONARY
  5
2991
102
{ACAD_REACTORS
330
C
102
}
330
C
100
AcDbDictionary
281
     1
  3
Standard
350
2992
  0
DICTIONARY
  5
29B5
102
{ACAD_REACTORS
330
C
102
}
330
C
100
AcDbDictionary
281
     1
  3
COLORDICT
350
29B6
  3
MATERIALDICT
350
29B7
  0
DICTIONARY
  5
47
102
{ACAD_REACTORS
330
C
102
}
330
C
100
AcDbDictionary
281
     1
  3
CTABLESTYLE
350
299E
  3
DIMADEC
350
48
  0
DICTIONARY
  5
2778
102
{ACAD_REACTORS
330
C
102
}
330
C
100
AcDbDictionary
281
     1
  3
ASEBlockHierarchyIndexRecord
350
277A
1001
DCO15
1040
1564736987.141
  0
XRECORD
  5
29BD
102
{ACAD_REACTORS
330
29BC
102
}
330
29BC
100
AcDbXrecord
280
     1
102
SHADEPLOT
 70
     0
  0
LAYOUT
  5
1AB4
102
{ACAD_REACTORS
330
1AB1
102
}
102
{ACAD_XDICTIONARY
360
29B8
102
}
330
1AB1
100
AcDbPlotSettings
  1

  2
HP LaserJet 2100 Series PCL 6
  4

  6

 40
0.0
 41
0.0
 42
0.0
 43
0.0
 44
0.0
 45
0.0
 46
0.0
 47
0.0
 48
0.0
 49
0.0
140
0.0
141
0.0
142
1.0
143
1.0
 70
   688
 72
     0
 73
     0
 74
     5
  7

 75
    16
147
1.0
148
0.0
149
0.0
100
AcDbLayout
  1
Layout1
 70
     0
 71
     1
 10
0.0
 20
0.0
 11
12.0
 21
9.0
 12
0.0
 22
0.0
 32
0.0
 14
1.000000000000000E+20
 24
1.000000000000000E+20
 34
1.000000000000000E+20
 15
-1.000000000000000E+20
 25
-1.000000000000000E+20
 35
-1.000000000000000E+20
146
0.0
 13
0.0
 23
0.0
 33
0.0
 16
1.0
 26
0.0
 36
0.0
 17
0.0
 27
1.0
 37
0.0
 76
     0
330
14
331
FA8
  0
LAYOUT
  5
1AB3
102
{ACAD_REACTORS
330
1AB1
102
}
102
{ACAD_XDICTIONARY
360
29BA
102
}
330
1AB1
100
AcDbPlotSettings
  1

  2
HP LaserJet 2100 Series PS
  4
Letter
  6
PRINTER
 40
5.365749835968018
 41
5.408073902130127
 42
5.132904052734375
 43
5.090576171875
 44
215.8999938964844
 45
279.3999938964844
 46
0.0
 47
0.0
 48
0.0
 49
0.0
140
0.0
141
0.0
142
1.0
143
2.975440689981091
 70
 11952
 72
     0
 73
     1
 74
     2
  7

 75
     0
147
0.3360846691944497
148
0.0
149
0.0
100
AcDbLayout
  1
Model
 70
     1
 71
     0
 10
0.0
 20
0.0
 11
12.0
 21
9.0
 12
0.0
 22
0.0
 32
0.0
 14
0.0
 24
0.0
 34
0.0
 15
0.0
 25
0.0
 35
0.0
146
0.0
 13
0.0
 23
0.0
 33
0.0
 16
1.0
 26
0.0
 36
0.0
 17
0.0
 27
1.0
 37
0.0
 76
     0
330
17
  0
MLINESTYLE
  5
1B
102
{ACAD_REACTORS
330
1A
102
}
330
1A
100
AcDbMlineStyle
  2
STANDARD
 70
     0
  3

 62
   256
 51
90.0
 52
90.0
 71
     2
 49
0.5
 62
   256
  6
BYLAYER
 49
-0.5
 62
   256
  6
BYLAYER
  0
ACDBPLACEHOLDER
  5
1AB0
102
{ACAD_REACTORS
330
1AAF
102
}
330
1AAF
  0
ACAD_PROXY_OBJECT
  5
2992
102
{ACAD_REACTORS
330
2991
102
}
330
2991
100
AcDbProxyObject
 90
      499
 91
      525
 95
   983063
 70
     0
 93
     1841
310
4214DD185B99185C9928B81E85EB51B8AE3F2E07A17AD46E2B8FC02B5E8DC0F42B1CFD028000000C1008070000C3001FDFF8000000C1003FBFF000000182007F7FE00000030400FEFFC00000060801FDFF8000000C1003FBFF00000018200000000000000681FA0B0000001820100E000186003FBFF000000182007F7FE000
310
00030400FEFFC00000060801FDFF8000000C1003FBFF000000182007F7FE000000304000AD7A3703D0AC73F4160000003040201C00030C007F7FE00000030400FEFFC00000060801FDFF8000000C1003FBFF000000182007F7FE00000030400FEFFC000000608000
340
F
340
F
340
F
 94
        0
  0
XRECORD
  5
29B6
102
{ACAD_REACTORS
330
29B5
102
}
330
29B5
100
AcDbXrecord
340
2990
  0
XRECORD
  5
29B7
102
{ACAD_REACTORS
330
29B5
102
}
330
29B5
100
AcDbXrecord
340
298F
  0
DICTIONARYVAR
  5
299E
102
{ACAD_REACTORS
330
47
102
}
330
47
100
DictionaryVariables
280
     0
  1
STANDARD
  0
DICTIONARYVAR
  5
48
102
{ACAD_REACTORS
330
47
102
}
330
47
100
DictionaryVariables
280
     0
  1
0
  0
XRECORD
  5
277A
102
{ACAD_REACTORS
330
2778
102
}
330
2778
100
AcDbXrecord
280
     1
330
0
330
0
330
0
330
0
330
0
330
0
330
0
330
0
330
0
  0
DICTIONARY
  5
29B8
330
1AB4
100
AcDbDictionary
280
     1
281
     1
  3
ACAD_XREC_ROUNDTRIP
360
29B9
  0
DICTIONARY
  5
29BA
330
1AB3
100
AcDbDictionary
280
     1
281
     1
  3
ACAD_XREC_ROUNDTRIP
360
29BB
  0
XRECORD
  5
29B9
102
{ACAD_REACTORS
330
29B8
102
}
330
29B8
100
AcDbXrecord
102
SHADEPLOT
 70
     0
102
SHADEPLOTRESLEVEL
 70
     2
102
SHADEPLOTCUSTOMDPI
 70
   300
  0
XRECORD
  5
29BB
102
{ACAD_REACTORS
330
29BA
102
}
330
29BA
100
AcDbXrecord
102
SHADEPLOT
 70
     0
102
SHADEPLOTRESLEVEL
 70
     2
102
SHADEPLOTCUSTOMDPI
 70
   300
  0
ENDSEC
  0
EOF
