  0
SECTION
  2
HEADER
  9
$ACADVER
  1
AC1015
  9
$ACADMAINTVER
 70
     6
  9
$DWGCODEPAGE
  3
ANSI_1252
  9
$INSBASE
 10
0.0
 20
0.0
 30
0.0
  9
$EXTMIN
 10
-8.580596860475595
 20
-0.0007323659964982
 30
-0.0015258207003583
  9
$EXTMAX
 10
8.578674363063968
 20
11.62646488522466
 30
0.0000000349246037
  9
$LIMMIN
 10
0.0
 20
0.0
  9
$LIMMAX
 10
31.5
 20
24.0
  9
$ORTHOMODE
 70
     1
  9
$REGENMODE
 70
     1
  9
$FILLMODE
 70
     1
  9
$QTEXTMODE
 70
     0
  9
$MIRRTEXT
 70
     1
  9
$LTSCALE
 40
1.0
  9
$ATTMODE
 70
     1
  9
$TEXTSIZE
 40
0.27
  9
$TRACEWID
 40
0.05
  9
$TEXTSTYLE
  7
STANDARD
  9
$CLAYER
  8
0
  9
$CELTYPE
  6
BYLAYER
  9
$CECOLOR
 62
   256
  9
$CELTSCALE
 40
1.0
  9
$DISPSILH
 70
     0
  9
$DIMSCALE
 40
1.0
  9
$DIMASZ
 40
0.375
  9
$DIMEXO
 40
0.0625
  9
$DIMDLI
 40
0.75
  9
$DIMRND
 40
0.0
  9
$DIMDLE
 40
0.0
  9
$DIMEXE
 40
0.18
  9
$DIMTP
 40
0.0
  9
$DIMTM
 40
0.0
  9
$DIMTXT
 40
0.27
  9
$DIMCEN
 40
-0.06
  9
$DIMTSZ
 40
0.0
  9
$DIMTOL
 70
     0
  9
$DIMLIM
 70
     0
  9
$DIMTIH
 70
     1
  9
$DIMTOH
 70
     1
  9
$DIMSE1
 70
     0
  9
$DIMSE2
 70
     0
  9
$DIMTAD
 70
     0
  9
$DIMZIN
 70
     0
  9
$DIMBLK
  1

  9
$DIMASO
 70
     0
  9
$DIMSHO
 70
     0
  9
$DIMPOST
  1

  9
$DIMAPOST
  1

  9
$DIMALT
 70
     0
  9
$DIMALTD
 70
     2
  9
$DIMALTF
 40
25.4
  9
$DIMLFAC
 40
1.0
  9
$DIMTOFL
 70
     0
  9
$DIMTVP
 40
0.0
  9
$DIMTIX
 70
     0
  9
$DIMSOXD
 70
     0
  9
$DIMSAH
 70
     0
  9
$DIMBLK1
  1

  9
$DIMBLK2
  1

  9
$DIMSTYLE
  2
STANDARD
  9
$DIMCLRD
 70
     0
  9
$DIMCLRE
 70
     0
  9
$DIMCLRT
 70
     0
  9
$DIMTFAC
 40
1.0
  9
$DIMGAP
 40
0.09375
  9
$DIMJUST
 70
     0
  9
$DIMSD1
 70
     0
  9
$DIMSD2
 70
     0
  9
$DIMTOLJ
 70
     1
  9
$DIMTZIN
 70
     0
  9
$DIMALTZ
 70
     0
  9
$DIMALTTZ
 70
     0
  9
$DIMUPT
 70
     0
  9
$DIMDEC
 70
     5
  9
$DIMTDEC
 70
     4
  9
$DIMALTU
 70
     5
  9
$DIMALTTD
 70
     2
  9
$DIMTXSTY
  7
STANDARD
  9
$DIMAUNIT
 70
     0
  9
$DIMADEC
 70
     0
  9
$DIMALTRND
 40
0.0
  9
$DIMAZIN
 70
     0
  9
$DIMDSEP
 70
    46
  9
$DIMATFIT
 70
     3
  9
$DIMFRAC
 70
     2
  9
$DIMLDRBLK
  1

  9
$DIMLUNIT
 70
     5
  9
$DIMLWD
 70
    -2
  9
$DIMLWE
 70
    -2
  9
$DIMTMOVE
 70
     2
  9
$LUNITS
 70
     5
  9
$LUPREC
 70
     5
  9
$SKETCHINC
 40
0.1
  9
$FILLETRAD
 40
0.046
  9
$AUNITS
 70
     0
  9
$AUPREC
 70
     0
  9
$MENU
  1
ACAD
  9
$ELEVATION
 40
0.0
  9
$PELEVATION
 40
0.0
  9
$THICKNESS
 40
0.0
  9
$LIMCHECK
 70
     0
  9
$CHAMFERA
 40
0.0
  9
$CHAMFERB
 40
0.0
  9
$CHAMFERC
 40
0.0
  9
$CHAMFERD
 40
0.0
  9
$SKPOLY
 70
     0
  9
$TDCREATE
 40
2450361.983267361
  9
$TDUCREATE
 40
2450362.316600694
  9
$TDUPDATE
 40
2454181.735743484
  9
$TDUUPDATE
 40
2454182.069076817
  9
$TDINDWG
 40
1.0414259491
  9
$TDUSRTIMER
 40
0.0
  9
$USRTIMER
 70
     0
  9
$ANGBASE
 50
0.0
  9
$ANGDIR
 70
     0
  9
$PDMODE
 70
     0
  9
$PDSIZE
 40
0.0
  9
$PLINEWID
 40
0.0
  9
$SPLFRAME
 70
     0
  9
$SPLINETYPE
 70
     6
  9
$SPLINESEGS
 70
     8
  9
$HANDSEED
  5
29AB
  9
$SURFTAB1
 70
     6
  9
$SURFTAB2
 70
     6
  9
$SURFTYPE
 70
     6
  9
$SURFU
 70
     6
  9
$SURFV
 70
     6
  9
$UCSBASE
  2

  9
$UCSNAME
  2

  9
$UCSORG
 10
0.0
 20
0.0
 30
0.0
  9
$UCSXDIR
 10
1.0
 20
0.0
 30
0.0
  9
$UCSYDIR
 10
0.0
 20
1.0
 30
0.0
  9
$UCSORTHOREF
  2

  9
$UCSORTHOVIEW
 70
     0
  9
$UCSORGTOP
 10
0.0
 20
0.0
 30
0.0
  9
$UCSORGBOTTOM
 10
0.0
 20
0.0
 30
0.0
  9
$UCSORGLEFT
 10
0.0
 20
0.0
 30
0.0
  9
$UCSORGRIGHT
 10
0.0
 20
0.0
 30
0.0
  9
$UCSORGFRONT
 10
0.0
 20
0.0
 30
0.0
  9
$UCSORGBACK
 10
0.0
 20
0.0
 30
0.0
  9
$PUCSBASE
  2

  9
$PUCSNAME
  2

  9
$PUCSORG
 10
0.0
 20
0.0
 30
0.0
  9
$PUCSXDIR
 10
1.0
 20
0.0
 30
0.0
  9
$PUCSYDIR
 10
0.0
 20
1.0
 30
0.0
  9
$PUCSORTHOREF
  2

  9
$PUCSORTHOVIEW
 70
     0
  9
$PUCSORGTOP
 10
0.0
 20
0.0
 30
0.0
  9
$PUCSORGBOTTOM
 10
0.0
 20
0.0
 30
0.0
  9
$PUCSORGLEFT
 10
0.0
 20
0.0
 30
0.0
  9
$PUCSORGRIGHT
 10
0.0
 20
0.0
 30
0.0
  9
$PUCSORGFRONT
 10
0.0
 20
0.0
 30
0.0
  9
$PUCSORGBACK
 10
0.0
 20
0.0
 30
0.0
  9
$USERI1
 70
     0
  9
$USERI2
 70
     0
  9
$USERI3
 70
     0
  9
$USERI4
 70
     0
  9
$USERI5
 70
     0
  9
$USERR1
 40
0.0
  9
$USERR2
 40
0.0
  9
$USERR3
 40
0.0
  9
$USERR4
 40
0.0
  9
$USERR5
 40
0.0
  9
$WORLDVIEW
 70
     1
  9
$SHADEDGE
 70
     3
  9
$SHADEDIF
 70
    70
  9
$TILEMODE
 70
     1
  9
$MAXACTVP
 70
    16
  9
$PINSBASE
 10
0.0
 20
0.0
 30
0.0
  9
$PLIMCHECK
 70
     0
  9
$PEXTMIN
 10
1.000000000000000E+20
 20
1.000000000000000E+20
 30
1.000000000000000E+20
  9
$PEXTMAX
 10
-1.000000000000000E+20
 20
-1.000000000000000E+20
 30
-1.000000000000000E+20
  9
$PLIMMIN
 10
0.0
 20
0.0
  9
$PLIMMAX
 10
12.0
 20
9.0
  9
$UNITMODE
 70
     0
  9
$VISRETAIN
 70
     1
  9
$PLINEGEN
 70
     1
  9
$PSLTSCALE
 70
     0
  9
$TREEDEPTH
 70
  3020
  9
$CMLSTYLE
  2
STANDARD
  9
$CMLJUST
 70
     0
  9
$CMLSCALE
 40
1.0
  9
$PROXYGRAPHICS
 70
     1
  9
$MEASUREMENT
 70
     0
  9
$CELWEIGHT
370
    -1
  9
$ENDCAPS
280
     0
  9
$JOINSTYLE
280
     0
  9
$LWDISPLAY
290
     0
  9
$INSUNITS
 70
     0
  9
$HYPERLINKBASE
  1

  9
$STYLESHEET
  1

  9
$XEDIT
290
     1
  9
$CEPSNTYPE
380
     0
  9
$PSTYLEMODE
290
     1
  9
$FINGERPRINTGUID
  2
{B4B5AE23-2B15-11D4-AFE6-00805F15063D}
  9
$VERSIONGUID
  2
{215FB5C2-00A3-410C-B71E-2FA0CD2E395B}
  9
$EXTNAMES
290
     1
  9
$PSVPSCALE
 40
0.0
  9
$OLESTARTUP
290
     0
  0
ENDSEC
  0
SECTION
  2
CLASSES
  0
CLASS
  1
DICTIONARYVAR
  2
AcDbDictionaryVar
  3
AutoCAD 2000
 90
        0
280
     0
281
     0
  0
CLASS
  1
LWPOLYLINE
  2
AcDbPolyline
  3
AutoCAD 2000
 90
        0
280
     0
281
     1
  0
CLASS
  1
ACDBDICTIONARYWDFLT
  2
AcDbDictionaryWithDefault
  3
AutoCAD 2000
 90
        0
280
     0
281
     0
  0
CLASS
  1
ACDBPLACEHOLDER
  2
AcDbPlaceHolder
  3
ObjectDBX Classes
 90
        0
280
     0
281
     0
  0
CLASS
  1
LAYOUT
  2
AcDbLayout
  3
ObjectDBX Classes
 90
        0
280
     0
281
     0
  0
CLASS
  1
LONG_TRANSACTION
  2
AcDbLongTransaction
  3
ObjectDBX Classes
 90
   -65536
280
     1
281
     0
  0
CLASS
  1
LWPOLYLINE
  2
AcDbPolyline
  3
AutoCAD 2000
 90
        0
280
     0
281
     1
  0
CLASS
  1
HATCH
  2
AcDbHatch
  3
AutoCAD 2000
 90
        0
280
     0
281
     1
  0
CLASS
  1
XRECORD
  2
AcDbXrecord
  3
AutoCAD 2000
 90
        0
280
     0
281
     0
  0
CLASS
  1
LONG_TRANSACTION
  2
AcDbLongTransaction
  3
ObjectDBX Classes
 90
   -65536
280
     1
281
     0
  0
CLASS
  1
LWPOLYLINE
  2
AcDbPolyline
  3
AutoCAD 2000
 90
        0
280
     0
281
     1
  0
CLASS
  1
HATCH
  2
AcDbHatch
  3
AutoCAD 2000
 90
        0
280
     0
281
     1
  0
CLASS
  1
XRECORD
  2
AcDbXrecord
  3
AutoCAD 2000
 90
        0
280
     0
281
     0
  0
CLASS
  1
LONG_TRANSACTION
  2
AcDbLongTransaction
  3
ObjectDBX Classes
 90
   -65536
280
     1
281
     0
  0
CLASS
  1
LWPOLYLINE
  2
AcDbPolyline
  3
AutoCAD 2000
 90
        0
280
     0
281
     1
  0
CLASS
  1
HATCH
  2
AcDbHatch
  3
AutoCAD 2000
 90
        0
280
     0
281
     1
  0
CLASS
  1
XRECORD
  2
AcDbXrecord
  3
AutoCAD 2000
 90
        0
280
     0
281
     0
  0
CLASS
  1
LONG_TRANSACTION
  2
AcDbLongTransaction
  3
ObjectDBX Classes
 90
   -65536
280
     1
281
     0
  0
CLASS
  1
LWPOLYLINE
  2
AcDbPolyline
  3
AutoCAD 2000
 90
        0
280
     0
281
     1
  0
CLASS
  1
HATCH
  2
AcDbHatch
  3
AutoCAD 2000
 90
        0
280
     0
281
     1
  0
CLASS
  1
XRECORD
  2
AcDbXrecord
  3
AutoCAD 2000
 90
        0
280
     0
281
     0
  0
CLASS
  1
LONG_TRANSACTION
  2
AcDbLongTransaction
  3
ObjectDBX Classes
 90
   -65536
280
     1
281
     0
  0
CLASS
  1
LWPOLYLINE
  2
AcDbPolyline
  3
AutoCAD 2000
 90
        0
280
     0
281
     1
  0
CLASS
  1
HATCH
  2
AcDbHatch
  3
AutoCAD 2000
 90
        0
280
     0
281
     1
  0
CLASS
  1
XRECORD
  2
AcDbXrecord
  3
AutoCAD 2000
 90
        0
280
     0
281
     0
  0
CLASS
  1
TABLESTYLE
  2
AcDbTableStyle
  3
ObjectDBX Classes
 90
     2047
280
     1
281
     0
  0
ENDSEC
  0
SECTION
  2
TABLES
  0
TABLE
  2
VPORT
  5
8
330
0
100
AcDbSymbolTable
 70
     2
  0
VPORT
  5
2996
330
8
100
AcDbSymbolTableRecord
100
AcDbViewportTableRecord
  2
*Active
 70
     0
 10
0.0
 20
0.0
 11
1.0
 21
1.0
 12
6.927271643838836
 22
3.665821356735005
 13
0.0
 23
0.0
 14
0.0625
 24
0.0625
 15
0.5
 25
0.5
 16
0.0
 26
0.0
 36
1.0
 17
0.0
 27
0.0
 37
0.0
 40
34.35876071929719
 41
1.814583333333333
 42
50.0
 43
0.0
 44
0.0
 50
0.0
 51
0.0
 71
     0
 72
  5000
 73
     1
 74
     0
 75
     0
 76
     0
 77
     0
 78
     0
281
     0
 65
     1
110
0.0
120
0.0
130
0.0
111
1.0
121
0.0
131
0.0
112
0.0
122
1.0
132
0.0
 79
     0
146
0.0
  0
ENDTAB
  0
TABLE
  2
LTYPE
  5
5
330
0
100
AcDbSymbolTable
 70
     2
  0
LTYPE
  5
11
330
5
100
AcDbSymbolTableRecord
100
AcDbLinetypeTableRecord
  2
BYBLOCK
 70
     0
  3

 72
    65
 73
     0
 40
0.0
  0
LTYPE
  5
12
330
5
100
AcDbSymbolTableRecord
100
AcDbLinetypeTableRecord
  2
BYLAYER
 70
     0
  3

 72
    65
 73
     0
 40
0.0
  0
LTYPE
  5
13
330
5
100
AcDbSymbolTableRecord
100
AcDbLinetypeTableRecord
  2
CONTINUOUS
 70
     0
  3
Solid line
 72
    65
 73
     0
 40
0.0
  0
LTYPE
  5
2F
330
5
100
AcDbSymbolTableRecord
100
AcDbLinetypeTableRecord
  2
HIDDEN
 70
     0
  3
_ _ _ _ _ _ _ _ _ _ _ _ _ _ _ _ _ _ _ _ _ _ _
 72
    65
 73
     2
 40
0.375
 49
0.25
 74
     0
 49
-0.125
 74
     0
  0
ENDTAB
  0
TABLE
  2
LAYER
  5
2
330
0
100
AcDbSymbolTable
 70
     5
  0
LAYER
  5
E
330
2
100
AcDbSymbolTableRecord
100
AcDbLayerTableRecord
  2
0
 70
     0
 62
     7
  6
CONTINUOUS
370
    -3
390
1AB0
  0
ENDTAB
  0
TABLE
  2
STYLE
  5
3
330
0
100
AcDbSymbolTable
 70
     2
  0
STYLE
  5
F
330
3
100
AcDbSymbolTableRecord
100
AcDbTextStyleTableRecord
  2
STANDARD
 70
     0
 40
0.0
 41
1.0
 50
0.0
 71
     0
 42
0.27
  3
txt
  4

  0
ENDTAB
  0
TABLE
  2
VIEW
  5
6
330
0
100
AcDbSymbolTable
 70
     2
  0
VIEW
  5
31
330
6
100
AcDbSymbolTableRecord
100
AcDbViewTableRecord
  2
UPLEFT
 70
     0
 40
7.267558989926865
 10
11.14952248225718
 20
17.744997930178
 41
1.0
 11
0.0
 21
0.0
 31
1.0
 12
0.0
 22
0.0
 32
0.0
 42
50.0
 43
0.0
 44
0.0
 50
0.0
 71
     0
281
     0
 72
     0
  0
VIEW
  5
32
330
6
100
AcDbSymbolTableRecord
100
AcDbViewTableRecord
  2
PRINTER
 70
     0
 40
23.6875
 10
15.90625
 20
11.84375
 41
31.8125
 11
0.0
 21
0.0
 31
1.0
 12
0.0
 22
0.0
 32
0.0
 42
50.0
 43
0.0
 44
0.0
 50
0.0
 71
     0
281
     0
 72
     0
  0
ENDTAB
  0
TABLE
  2
UCS
  5
7
330
0
100
AcDbSymbolTable
 70
     0
  0
ENDTAB
  0
TABLE
  2
APPID
  5
9
330
0
100
AcDbSymbolTable
 70
     3
  0
APPID
  5
10
330
9
100
AcDbSymbolTableRecord
100
AcDbRegAppTableRecord
  2
ACAD
 70
     0
  0
APPID
  5
1FF4
330
9
100
AcDbSymbolTableRecord
100
AcDbRegAppTableRecord
  2
RAK
 70
     0
  0
APPID
  5
2779
330
9
100
AcDbSymbolTableRecord
100
AcDbRegAppTableRecord
  2
DCO15
 70
     0
  0
ENDTAB
  0
TABLE
  2
DIMSTYLE
  5
A
330
0
100
AcDbSymbolTable
 70
     1
100
AcDbDimStyleTable
  0
DIMSTYLE
105
474
330
A
100
AcDbSymbolTableRecord
100
AcDbDimStyleTableRecord
  2
STANDARD
 70
     0
  3

  4

340
F
  0
ENDTAB
  0
TABLE
  2
BLOCK_RECORD
  5
1
330
0
100
AcDbSymbolTable
 70
     0
  0
BLOCK_RECORD
  5
17
330
1
100
AcDbSymbolTableRecord
100
AcDbBlockTableRecord
  2
*MODEL_SPACE
340
1AB3
  0
BLOCK_RECORD
  5
14
330
1
100
AcDbSymbolTableRecord
100
AcDbBlockTableRecord
  2
*PAPER_SPACE
340
1AB4
  0
ENDTAB
  0
ENDSEC
  0
SECTION
  2
BLOCKS
  0
BLOCK
  5
45
330
17
100
AcDbEntity
  8
0
100
AcDbBlockBegin
  2
*MODEL_SPACE
 70
     0
 10
0.0
 20
0.0
 30
0.0
  3
*MODEL_SPACE
  1

  4

  0
ENDBLK
  5
46
330
17
100
AcDbEntity
  8
0
100
AcDbBlockEnd
  0
BLOCK
  5
43
330
14
100
AcDbEntity
 67
     1
  8
0
100
AcDbBlockBegin
  2
*PAPER_SPACE
 70
     0
 10
0.0
 20
0.0
 30
0.0
  3
*PAPER_SPACE
  1

  4

  0
ENDBLK
  5
44
330
14
100
AcDbEntity
 67
     1
  8
0
100
AcDbBlockEnd
  0
ENDSEC
  0
SECTION
  2
ENTITIES
  0
LINE
  5
28C9
330
17
100
AcDbEntity
  8
0
100
AcDbLine
 10
-8.533420829451522
 20
11.62500000000001
 30
0.0
 11
-8.533420829451522
 21
-0.0000000000000053
 31
0.0
  0
LINE
  5
28CA
330
17
100
AcDbEntity
  8
0
100
AcDbLine
 10
-8.578420829451524
 20
11.62500000000001
 30
0.0
 11
-8.57842082945152
 21
-0.0000000000000053
 31
0.0
  0
LINE
  5
28CB
330
17
100
AcDbEntity
  8
0
100
AcDbLine
 10
1.499999999999965
 20
4.946474595865574
 30
0.0
 11
1.499999999999993
 21
0.2499999999999965
 31
0.0
  0
LINE
  5
28CC
330
17
100
AcDbEntity
  8
0
100
AcDbLine
 10
-1.499999999999993
 20
0.25
 30
0.0
 11
-1.500000000000021
 21
4.946474595865588
 31
0.0
  0
LINE
  5
28CD
330
17
100
AcDbEntity
  8
0
100
AcDbLine
 10
-1.499999999999993
 20
0.25
 30
0.0
 11
-1.500000000000021
 21
4.946474595865588
 31
0.0
  0
LINE
  5
28CE
330
17
100
AcDbEntity
  8
0
100
AcDbLine
 10
-1.500000000000007
 20
1.124999999650026
 30
0.0
 11
-1.500000000000036
 21
4.946474595865588
 31
0.0
  0
LINE
  5
28CF
330
17
100
AcDbEntity
  8
0
100
AcDbLine
 10
-8.533420829451522
 20
-0.0000000000000053
 30
0.0
 11
-8.57842082945152
 21
-0.0000000000000053
 31
0.0
  0
LINE
  5
28D0
330
17
100
AcDbEntity
  8
0
100
AcDbLine
 10
-8.533420829451522
 20
0.2499999999999965
 30
0.0
 11
-8.578420829451524
 21
0.2499999999999965
 31
0.0
  0
CIRCLE
  5
28D1
330
17
100
AcDbEntity
  8
0
100
AcDbCircle
 10
1.218749999999979
 20
2.562499999999975
 30
0.0
 40
0.074
  0
CIRCLE
  5
28D2
330
17
100
AcDbEntity
  8
0
100
AcDbCircle
 10
1.218749999999979
 20
0.8124999999999751
 30
0.0
 40
0.074
  0
LINE
  5
28D3
330
17
100
AcDbEntity
  8
0
100
AcDbLine
 10
1.249999999999993
 20
-0.0000000000000036
 30
0.0
 11
1.499999999999993
 21
0.2499999999999965
 31
0.0
  0
LINE
  5
28D4
330
17
100
AcDbEntity
  8
0
100
AcDbLine
 10
1.249999999999993
 20
-0.0000000000000036
 30
0.0
 11
1.499999999999993
 21
0.2499999999999965
 31
0.0
  0
LINE
  5
28D5
330
17
100
AcDbEntity
  8
0
100
AcDbLine
 10
-1.499999999999993
 20
0.2500000000000036
 30
0.0
 11
-1.249999999999993
 21
0.0000000000000036
 31
0.0
  0
LINE
  5
28D6
330
17
100
AcDbEntity
  8
0
100
AcDbLine
 10
-1.499999999999993
 20
0.2500000000000036
 30
0.0
 11
-1.249999999999993
 21
0.0000000000000036
 31
0.0
  0
LINE
  5
28D7
330
17
100
AcDbEntity
  8
0
100
AcDbLine
 10
1.249999999999993
 20
-0.0000000000000036
 30
0.0
 11
-1.249999999999993
 21
0.0000000000000036
 31
0.0
  0
LINE
  5
28D8
330
17
100
AcDbEntity
  8
0
100
AcDbLine
 10
1.249999999999993
 20
-0.0000000000000036
 30
0.0
 11
-1.249999999999993
 21
0.0000000000000036
 31
0.0
  0
CIRCLE
  5
28D9
330
17
100
AcDbEntity
  8
0
100
AcDbCircle
 10
-1.218750000000021
 20
2.999999999999979
 30
0.0
 40
0.074
  0
CIRCLE
  5
28DA
330
17
100
AcDbEntity
  8
0
100
AcDbCircle
 10
-1.218750000000021
 20
1.249999999999975
 30
0.0
 40
0.074
  0
CIRCLE
  5
28DB
330
17
100
AcDbEntity
  8
0
100
AcDbCircle
 10
0.0937499999999787
 20
0.3749999999999751
 30
0.0
 40
0.074
  0
CIRCLE
  5
28DC
330
17
100
AcDbEntity
  8
0
100
AcDbCircle
 10
-0.6562500000000213
 20
0.3749999999999751
 30
0.0
 40
0.074
  0
CIRCLE
  5
28DD
330
17
100
AcDbEntity
  8
0
100
AcDbCircle
 10
-1.031250000000021
 20
0.8124999999999751
 30
0.0
 40
0.074
  0
CIRCLE
  5
28DE
330
17
100
AcDbEntity
  8
0
100
AcDbCircle
 10
-0.2812500000000213
 20
0.8124999999999751
 30
0.0
 40
0.074
  0
CIRCLE
  5
28DF
330
17
100
AcDbEntity
  8
0
100
AcDbCircle
 10
-0.8437500000000213
 20
1.687499999999975
 30
0.0
 40
0.074
  0
CIRCLE
  5
28E0
330
17
100
AcDbEntity
  8
0
100
AcDbCircle
 10
-0.4687500000000213
 20
1.249999999999975
 30
0.0
 40
0.074
  0
CIRCLE
  5
28E1
330
17
100
AcDbEntity
  8
0
100
AcDbCircle
 10
-0.0937500000000213
 20
1.687499999999975
 30
0.0
 40
0.074
  0
LWPOLYLINE
  5
28E2
330
17
100
AcDbEntity
  8
0
100
AcDbPolyline
 90
       18
 70
     1
 43
0.0
 10
0.3110251233355896
 20
0.6174375000000154
 10
0.265991802338938
 20
0.6954374999997715
 10
0.2209584813422012
 20
0.773437499999778
 42
-0.267949192431127
 10
0.2209584813422296
 20
0.8515624999997726
 10
0.2659918023390517
 20
0.9295624999997294
 10
0.3110251233359307
 20
1.007562499999915
 42
-0.2679491924311525
 10
0.3786833580066045
 20
1.046624999999924
 10
0.468749999999865
 20
1.046624999999924
 10
0.558816641993424
 20
1.046624999999924
 42
-0.2679491924311238
 10
0.6264748766640835
 20
1.007562499999924
 10
0.6715081976608488
 20
0.9295624999999497
 10
0.7165415186576425
 20
0.8515624999999716
 42
-0.2679491924311162
 10
0.7165415186576425
 20
0.7734374999999751
 10
0.671508197660792
 20
0.6954374999998869
 10
0.6264748766641546
 20
0.6174374999999941
 42
-0.2679491924315893
 10
0.5588166419933955
 20
0.5783749999999426
 10
0.4687499999998508
 20
0.5783750000000261
 10
0.3786833580062492
 20
0.5783750000000261
 42
-0.2679491924310958
  0
CIRCLE
  5
28E3
330
17
100
AcDbEntity
  8
0
100
AcDbCircle
 10
0.8437499999999787
 20
0.3749999999999751
 30
0.0
 40
0.074
  0
CIRCLE
  5
28E4
330
17
100
AcDbEntity
  8
0
100
AcDbCircle
 10
0.6562499999999787
 20
1.687499999999975
 30
0.0
 40
0.074
  0
CIRCLE
  5
28E5
330
17
100
AcDbEntity
  8
0
100
AcDbCircle
 10
0.2812499999999787
 20
1.249999999999975
 30
0.0
 40
0.074
  0
CIRCLE
  5
28E6
330
17
100
AcDbEntity
  8
0
100
AcDbCircle
 10
1.031249999999979
 20
1.249999999999975
 30
0.0
 40
0.074
  0
CIRCLE
  5
28E7
330
17
100
AcDbEntity
  8
0
100
AcDbCircle
 10
0.0937499999999787
 20
2.124999999999975
 30
0.0
 40
0.074
  0
LWPOLYLINE
  5
28E8
330
17
100
AcDbEntity
  8
0
100
AcDbPolyline
 90
       18
 70
     1
 43
0.0
 10
-0.6264748766644104
 20
2.804937500000019
 10
-0.671508197661062
 20
2.882937499999775
 10
-0.7165415186577988
 20
2.960937499999782
 42
-0.267949192431127
 10
-0.7165415186577704
 20
3.039062499999776
 10
-0.6715081976609483
 20
3.117062499999733
 10
-0.6264748766640693
 20
3.195062499999919
 42
-0.2679491924311525
 10
-0.5588166419933955
 20
3.234124999999928
 10
-0.468750000000135
 20
3.234124999999928
 10
-0.378683358006576
 20
3.234124999999928
 42
-0.2679491924311238
 10
-0.3110251233359165
 20
3.195062499999928
 10
-0.2659918023391512
 20
3.117062499999953
 10
-0.2209584813423575
 20
3.039062499999975
 42
-0.2679491924311162
 10
-0.2209584813423575
 20
2.960937499999979
 10
-0.2659918023392081
 20
2.882937499999891
 10
-0.3110251233358454
 20
2.804937499999998
 42
-0.2679491924315893
 10
-0.3786833580066045
 20
2.765874999999946
 10
-0.4687500000001492
 20
2.76587500000003
 10
-0.5588166419937508
 20
2.76587500000003
 42
-0.2679491924310958
  0
CIRCLE
  5
28E9
330
17
100
AcDbEntity
  8
0
100
AcDbCircle
 10
-0.6562500000000213
 20
2.124999999999975
 30
0.0
 40
0.074
  0
CIRCLE
  5
28EA
330
17
100
AcDbEntity
  8
0
100
AcDbCircle
 10
-1.031250000000021
 20
2.562499999999975
 30
0.0
 40
0.074
  0
CIRCLE
  5
28EB
330
17
100
AcDbEntity
  8
0
100
AcDbCircle
 10
-0.2812500000000213
 20
2.562499999999975
 30
0.0
 40
0.074
  0
CIRCLE
  5
28EC
330
17
100
AcDbEntity
  8
0
100
AcDbCircle
 10
-0.8437500000000213
 20
3.437499999999975
 30
0.0
 40
0.074
  0
CIRCLE
  5
28ED
330
17
100
AcDbEntity
  8
0
100
AcDbCircle
 10
-0.0937500000000213
 20
3.437499999999975
 30
0.0
 40
0.074
  0
CIRCLE
  5
28EE
330
17
100
AcDbEntity
  8
0
100
AcDbCircle
 10
0.4687499999999787
 20
2.562499999999975
 30
0.0
 40
0.074
  0
CIRCLE
  5
28EF
330
17
100
AcDbEntity
  8
0
100
AcDbCircle
 10
0.8437499999999787
 20
2.124999999999975
 30
0.0
 40
0.074
  0
CIRCLE
  5
28F0
330
17
100
AcDbEntity
  8
0
100
AcDbCircle
 10
0.6562499999999787
 20
3.437499999999975
 30
0.0
 40
0.074
  0
CIRCLE
  5
28F1
330
17
100
AcDbEntity
  8
0
100
AcDbCircle
 10
0.2812499999999787
 20
2.999999999999979
 30
0.0
 40
0.074
  0
CIRCLE
  5
28F2
330
17
100
AcDbEntity
  8
0
100
AcDbCircle
 10
1.031249999999979
 20
2.999999999999979
 30
0.0
 40
0.074
  0
LINE
  5
28F3
330
17
100
AcDbEntity
  8
0
100
AcDbLine
 10
-7.752220829451623
 20
8.558264697538906
 30
0.0
 11
-7.752220829451623
 21
11.5
 31
0.0
  0
LINE
  5
28F4
330
17
100
AcDbEntity
  8
0
100
AcDbLine
 10
-8.064720887253799
 20
11.251853204254
 30
0.0
 11
-8.064720887253799
 21
11.371853204254
 31
0.0
  0
LINE
  5
28F5
330
17
100
AcDbEntity
  8
0
100
AcDbLine
 10
-8.470920829451515
 20
9.786855994477016
 30
0.0
 11
-8.470920829451515
 21
8.89262564526058
 31
0.0
  0
ARC
  5
28F6
330
17
100
AcDbEntity
  8
0
100
AcDbCircle
 10
-7.752220831872982
 20
8.058264697538906
 30
0.0
 40
0.5
100
AcDbArc
 50
89.99999972253229
 51
118.5000000000003
  0
LINE
  5
28F7
330
17
100
AcDbEntity
  8
0
100
AcDbLine
 10
-8.533542799806561
 20
8.202988071070624
 30
0.0
 11
-7.990800212002789
 21
8.497673253869888
 31
0.0
  0
ARC
  5
28F8
330
17
100
AcDbEntity
  8
0
100
AcDbCircle
 10
-8.533545829368698
 20
8.125000000000007
 30
0.0
 40
0.078
100
AcDbArc
 50
89.98164144586023
 51
90.0
  0
ARC
  5
28F9
330
17
100
AcDbEntity
  8
0
100
AcDbCircle
 10
-8.017720829451541
 20
8.875000000000004
 30
0.0
 40
0.078
100
AcDbArc
 50
270.0
 51
90.0
  0
LINE
  5
28FA
330
17
100
AcDbEntity
  8
0
100
AcDbLine
 10
-8.064720887253813
 20
9.001853204253997
 30
0.0
 11
-8.064720887253813
 21
9.121853204253995
 31
0.0
  0
ARC
  5
28FB
330
17
100
AcDbEntity
  8
0
100
AcDbCircle
 10
-8.564920829451516
 20
8.89262564526058
 30
0.0
 40
0.094
100
AcDbArc
 50
289.5790071662275
 51
0.000000000000007
  0
ARC
  5
28FC
330
17
100
AcDbEntity
  8
0
100
AcDbCircle
 10
-8.111720829451734
 20
8.874999999999996
 30
0.0
 40
0.078
100
AcDbArc
 50
90.0
 51
270.0
  0
LINE
  5
28FD
330
17
100
AcDbEntity
  8
0
100
AcDbLine
 10
-8.111720945056071
 20
8.952999999999985
 30
0.0
 11
-8.017720829451541
 21
8.953000000000269
 31
0.0
  0
LINE
  5
28FE
330
17
100
AcDbEntity
  8
0
100
AcDbLine
 10
-8.111720976683778
 20
8.79700000000005
 30
0.0
 11
-8.017720829451541
 21
8.79699999999934
 31
0.0
  0
LINE
  5
28FF
330
17
100
AcDbEntity
  8
0
100
AcDbLine
 10
-8.004720887253814
 20
9.061853204253996
 30
0.0
 11
-8.124720887253812
 21
9.061853204253996
 31
0.0
  0
ARC
  5
2900
330
17
100
AcDbEntity
  8
0
100
AcDbCircle
 10
-8.017720829451527
 20
10.375
 30
0.0
 40
0.078
100
AcDbArc
 50
270.0
 51
90.0
  0
ARC
  5
2901
330
17
100
AcDbEntity
  8
0
100
AcDbCircle
 10
-8.111720829451734
 20
10.375
 30
0.0
 40
0.078
100
AcDbArc
 50
90.0
 51
270.0
  0
LINE
  5
2902
330
17
100
AcDbEntity
  8
0
100
AcDbLine
 10
-8.470920829451515
 20
10.98685599447702
 30
0.0
 11
-8.470920829451515
 21
10.09262564526058
 31
0.0
  0
ARC
  5
2903
330
17
100
AcDbEntity
  8
0
100
AcDbCircle
 10
-8.017720829451541
 20
9.625000000000004
 30
0.0
 40
0.078
100
AcDbArc
 50
270.0
 51
90.0
  0
ARC
  5
2904
330
17
100
AcDbEntity
  8
0
100
AcDbCircle
 10
-8.564920829451516
 20
9.786855994477016
 30
0.0
 40
0.094
100
AcDbArc
 50
0.000000000000007
 51
70.42099283377254
  0
ARC
  5
2905
330
17
100
AcDbEntity
  8
0
100
AcDbCircle
 10
-8.111720829451734
 20
9.624999999999996
 30
0.0
 40
0.078
100
AcDbArc
 50
90.0
 51
270.0
  0
LINE
  5
2906
330
17
100
AcDbEntity
  8
0
100
AcDbLine
 10
-8.064720887253813
 20
9.751853204253997
 30
0.0
 11
-8.064720887253813
 21
9.871853204253995
 31
0.0
  0
LINE
  5
2907
330
17
100
AcDbEntity
  8
0
100
AcDbLine
 10
-8.111720945056071
 20
9.702999999999985
 30
0.0
 11
-8.017720829451541
 21
9.703000000000269
 31
0.0
  0
LINE
  5
2908
330
17
100
AcDbEntity
  8
0
100
AcDbLine
 10
-8.111720976683778
 20
9.54700000000005
 30
0.0
 11
-8.017720829451541
 21
9.54699999999934
 31
0.0
  0
LINE
  5
2909
330
17
100
AcDbEntity
  8
0
100
AcDbLine
 10
-8.004720887253814
 20
9.811853204253996
 30
0.0
 11
-8.124720887253812
 21
9.811853204253996
 31
0.0
  0
ARC
  5
290A
330
17
100
AcDbEntity
  8
0
100
AcDbCircle
 10
-8.564920829451516
 20
10.09262564526058
 30
0.0
 40
0.094
100
AcDbArc
 50
289.5790071662275
 51
0.000000000000007
  0
LINE
  5
290B
330
17
100
AcDbEntity
  8
0
100
AcDbLine
 10
-8.111720976683778
 20
10.29700000000005
 30
0.0
 11
-8.017720829451513
 21
10.29699999999934
 31
0.0
  0
ARC
  5
290C
330
17
100
AcDbEntity
  8
0
100
AcDbCircle
 10
-8.017720829451527
 20
11.125
 30
0.0
 40
0.078
100
AcDbArc
 50
270.0
 51
90.0
  0
LINE
  5
290D
330
17
100
AcDbEntity
  8
0
100
AcDbLine
 10
-8.064720887253799
 20
10.501853204254
 30
0.0
 11
-8.064720887253799
 21
10.621853204254
 31
0.0
  0
LINE
  5
290E
330
17
100
AcDbEntity
  8
0
100
AcDbLine
 10
-8.111720945056071
 20
10.45299999999999
 30
0.0
 11
-8.017720829451513
 21
10.45300000000027
 31
0.0
  0
LINE
  5
290F
330
17
100
AcDbEntity
  8
0
100
AcDbLine
 10
-8.0047208872538
 20
10.561853204254
 30
0.0
 11
-8.124720887253798
 21
10.561853204254
 31
0.0
  0
ARC
  5
2910
330
17
100
AcDbEntity
  8
0
100
AcDbCircle
 10
-8.564920829451516
 20
10.98685599447702
 30
0.0
 40
0.094
100
AcDbArc
 50
0.000000000000007
 51
70.42099283377254
  0
ARC
  5
2911
330
17
100
AcDbEntity
  8
0
100
AcDbCircle
 10
-8.111720829451734
 20
11.125
 30
0.0
 40
0.078
100
AcDbArc
 50
90.0
 51
270.0
  0
LINE
  5
2912
330
17
100
AcDbEntity
  8
0
100
AcDbLine
 10
-8.111720945056071
 20
11.20299999999999
 30
0.0
 11
-8.017720829451527
 21
11.20300000000027
 31
0.0
  0
LINE
  5
2913
330
17
100
AcDbEntity
  8
0
100
AcDbLine
 10
-8.111720976683778
 20
11.04700000000005
 30
0.0
 11
-8.017720829451513
 21
11.04699999999934
 31
0.0
  0
LINE
  5
2914
330
17
100
AcDbEntity
  8
0
100
AcDbLine
 10
-8.0047208872538
 20
11.311853204254
 30
0.0
 11
-8.124720887253798
 21
11.311853204254
 31
0.0
  0
LINE
  5
2915
330
17
100
AcDbEntity
  8
0
100
AcDbLine
 10
-7.877220829451623
 20
11.62500000000001
 30
0.0
 11
-8.578420829451524
 21
11.625
 31
0.0
  0
LINE
  5
2916
330
17
100
AcDbEntity
  8
0
  6
HIDDEN
100
AcDbLine
 10
-8.533420829451522
 20
11.62500000000001
 30
0.0
 11
-7.752170829451522
 21
11.4156646934132
 31
0.0
  0
LINE
  5
2917
330
17
100
AcDbEntity
  8
0
100
AcDbLine
 10
-8.533420829451522
 20
11.37499999999999
 30
0.0
 11
-8.578420829451531
 21
11.37499999999999
 31
0.0
  0
LINE
  5
2918
330
17
100
AcDbEntity
  8
0
100
AcDbLine
 10
-7.752220829451623
 20
11.5
 30
0.0
 11
-7.877220829451623
 21
11.62500000000001
 31
0.0
  0
LINE
  5
2919
330
17
100
AcDbEntity
  8
0
100
AcDbLine
 10
0.7812499999999787
 20
11.625
 30
0.0
 11
0.7812499999999929
 21
8.202999999904701
 31
0.0
  0
LINE
  5
291A
330
17
100
AcDbEntity
  8
0
100
AcDbLine
 10
-0.7812499999999929
 20
11.62500000000001
 30
0.0
 11
-0.7812499999999929
 21
8.202999999904705
 31
0.0
  0
LINE
  5
291B
330
17
100
AcDbEntity
  8
0
100
AcDbLine
 10
0.8281249999999929
 20
11.39049999958608
 30
0.0
 11
0.8281249999999929
 21
8.202999999904701
 31
0.0
  0
LINE
  5
291C
330
17
100
AcDbEntity
  8
0
100
AcDbLine
 10
-0.8281249999999929
 20
11.39049999958608
 30
0.0
 11
-0.8281249999999929
 21
8.202999999904705
 31
0.0
  0
LINE
  5
291D
330
17
100
AcDbEntity
  8
0
100
AcDbLine
 10
-2.500000000000007
 20
11.37500000000001
 30
0.0
 11
-2.500000000000021
 21
6.678525403434453
 31
0.0
  0
LINE
  5
291E
330
17
100
AcDbEntity
  8
0
100
AcDbLine
 10
2.49999999999995
 20
6.678525403434449
 30
0.0
 11
2.49999999999995
 21
11.37499999999999
 31
0.0
  0
ARC
  5
291F
330
17
100
AcDbEntity
  8
0
100
AcDbCircle
 10
1.29511408793423
 20
10.98169417382417
 30
0.0
 40
0.04675
100
AcDbArc
 50
44.99999999999965
 51
224.9999999999996
  0
ARC
  5
2920
330
17
100
AcDbEntity
  8
0
100
AcDbCircle
 10
1.29511408793423
 20
10.98169417382417
 30
0.0
 40
0.09375
100
AcDbArc
 50
44.99999999999965
 51
224.9999999999996
  0
ARC
  5
2921
330
17
100
AcDbEntity
  8
0
100
AcDbCircle
 10
1.29511408793423
 20
9.781694173824171
 30
0.0
 40
0.09375
100
AcDbArc
 50
44.99999999999965
 51
224.9999999999996
  0
ARC
  5
2922
330
17
100
AcDbEntity
  8
0
100
AcDbCircle
 10
1.29511408793423
 20
9.781694173824171
 30
0.0
 40
0.04675
100
AcDbArc
 50
44.99999999999965
 51
224.9999999999996
  0
LINE
  5
2923
330
17
100
AcDbEntity
  8
0
100
AcDbLine
 10
1.228822827197995
 20
10.91540291308793
 30
0.0
 11
2.112706303681186
 21
10.03151943660475
 31
0.0
  0
LINE
  5
2924
330
17
100
AcDbEntity
  8
0
100
AcDbLine
 10
1.228822827197995
 20
9.715402913087935
 30
0.0
 11
2.112706303681186
 21
8.831519436604758
 31
0.0
  0
LWPOLYLINE
  5
2925
330
17
100
AcDbEntity
  8
0
100
AcDbPolyline
 90
        6
 70
     1
 43
0.0
 10
0.9744251874102012
 20
7.603359375000002
 10
0.897700749214108
 20
7.470468750012529
 42
0.577350269352915
 10
0.9232755619123836
 20
7.426171875000001
 10
1.076724438145439
 20
7.426171875000001
 42
0.5773502690263366
 10
1.102299250858183
 20
7.470468749987473
 10
1.025574812821221
 20
7.603359375000002
 42
0.5773502691896256
  0
LWPOLYLINE
  5
2926
330
17
100
AcDbEntity
  8
0
100
AcDbPolyline
 90
        6
 70
     1
 43
0.0
 10
-1.1605748124523
 20
5.79085937524375
 10
-1.237299250648393
 20
5.657968750256277
 42
0.577350269352915
 10
-1.211724437950117
 20
5.61367187524375
 10
-1.058275561717062
 20
5.61367187524375
 42
0.5773502690263366
 10
-1.032700749004318
 20
5.657968750231222
 10
-1.10942518704128
 20
5.79085937524375
 42
0.5773502691896256
  0
ARC
  5
2927
330
17
100
AcDbEntity
  8
0
100
AcDbCircle
 10
-2.500000000000007
 20
4.946474595865581
 30
0.0
 40
1.0
100
AcDbArc
 50
0.0000000000004071
 51
59.99999999999906
  0
ARC
  5
2928
330
17
100
AcDbEntity
  8
0
100
AcDbCircle
 10
-1.499999999999993
 20
6.678525403434453
 30
0.0
 40
1.0
100
AcDbArc
 50
180.0
 51
239.9999999999999
  0
LWPOLYLINE
  5
2929
330
17
100
AcDbEntity
  8
0
100
AcDbPolyline
 90
        6
 70
     1
 43
0.0
 10
-2.150574812589813
 20
7.478359375000009
 10
-2.227299250785906
 20
7.345468750012536
 42
0.577350269352915
 10
-2.201724438087631
 20
7.301171875000009
 10
-2.048275561854576
 20
7.301171875000009
 42
0.5773502690263366
 10
-2.022700749141832
 20
7.345468749987481
 10
-2.099425187178794
 20
7.478359375000009
 42
0.5773502691896256
  0
LWPOLYLINE
  5
292A
330
17
100
AcDbEntity
  8
0
100
AcDbPolyline
 90
        6
 70
     1
 43
0.0
 10
1.099425187272711
 20
5.79085937524375
 10
1.022700749076618
 20
5.657968750256277
 42
0.577350269352915
 10
1.048275561774894
 20
5.61367187524375
 10
1.201724438007949
 20
5.61367187524375
 42
0.5773502690263366
 10
1.227299250720693
 20
5.657968750231222
 10
1.150574812683731
 20
5.79085937524375
 42
0.5773502691896256
  0
LWPOLYLINE
  5
292B
330
17
100
AcDbEntity
  8
0
100
AcDbPolyline
 90
        6
 70
     1
 43
0.0
 10
-0.0255748125897846
 20
6.228359375212508
 10
-0.1022992507858778
 20
6.095468750225034
 42
0.577350269352915
 10
-0.0767244380876022
 20
6.051171875212507
 10
0.0767244381454528
 20
6.051171875212507
 42
0.5773502690263366
 10
0.1022992508581968
 20
6.095468750199979
 10
0.025574812821235
 20
6.228359375212508
 42
0.5773502691896256
  0
LWPOLYLINE
  5
292C
330
17
100
AcDbEntity
  8
0
100
AcDbPolyline
 90
        6
 70
     1
 43
0.0
 10
-0.0255748125897988
 20
7.353359375000009
 10
-0.102299250785892
 20
7.220468750012536
 42
0.577350269352915
 10
-0.0767244380876164
 20
7.176171875000009
 10
0.0767244381454386
 20
7.176171875000009
 42
0.5773502690263366
 10
0.1022992508581826
 20
7.220468749987481
 10
0.0255748128212208
 20
7.353359375000009
 42
0.5773502691896256
  0
LWPOLYLINE
  5
292D
330
17
100
AcDbEntity
  8
0
100
AcDbPolyline
 90
        6
 70
     1
 43
0.0
 10
-1.025574812589799
 20
7.103359375000002
 10
-1.102299250785892
 20
6.970468750012529
 42
0.577350269352915
 10
-1.076724438087616
 20
6.926171875000001
 10
-0.9232755618545614
 20
6.926171875000001
 42
0.5773502690263366
 10
-0.8977007491418174
 20
6.970468749987473
 10
-0.9744251871787792
 20
7.103359375000002
 42
0.5773502691896256
  0
ARC
  5
292E
330
17
100
AcDbEntity
  8
0
100
AcDbCircle
 10
-1.295114087934273
 20
9.781694173824171
 30
0.0
 40
0.09375
100
AcDbArc
 50
315.0000000000003
 51
135.0000000000004
  0
ARC
  5
292F
330
17
100
AcDbEntity
  8
0
100
AcDbCircle
 10
-1.295114087934273
 20
10.98169417382417
 30
0.0
 40
0.09375
100
AcDbArc
 50
315.0000000000003
 51
135.0000000000004
  0
LINE
  5
2930
330
17
100
AcDbEntity
  8
0
100
AcDbLine
 10
-1.334136040431652
 20
9.677104493151436
 30
0.0
 11
-2.089121462731946
 21
8.923008759920396
 31
0.0
  0
LINE
  5
2931
330
17
100
AcDbEntity
  8
0
100
AcDbLine
 10
-1.395588314646538
 20
9.747252968665269
 30
0.0
 11
-2.150573736946832
 21
8.993157235434214
 31
0.0
  0
LINE
  5
2932
330
17
100
AcDbEntity
  8
0
100
AcDbLine
 10
-1.228822827198037
 20
9.715402913087935
 30
0.0
 11
-2.112706303681229
 21
8.831519436604758
 31
0.0
  0
LINE
  5
2933
330
17
100
AcDbEntity
  8
0
100
AcDbLine
 10
-1.361405348670523
 20
9.847985434560407
 30
0.0
 11
-2.2452888251537
 21
8.964101958077229
 31
0.0
  0
ARC
  5
2934
330
17
100
AcDbEntity
  8
0
100
AcDbCircle
 10
-2.178997564417465
 20
8.897810697340994
 30
0.0
 40
0.09375
100
AcDbArc
 50
135.0000000000004
 51
315.0000000000003
  0
ARC
  5
2935
330
17
100
AcDbEntity
  8
0
100
AcDbCircle
 10
-2.178997564417465
 20
8.897810697340987
 30
0.0
 40
0.04675
100
AcDbArc
 50
135.0000000000004
 51
315.0000000000003
  0
LINE
  5
2936
330
17
100
AcDbEntity
  8
0
100
AcDbLine
 10
-1.395588314646538
 20
10.94725296866527
 30
0.0
 11
-2.150573736946832
 21
10.19315723543422
 31
0.0
  0
LINE
  5
2937
330
17
100
AcDbEntity
  8
0
100
AcDbLine
 10
-1.334136040431652
 20
10.87710449315144
 30
0.0
 11
-2.089121462731946
 21
10.1230087599204
 31
0.0
  0
LINE
  5
2938
330
17
100
AcDbEntity
  8
0
100
AcDbLine
 10
-1.361405348670523
 20
11.04798543456041
 30
0.0
 11
-2.2452888251537
 21
10.16410195807723
 31
0.0
  0
LINE
  5
2939
330
17
100
AcDbEntity
  8
0
100
AcDbLine
 10
-1.228822827198037
 20
10.91540291308793
 30
0.0
 11
-2.112706303681229
 21
10.03151943660475
 31
0.0
  0
ARC
  5
293A
330
17
100
AcDbEntity
  8
0
100
AcDbCircle
 10
-2.178997564417465
 20
10.09781069734099
 30
0.0
 40
0.09375
100
AcDbArc
 50
135.0000000000004
 51
315.0000000000003
  0
ARC
  5
293B
330
17
100
AcDbEntity
  8
0
100
AcDbCircle
 10
-2.178997564417465
 20
10.09781069734099
 30
0.0
 40
0.04675
100
AcDbArc
 50
135.0000000000004
 51
315.0000000000003
  0
ARC
  5
293C
330
17
100
AcDbEntity
  8
0
100
AcDbCircle
 10
-1.295114087934273
 20
9.781694173824171
 30
0.0
 40
0.04675
100
AcDbArc
 50
315.0000000000003
 51
135.0000000000004
  0
ARC
  5
293D
330
17
100
AcDbEntity
  8
0
100
AcDbCircle
 10
-1.295114087934273
 20
10.98169417382417
 30
0.0
 40
0.04675
100
AcDbArc
 50
315.0000000000003
 51
135.0000000000004
  0
LINE
  5
293E
330
17
100
AcDbEntity
  8
0
100
AcDbLine
 10
0.6253249999374262
 20
8.124999999912355
 30
0.0
 11
-0.6253249999374972
 21
8.12499999991249
 31
0.0
  0
LINE
  5
293F
330
17
100
AcDbEntity
  8
0
100
AcDbLine
 10
0.7033249999193245
 20
8.12499999999984
 30
0.0
 11
-0.7033249999193671
 21
8.125000000000004
 31
0.0
  0
ARC
  5
2940
330
17
100
AcDbEntity
  8
0
100
AcDbCircle
 10
-0.7813249999170964
 20
8.125000000000007
 30
0.0
 40
0.078
100
AcDbArc
 50
270.0
 51
359.9999999999947
  0
ARC
  5
2941
330
17
100
AcDbEntity
  8
0
100
AcDbCircle
 10
-0.8753249999170905
 20
8.125000000000007
 30
0.0
 40
0.078
100
AcDbArc
 50
90.0
 51
270.0
  0
LINE
  5
2942
330
17
100
AcDbEntity
  8
0
100
AcDbLine
 10
-0.8753249999170905
 20
8.047000000000004
 30
0.0
 11
-0.7813249999170964
 21
8.047000000000004
 31
0.0
  0
LINE
  5
2943
330
17
100
AcDbEntity
  8
0
100
AcDbLine
 10
-0.8753249999170905
 20
8.203000000000007
 30
0.0
 11
-0.7813249999170964
 21
8.203000000000007
 31
0.0
  0
ARC
  5
2944
330
17
100
AcDbEntity
  8
0
100
AcDbCircle
 10
-0.7813249999170964
 20
8.125000000000007
 30
0.0
 40
0.078
100
AcDbArc
 50
89.98164144573484
 51
90.0
  0
LINE
  5
2945
330
17
100
AcDbEntity
  8
0
100
AcDbLine
 10
-0.7812499999999929
 20
8.556510725993853
 30
0.0
 11
-0.8281249999999929
 21
8.556510725993853
 31
0.0
  0
ARC
  5
2946
330
17
100
AcDbEntity
  8
0
100
AcDbCircle
 10
0.8753249999170478
 20
8.125000000000007
 30
0.0
 40
0.078
100
AcDbArc
 50
270.0
 51
90.0
  0
ARC
  5
2947
330
17
100
AcDbEntity
  8
0
100
AcDbCircle
 10
0.7813249999170537
 20
8.125000000000007
 30
0.0
 40
0.078
100
AcDbArc
 50
180.0000000001227
 51
270.0
  0
LINE
  5
2948
330
17
100
AcDbEntity
  8
0
100
AcDbLine
 10
0.8753249999170478
 20
8.047000000000004
 30
0.0
 11
0.7813249999170537
 21
8.047000000000004
 31
0.0
  0
ARC
  5
2949
330
17
100
AcDbEntity
  8
0
100
AcDbCircle
 10
0.7811999999998918
 20
8.125000000000004
 30
0.0
 40
0.078
100
AcDbArc
 50
90.0
 51
90.01835855413978
  0
LINE
  5
294A
330
17
100
AcDbEntity
  8
0
100
AcDbLine
 10
0.8751999999998859
 20
8.203000000000003
 30
0.0
 11
0.7811999999998918
 21
8.203000000000003
 31
0.0
  0
LINE
  5
294B
330
17
100
AcDbEntity
  8
0
100
AcDbLine
 10
0.8281249999999929
 20
8.556510725993849
 30
0.0
 11
0.7812499999999929
 21
8.556510725993849
 31
0.0
  0
ARC
  5
294C
330
17
100
AcDbEntity
  8
0
100
AcDbCircle
 10
2.499999999999965
 20
4.946474595865581
 30
0.0
 40
1.0
100
AcDbArc
 50
120.0000000000009
 51
180.0000000000004
  0
ARC
  5
294D
330
17
100
AcDbEntity
  8
0
100
AcDbCircle
 10
1.49999999999995
 20
6.678525403434453
 30
0.0
 40
1.0
100
AcDbArc
 50
300.0
 51
359.9999999999998
  0
LWPOLYLINE
  5
294E
330
17
100
AcDbEntity
  8
0
100
AcDbPolyline
 90
        6
 70
     1
 43
0.0
 10
2.099425187410201
 20
7.228359375000009
 10
2.022700749214108
 20
7.095468750012536
 42
0.577350269352915
 10
2.048275561912384
 20
7.051171875000009
 10
2.201724438145439
 20
7.051171875000009
 42
0.5773502690263366
 10
2.227299250858183
 20
7.095468749987481
 10
2.150574812821221
 20
7.228359375000009
 42
0.5773502691896256
  0
LINE
  5
294F
330
17
100
AcDbEntity
  8
0
100
AcDbLine
 10
1.361405348670481
 20
9.847985434560407
 30
0.0
 11
2.245288825153658
 21
8.964101958077229
 31
0.0
  0
LINE
  5
2950
330
17
100
AcDbEntity
  8
0
100
AcDbLine
 10
1.395588314646496
 20
9.747252968665269
 30
0.0
 11
2.150573736946789
 21
8.993157235434214
 31
0.0
  0
LINE
  5
2951
330
17
100
AcDbEntity
  8
0
100
AcDbLine
 10
1.334136040431609
 20
9.677104493151436
 30
0.0
 11
2.089121462731903
 21
8.923008759920396
 31
0.0
  0
ARC
  5
2952
330
17
100
AcDbEntity
  8
0
100
AcDbCircle
 10
2.178997564417422
 20
8.897810697340994
 30
0.0
 40
0.09375
100
AcDbArc
 50
224.9999999999996
 51
44.99999999999965
  0
ARC
  5
2953
330
17
100
AcDbEntity
  8
0
100
AcDbCircle
 10
2.178997564417422
 20
8.897810697340987
 30
0.0
 40
0.04675
100
AcDbArc
 50
224.9999999999996
 51
44.99999999999965
  0
LINE
  5
2954
330
17
100
AcDbEntity
  8
0
100
AcDbLine
 10
1.361405348670481
 20
11.04798543456041
 30
0.0
 11
2.245288825153658
 21
10.16410195807723
 31
0.0
  0
LINE
  5
2955
330
17
100
AcDbEntity
  8
0
100
AcDbLine
 10
1.334136040431609
 20
10.87710449315144
 30
0.0
 11
2.089121462731903
 21
10.1230087599204
 31
0.0
  0
LINE
  5
2956
330
17
100
AcDbEntity
  8
0
100
AcDbLine
 10
1.395588314646496
 20
10.94725296866527
 30
0.0
 11
2.150573736946789
 21
10.19315723543422
 31
0.0
  0
ARC
  5
2957
330
17
100
AcDbEntity
  8
0
100
AcDbCircle
 10
2.178997564417422
 20
10.09781069734099
 30
0.0
 40
0.04675
100
AcDbArc
 50
224.9999999999996
 51
44.99999999999965
  0
ARC
  5
2958
330
17
100
AcDbEntity
  8
0
100
AcDbCircle
 10
2.178997564417422
 20
10.09781069734099
 30
0.0
 40
0.09375
100
AcDbArc
 50
224.9999999999996
 51
44.99999999999965
  0
LINE
  5
2959
330
17
100
AcDbEntity
  8
0
100
AcDbLine
 10
0.7812499999999787
 20
11.625
 30
0.0
 11
2.24999999999995
 21
11.62499999999999
 31
0.0
  0
LINE
  5
295A
330
17
100
AcDbEntity
  8
0
100
AcDbLine
 10
-0.7812499999999929
 20
11.62500000000001
 30
0.0
 11
-2.250000000000007
 21
11.62500000000001
 31
0.0
  0
LINE
  5
295B
330
17
100
AcDbEntity
  8
0
100
AcDbLine
 10
-2.250000000000007
 20
11.62500000000001
 30
0.0
 11
-2.500000000000007
 21
11.37500000000001
 31
0.0
  0
LINE
  5
295C
330
17
100
AcDbEntity
  8
0
100
AcDbLine
 10
-0.9107685451914946
 20
11.62499999956251
 30
0.0
 11
-0.8281249999999929
 21
11.39049999958608
 31
0.0
  0
LINE
  5
295D
330
17
100
AcDbEntity
  8
0
100
AcDbLine
 10
-0.8638935451914946
 20
11.62499999956251
 30
0.0
 11
-0.7812499999999929
 21
11.39049999958608
 31
0.0
  0
LINE
  5
295E
330
17
100
AcDbEntity
  8
0
100
AcDbLine
 10
-0.8779332395744675
 20
11.53183024082847
 30
0.0
 11
-0.8310582395744959
 21
11.53183024082847
 31
0.0
  0
LINE
  5
295F
330
17
100
AcDbEntity
  8
0
100
AcDbLine
 10
0.9107685451914946
 20
11.6249999995625
 30
0.0
 11
0.8281249999999929
 21
11.39049999958608
 31
0.0
  0
LINE
  5
2960
330
17
100
AcDbEntity
  8
0
100
AcDbLine
 10
0.8638935451914946
 20
11.6249999995625
 30
0.0
 11
0.7812499999999929
 21
11.39049999958608
 31
0.0
  0
LINE
  5
2961
330
17
100
AcDbEntity
  8
0
100
AcDbLine
 10
0.8779332395744675
 20
11.53183024082847
 30
0.0
 11
0.8310582395744675
 21
11.53183024082847
 31
0.0
  0
LINE
  5
2962
330
17
100
AcDbEntity
  8
0
100
AcDbLine
 10
2.24999999999995
 20
11.62499999999999
 30
0.0
 11
2.49999999999995
 21
11.37499999999999
 31
0.0
  0
LINE
  5
2963
330
17
100
AcDbEntity
  8
0
100
AcDbLine
 10
8.578420829451524
 20
11.62500000000001
 30
0.0
 11
8.57842082945152
 21
-0.0000000000000053
 31
0.0
  0
LINE
  5
2964
330
17
100
AcDbEntity
  8
0
100
AcDbLine
 10
8.533420829451522
 20
11.62500000000001
 30
0.0
 11
8.533420829451522
 21
-0.0000000000000053
 31
0.0
  0
LINE
  5
2965
330
17
100
AcDbEntity
  8
0
100
AcDbLine
 10
8.533420829451522
 20
-0.0000000000000053
 30
0.0
 11
8.57842082945152
 21
-0.0000000000000053
 31
0.0
  0
LINE
  5
2966
330
17
100
AcDbEntity
  8
0
100
AcDbLine
 10
8.533420829451522
 20
0.2499999999999965
 30
0.0
 11
8.578420829451524
 21
0.2499999999999965
 31
0.0
  0
LINE
  5
2967
330
17
100
AcDbEntity
  8
0
100
AcDbLine
 10
8.064720887253799
 20
11.251853204254
 30
0.0
 11
8.064720887253799
 21
11.371853204254
 31
0.0
  0
LINE
  5
2968
330
17
100
AcDbEntity
  8
0
100
AcDbLine
 10
7.752220829451623
 20
8.558264697538906
 30
0.0
 11
7.752220829451623
 21
11.5
 31
0.0
  0
LINE
  5
2969
330
17
100
AcDbEntity
  8
0
100
AcDbLine
 10
8.470920829451515
 20
9.786855994477016
 30
0.0
 11
8.470920829451515
 21
8.89262564526058
 31
0.0
  0
ARC
  5
296A
330
17
100
AcDbEntity
  8
0
100
AcDbCircle
 10
7.752220831872982
 20
8.058264697538906
 30
0.0
 40
0.5
100
AcDbArc
 50
61.49999999999972
 51
90.00000027746771
  0
LINE
  5
296B
330
17
100
AcDbEntity
  8
0
100
AcDbLine
 10
8.533542799806561
 20
8.202988071070624
 30
0.0
 11
7.990800212002789
 21
8.497673253869888
 31
0.0
  0
ARC
  5
296C
330
17
100
AcDbEntity
  8
0
100
AcDbCircle
 10
8.533545829368698
 20
8.125000000000007
 30
0.0
 40
0.078
100
AcDbArc
 50
90.0
 51
90.01835855413978
  0
LINE
  5
296D
330
17
100
AcDbEntity
  8
0
100
AcDbLine
 10
8.004720887253814
 20
9.061853204253996
 30
0.0
 11
8.124720887253812
 21
9.061853204253996
 31
0.0
  0
LINE
  5
296E
330
17
100
AcDbEntity
  8
0
100
AcDbLine
 10
8.111720976683778
 20
8.79700000000005
 30
0.0
 11
8.017720829451541
 21
8.79699999999934
 31
0.0
  0
LINE
  5
296F
330
17
100
AcDbEntity
  8
0
100
AcDbLine
 10
8.111720945056071
 20
8.952999999999985
 30
0.0
 11
8.017720829451541
 21
8.953000000000269
 31
0.0
  0
ARC
  5
2970
330
17
100
AcDbEntity
  8
0
100
AcDbCircle
 10
8.017720829451541
 20
8.875000000000004
 30
0.0
 40
0.078
100
AcDbArc
 50
90.0
 51
270.0
  0
LINE
  5
2971
330
17
100
AcDbEntity
  8
0
100
AcDbLine
 10
8.064720887253813
 20
9.001853204253997
 30
0.0
 11
8.064720887253813
 21
9.121853204253995
 31
0.0
  0
ARC
  5
2972
330
17
100
AcDbEntity
  8
0
100
AcDbCircle
 10
8.111720829451734
 20
8.874999999999996
 30
0.0
 40
0.078
100
AcDbArc
 50
270.0
 51
90.0
  0
ARC
  5
2973
330
17
100
AcDbEntity
  8
0
100
AcDbCircle
 10
8.564920829451516
 20
8.89262564526058
 30
0.0
 40
0.094
100
AcDbArc
 50
180.0
 51
250.4209928337725
  0
LINE
  5
2974
330
17
100
AcDbEntity
  8
0
100
AcDbLine
 10
8.470920829451515
 20
10.98685599447702
 30
0.0
 11
8.470920829451515
 21
10.09262564526058
 31
0.0
  0
ARC
  5
2975
330
17
100
AcDbEntity
  8
0
100
AcDbCircle
 10
8.111720829451734
 20
10.375
 30
0.0
 40
0.078
100
AcDbArc
 50
270.0
 51
90.0
  0
ARC
  5
2976
330
17
100
AcDbEntity
  8
0
100
AcDbCircle
 10
8.017720829451527
 20
10.375
 30
0.0
 40
0.078
100
AcDbArc
 50
90.0
 51
270.0
  0
LINE
  5
2977
330
17
100
AcDbEntity
  8
0
100
AcDbLine
 10
8.004720887253814
 20
9.811853204253996
 30
0.0
 11
8.124720887253812
 21
9.811853204253996
 31
0.0
  0
LINE
  5
2978
330
17
100
AcDbEntity
  8
0
100
AcDbLine
 10
8.111720976683778
 20
10.29700000000005
 30
0.0
 11
8.017720829451513
 21
10.29699999999934
 31
0.0
  0
LINE
  5
2979
330
17
100
AcDbEntity
  8
0
100
AcDbLine
 10
8.111720976683778
 20
9.54700000000005
 30
0.0
 11
8.017720829451541
 21
9.54699999999934
 31
0.0
  0
LINE
  5
297A
330
17
100
AcDbEntity
  8
0
100
AcDbLine
 10
8.111720945056071
 20
9.702999999999985
 30
0.0
 11
8.017720829451541
 21
9.703000000000269
 31
0.0
  0
ARC
  5
297B
330
17
100
AcDbEntity
  8
0
100
AcDbCircle
 10
8.017720829451541
 20
9.625000000000004
 30
0.0
 40
0.078
100
AcDbArc
 50
90.0
 51
270.0
  0
LINE
  5
297C
330
17
100
AcDbEntity
  8
0
100
AcDbLine
 10
8.064720887253813
 20
9.751853204253997
 30
0.0
 11
8.064720887253813
 21
9.871853204253995
 31
0.0
  0
ARC
  5
297D
330
17
100
AcDbEntity
  8
0
100
AcDbCircle
 10
8.111720829451734
 20
9.624999999999996
 30
0.0
 40
0.078
100
AcDbArc
 50
270.0
 51
90.0
  0
ARC
  5
297E
330
17
100
AcDbEntity
  8
0
100
AcDbCircle
 10
8.564920829451516
 20
9.786855994477016
 30
0.0
 40
0.094
100
AcDbArc
 50
109.5790071662274
 51
180.0
  0
ARC
  5
297F
330
17
100
AcDbEntity
  8
0
100
AcDbCircle
 10
8.564920829451516
 20
10.09262564526058
 30
0.0
 40
0.094
100
AcDbArc
 50
180.0
 51
250.4209928337725
  0
LINE
  5
2980
330
17
100
AcDbEntity
  8
0
100
AcDbLine
 10
8.0047208872538
 20
10.561853204254
 30
0.0
 11
8.124720887253798
 21
10.561853204254
 31
0.0
  0
LINE
  5
2981
330
17
100
AcDbEntity
  8
0
100
AcDbLine
 10
8.0047208872538
 20
11.311853204254
 30
0.0
 11
8.124720887253798
 21
11.311853204254
 31
0.0
  0
LINE
  5
2982
330
17
100
AcDbEntity
  8
0
100
AcDbLine
 10
8.111720976683778
 20
11.04700000000005
 30
0.0
 11
8.017720829451513
 21
11.04699999999934
 31
0.0
  0
LINE
  5
2983
330
17
100
AcDbEntity
  8
0
100
AcDbLine
 10
8.111720945056071
 20
11.20299999999999
 30
0.0
 11
8.017720829451527
 21
11.20300000000027
 31
0.0
  0
LINE
  5
2984
330
17
100
AcDbEntity
  8
0
100
AcDbLine
 10
8.111720945056071
 20
10.45299999999999
 30
0.0
 11
8.017720829451513
 21
10.45300000000027
 31
0.0
  0
ARC
  5
2985
330
17
100
AcDbEntity
  8
0
100
AcDbCircle
 10
8.017720829451527
 20
11.125
 30
0.0
 40
0.078
100
AcDbArc
 50
90.0
 51
270.0
  0
LINE
  5
2986
330
17
100
AcDbEntity
  8
0
100
AcDbLine
 10
8.064720887253799
 20
10.501853204254
 30
0.0
 11
8.064720887253799
 21
10.621853204254
 31
0.0
  0
ARC
  5
2987
330
17
100
AcDbEntity
  8
0
100
AcDbCircle
 10
8.111720829451734
 20
11.125
 30
0.0
 40
0.078
100
AcDbArc
 50
270.0
 51
90.0
  0
ARC
  5
2988
330
17
100
AcDbEntity
  8
0
100
AcDbCircle
 10
8.564920829451516
 20
10.98685599447702
 30
0.0
 40
0.094
100
AcDbArc
 50
109.5790071662274
 51
180.0
  0
LINE
  5
2989
330
17
100
AcDbEntity
  8
0
  6
HIDDEN
100
AcDbLine
 10
8.533420829451522
 20
11.62500000000001
 30
0.0
 11
7.752170829451522
 21
11.4156646934132
 31
0.0
  0
LINE
  5
298A
330
17
100
AcDbEntity
  8
0
100
AcDbLine
 10
7.877220829451623
 20
11.62500000000001
 30
0.0
 11
8.578420829451524
 21
11.625
 31
0.0
  0
LINE
  5
298B
330
17
100
AcDbEntity
  8
0
100
AcDbLine
 10
7.752220829451623
 20
11.5
 30
0.0
 11
7.877220829451623
 21
11.62500000000001
 31
0.0
  0
LINE
  5
298C
330
17
100
AcDbEntity
  8
0
100
AcDbLine
 10
8.533420829451522
 20
11.37499999999999
 30
0.0
 11
8.578420829451531
 21
11.37499999999999
 31
0.0
  0
VIEWPORT
  5
FA8
102
{ACAD_XDICTIONARY
360
29A9
102
}
330
14
100
AcDbEntity
 67
     1
  8
0
100
AcDbViewport
 10
6.599999953899539
 20
4.499999968567867
 30
0.0
 40
35.57762997558133
 41
24.25747498335091
 68
     1
 69
     1
 12
6.599999953899539
 22
4.499999968567867
 13
0.0
 23
0.0
 14
0.0625
 24
0.0625
 15
0.5
 25
0.5
 16
0.0
 26
0.0
 36
1.0
 17
0.0
 27
0.0
 37
0.0
 42
50.0
 43
0.0
 44
0.0
 45
24.25747498335091
 50
0.0
 51
0.0
 72
  5000
 90
    32800
  1

281
     0
 71
     1
 74
     0
110
0.0
120
0.0
130
0.0
111
1.0
121
0.0
131
0.0
112
0.0
122
1.0
132
0.0
 79
     0
146
0.0
  0
ENDSEC
  0
SECTION
  2
OBJECTS
  0
DICTIONARY
  5
C
330
0
100
AcDbDictionary
281
     1
  3
ACAD_COLOR
350
2990
  3
ACAD_GROUP
350
D
  3
ACAD_LAYOUT
350
1AB1
  3
ACAD_MATERIAL
350
298F
  3
ACAD_MLINESTYLE
350
1A
  3
ACAD_PLOTSETTINGS
350
1AB2
  3
ACAD_PLOTSTYLENAME
350
1AAF
  3
ACAD_TABLESTYLE
350
2991
  3
ACDBHEADERROUNDTRIPXREC
350
29A2
  3
ACDBVARIABLEDICTIONARY
350
47
  3
ASE_INDEX_DICTIONARY
350
2778
  0
DICTIONARY
  5
29A9
330
FA8
100
AcDbDictionary
280
     1
281
     1
  3
ACAD_XREC_ROUNDTRIP
360
29AA
  0
DICTIONARY
  5
2990
102
{ACAD_REACTORS
330
C
102
}
330
C
100
AcDbDictionary
281
     1
  0
DICTIONARY
  5
D
102
{ACAD_REACTORS
330
C
102
}
330
C
100
AcDbDictionary
281
     1
  0
DICTIONARY
  5
1AB1
102
{ACAD_REACTORS
330
C
102
}
330
C
100
AcDbDictionary
281
     1
  3
Layout1
350
1AB4
  3
Model
350
1AB3
  0
DICTIONARY
  5
298F
102
{ACAD_REACTORS
330
C
102
}
330
C
100
AcDbDictionary
281
     1
  0
DICTIONARY
  5
1A
102
{ACAD_REACTORS
330
C
102
}
330
C
100
AcDbDictionary
281
     1
  3
STANDARD
350
1B
  0
DICTIONARY
  5
1AB2
102
{ACAD_REACTORS
330
C
102
}
330
C
100
AcDbDictionary
281
     1
  0
ACDBDICTIONARYWDFLT
  5
1AAF
102
{ACAD_REACTORS
330
C
102
}
330
C
100
AcDbDictionary
281
     1
  3
Normal
350
1AB0
100
AcDbDictionaryWithDefault
340
1AB0
  0
DICTIONARY
  5
2991
102
{ACAD_REACTORS
330
C
102
}
330
C
100
AcDbDictionary
281
     1
  3
Standard
350
2992
  0
DICTIONARY
  5
29A2
102
{ACAD_REACTORS
330
C
102
}
330
C
100
AcDbDictionary
281
     1
  3
COLORDICT
350
29A3
  3
MATERIALDICT
350
29A4
  0
DICTIONARY
  5
47
102
{ACAD_REACTORS
330
C
102
}
330
C
100
AcDbDictionary
281
     1
  3
CTABLESTYLE
350
299E
  3
DIMADEC
350
48
  0
DICTIONARY
  5
2778
102
{ACAD_REACTORS
330
C
102
}
330
C
100
AcDbDictionary
281
     1
  3
ASEBlockHierarchyIndexRecord
350
277A
1001
DCO15
1040
1564736987.141
  0
XRECORD
  5
29AA
102
{ACAD_REACTORS
330
29A9
102
}
330
29A9
100
AcDbXrecord
280
     1
102
SHADEPLOT
 70
     0
  0
LAYOUT
  5
1AB4
102
{ACAD_REACTORS
330
1AB1
102
}
102
{ACAD_XDICTIONARY
360
29A5
102
}
330
1AB1
100
AcDbPlotSettings
  1

  2
HP LaserJet 2100 Series PCL 6
  4

  6

 40
0.0
 41
0.0
 42
0.0
 43
0.0
 44
0.0
 45
0.0
 46
0.0
 47
0.0
 48
0.0
 49
0.0
140
0.0
141
0.0
142
1.0
143
1.0
 70
   688
 72
     0
 73
     0
 74
     5
  7

 75
    16
147
1.0
148
0.0
149
0.0
100
AcDbLayout
  1
Layout1
 70
     0
 71
     1
 10
0.0
 20
0.0
 11
12.0
 21
9.0
 12
0.0
 22
0.0
 32
0.0
 14
1.000000000000000E+20
 24
1.000000000000000E+20
 34
1.000000000000000E+20
 15
-1.000000000000000E+20
 25
-1.000000000000000E+20
 35
-1.000000000000000E+20
146
0.0
 13
0.0
 23
0.0
 33
0.0
 16
1.0
 26
0.0
 36
0.0
 17
0.0
 27
1.0
 37
0.0
 76
     0
330
14
331
FA8
  0
LAYOUT
  5
1AB3
102
{ACAD_REACTORS
330
1AB1
102
}
102
{ACAD_XDICTIONARY
360
29A7
102
}
330
1AB1
100
AcDbPlotSettings
  1

  2
HP LaserJet 2100 Series PS
  4
Letter
  6
PRINTER
 40
5.365749835968018
 41
5.408073902130127
 42
5.132904052734375
 43
5.090576171875
 44
215.8999938964844
 45
279.3999938964844
 46
0.0
 47
0.0
 48
0.0
 49
0.0
140
0.0
141
0.0
142
1.0
143
2.975440689981091
 70
 11952
 72
     0
 73
     1
 74
     2
  7

 75
     0
147
0.3360846691944497
148
0.0
149
0.0
100
AcDbLayout
  1
Model
 70
     1
 71
     0
 10
0.0
 20
0.0
 11
12.0
 21
9.0
 12
0.0
 22
0.0
 32
0.0
 14
0.0
 24
0.0
 34
0.0
 15
0.0
 25
0.0
 35
0.0
146
0.0
 13
0.0
 23
0.0
 33
0.0
 16
1.0
 26
0.0
 36
0.0
 17
0.0
 27
1.0
 37
0.0
 76
     0
330
17
  0
MLINESTYLE
  5
1B
102
{ACAD_REACTORS
330
1A
102
}
330
1A
100
AcDbMlineStyle
  2
STANDARD
 70
     0
  3

 62
   256
 51
90.0
 52
90.0
 71
     2
 49
0.5
 62
   256
  6
BYLAYER
 49
-0.5
 62
   256
  6
BYLAYER
  0
ACDBPLACEHOLDER
  5
1AB0
102
{ACAD_REACTORS
330
1AAF
102
}
330
1AAF
  0
ACAD_PROXY_OBJECT
  5
2992
102
{ACAD_REACTORS
330
2991
102
}
330
2991
100
AcDbProxyObject
 90
      499
 91
      525
 95
   983063
 70
     0
 93
     1841
310
4214DD185B99185C9928B81E85EB51B8AE3F2E07A17AD46E2B8FC02B5E8DC0F42B1CFD028000000C1008070000C3001FDFF8000000C1003FBFF000000182007F7FE00000030400FEFFC00000060801FDFF8000000C1003FBFF00000018200000000000000681FA0B0000001820100E000186003FBFF000000182007F7FE000
310
00030400FEFFC00000060801FDFF8000000C1003FBFF000000182007F7FE000000304000AD7A3703D0AC73F4160000003040201C00030C007F7FE00000030400FEFFC00000060801FDFF8000000C1003FBFF000000182007F7FE00000030400FEFFC000000608000
340
F
340
F
340
F
 94
        0
  0
XRECORD
  5
29A3
102
{ACAD_REACTORS
330
29A2
102
}
330
29A2
100
AcDbXrecord
340
2990
  0
XRECORD
  5
29A4
102
{ACAD_REACTORS
330
29A2
102
}
330
29A2
100
AcDbXrecord
340
298F
  0
DICTIONARYVAR
  5
299E
102
{ACAD_REACTORS
330
47
102
}
330
47
100
DictionaryVariables
280
     0
  1
STANDARD
  0
DICTIONARYVAR
  5
48
102
{ACAD_REACTORS
330
47
102
}
330
47
100
DictionaryVariables
280
     0
  1
0
  0
XRECORD
  5
277A
102
{ACAD_REACTORS
330
2778
102
}
330
2778
100
AcDbXrecord
280
     1
330
0
330
0
330
0
330
0
330
0
330
0
330
0
330
0
330
0
  0
DICTIONARY
  5
29A5
330
1AB4
100
AcDbDictionary
280
     1
281
     1
  3
ACAD_XREC_ROUNDTRIP
360
29A6
  0
DICTIONARY
  5
29A7
330
1AB3
100
AcDbDictionary
280
     1
281
     1
  3
ACAD_XREC_ROUNDTRIP
360
29A8
  0
XRECORD
  5
29A6
102
{ACAD_REACTORS
330
29A5
102
}
330
29A5
100
AcDbXrecord
102
SHADEPLOT
 70
     0
102
SHADEPLOTRESLEVEL
 70
     2
102
SHADEPLOTCUSTOMDPI
 70
   300
  0
XRECORD
  5
29A8
102
{ACAD_REACTORS
330
29A7
102
}
330
29A7
100
AcDbXrecord
102
SHADEPLOT
 70
     0
102
SHADEPLOTRESLEVEL
 70
     2
102
SHADEPLOTCUSTOMDPI
 70
   300
  0
ENDSEC
  0
EOF
