  0
SECTION
  2
HEADER
  9
$ACADVER
  1
AC1015
  9
$ACADMAINTVER
 70
     6
  9
$DWGCODEPAGE
  3
ANSI_1252
  9
$INSBASE
 10
0.0
 20
0.0
 30
0.0
  9
$EXTMIN
 10
-2.961938464693503
 20
-0.0234627611034135
 30
-0.0015258207003583
  9
$EXTMAX
 10
3.040969508072898
 20
7.375643764771976
 30
0.0000000349246037
  9
$LIMMIN
 10
-0.0625
 20
-0.0625
  9
$LIMMAX
 10
21.12826639170268
 20
15.63285024802469
  9
$ORTHOMODE
 70
     0
  9
$REGENMODE
 70
     1
  9
$FILLMODE
 70
     1
  9
$QTEXTMODE
 70
     0
  9
$MIRRTEXT
 70
     1
  9
$LTSCALE
 40
0.5
  9
$ATTMODE
 70
     1
  9
$TEXTSIZE
 40
0.18
  9
$TRACEWID
 40
0.05
  9
$TEXTSTYLE
  7
STANDARD
  9
$CLAYER
  8
0
  9
$CELTYPE
  6
BYLAYER
  9
$CECOLOR
 62
   256
  9
$CELTSCALE
 40
1.0
  9
$DISPSILH
 70
     0
  9
$DIMSCALE
 40
2.0
  9
$DIMASZ
 40
0.125
  9
$DIMEXO
 40
0.062
  9
$DIMDLI
 40
0.375
  9
$DIMRND
 40
0.0
  9
$DIMDLE
 40
0.0
  9
$DIMEXE
 40
0.08
  9
$DIMTP
 40
0.0
  9
$DIMTM
 40
0.0
  9
$DIMTXT
 40
0.09
  9
$DIMCEN
 40
-0.06
  9
$DIMTSZ
 40
0.0
  9
$DIMTOL
 70
     0
  9
$DIMLIM
 70
     0
  9
$DIMTIH
 70
     1
  9
$DIMTOH
 70
     1
  9
$DIMSE1
 70
     0
  9
$DIMSE2
 70
     0
  9
$DIMTAD
 70
     0
  9
$DIMZIN
 70
     0
  9
$DIMBLK
  1

  9
$DIMASO
 70
     0
  9
$DIMSHO
 70
     0
  9
$DIMPOST
  1

  9
$DIMAPOST
  1

  9
$DIMALT
 70
     0
  9
$DIMALTD
 70
     2
  9
$DIMALTF
 40
25.4
  9
$DIMLFAC
 40
1.0
  9
$DIMTOFL
 70
     0
  9
$DIMTVP
 40
0.0
  9
$DIMTIX
 70
     0
  9
$DIMSOXD
 70
     0
  9
$DIMSAH
 70
     0
  9
$DIMBLK1
  1

  9
$DIMBLK2
  1

  9
$DIMSTYLE
  2
STANDARD
  9
$DIMCLRD
 70
     0
  9
$DIMCLRE
 70
     0
  9
$DIMCLRT
 70
     0
  9
$DIMTFAC
 40
1.0
  9
$DIMGAP
 40
0.09
  9
$DIMJUST
 70
     0
  9
$DIMSD1
 70
     0
  9
$DIMSD2
 70
     0
  9
$DIMTOLJ
 70
     1
  9
$DIMTZIN
 70
     0
  9
$DIMALTZ
 70
     0
  9
$DIMALTTZ
 70
     0
  9
$DIMUPT
 70
     0
  9
$DIMDEC
 70
     5
  9
$DIMTDEC
 70
     5
  9
$DIMALTU
 70
     5
  9
$DIMALTTD
 70
     2
  9
$DIMTXSTY
  7
STANDARD
  9
$DIMAUNIT
 70
     0
  9
$DIMADEC
 70
     0
  9
$DIMALTRND
 40
0.0
  9
$DIMAZIN
 70
     0
  9
$DIMDSEP
 70
    46
  9
$DIMATFIT
 70
     3
  9
$DIMFRAC
 70
     2
  9
$DIMLDRBLK
  1

  9
$DIMLUNIT
 70
     5
  9
$DIMLWD
 70
    -2
  9
$DIMLWE
 70
    -2
  9
$DIMTMOVE
 70
     2
  9
$LUNITS
 70
     5
  9
$LUPREC
 70
     5
  9
$SKETCHINC
 40
0.1
  9
$FILLETRAD
 40
0.0
  9
$AUNITS
 70
     0
  9
$AUPREC
 70
     0
  9
$MENU
  1
simpson
  9
$ELEVATION
 40
0.0
  9
$PELEVATION
 40
0.0
  9
$THICKNESS
 40
0.0
  9
$LIMCHECK
 70
     0
  9
$CHAMFERA
 40
0.0
  9
$CHAMFERB
 40
0.0
  9
$CHAMFERC
 40
0.0
  9
$CHAMFERD
 40
0.0
  9
$SKPOLY
 70
     0
  9
$TDCREATE
 40
2449230.732414236
  9
$TDUCREATE
 40
2449231.065747569
  9
$TDUPDATE
 40
2453791.88822522
  9
$TDUUPDATE
 40
2453792.221558553
  9
$TDINDWG
 40
0.3714423727
  9
$TDUSRTIMER
 40
0.3714423727
  9
$USRTIMER
 70
     1
  9
$ANGBASE
 50
0.0
  9
$ANGDIR
 70
     0
  9
$PDMODE
 70
     0
  9
$PDSIZE
 40
0.0
  9
$PLINEWID
 40
0.0
  9
$SPLFRAME
 70
     0
  9
$SPLINETYPE
 70
     6
  9
$SPLINESEGS
 70
     8
  9
$HANDSEED
  5
C0
  9
$SURFTAB1
 70
     6
  9
$SURFTAB2
 70
     6
  9
$SURFTYPE
 70
     6
  9
$SURFU
 70
     6
  9
$SURFV
 70
     6
  9
$UCSBASE
  2

  9
$UCSNAME
  2

  9
$UCSORG
 10
0.0
 20
0.0
 30
0.0
  9
$UCSXDIR
 10
1.0
 20
0.0
 30
0.0
  9
$UCSYDIR
 10
0.0
 20
1.0
 30
0.0
  9
$UCSORTHOREF
  2

  9
$UCSORTHOVIEW
 70
     0
  9
$UCSORGTOP
 10
0.0
 20
0.0
 30
0.0
  9
$UCSORGBOTTOM
 10
0.0
 20
0.0
 30
0.0
  9
$UCSORGLEFT
 10
0.0
 20
0.0
 30
0.0
  9
$UCSORGRIGHT
 10
0.0
 20
0.0
 30
0.0
  9
$UCSORGFRONT
 10
0.0
 20
0.0
 30
0.0
  9
$UCSORGBACK
 10
0.0
 20
0.0
 30
0.0
  9
$PUCSBASE
  2

  9
$PUCSNAME
  2

  9
$PUCSORG
 10
0.0
 20
0.0
 30
0.0
  9
$PUCSXDIR
 10
1.0
 20
0.0
 30
0.0
  9
$PUCSYDIR
 10
0.0
 20
1.0
 30
0.0
  9
$PUCSORTHOREF
  2

  9
$PUCSORTHOVIEW
 70
     0
  9
$PUCSORGTOP
 10
0.0
 20
0.0
 30
0.0
  9
$PUCSORGBOTTOM
 10
0.0
 20
0.0
 30
0.0
  9
$PUCSORGLEFT
 10
0.0
 20
0.0
 30
0.0
  9
$PUCSORGRIGHT
 10
0.0
 20
0.0
 30
0.0
  9
$PUCSORGFRONT
 10
0.0
 20
0.0
 30
0.0
  9
$PUCSORGBACK
 10
0.0
 20
0.0
 30
0.0
  9
$USERI1
 70
     0
  9
$USERI2
 70
     0
  9
$USERI3
 70
     0
  9
$USERI4
 70
     0
  9
$USERI5
 70
     0
  9
$USERR1
 40
0.0
  9
$USERR2
 40
0.0
  9
$USERR3
 40
0.0
  9
$USERR4
 40
0.0
  9
$USERR5
 40
0.0
  9
$WORLDVIEW
 70
     1
  9
$SHADEDGE
 70
     3
  9
$SHADEDIF
 70
    70
  9
$TILEMODE
 70
     1
  9
$MAXACTVP
 70
    16
  9
$PINSBASE
 10
0.0
 20
0.0
 30
0.0
  9
$PLIMCHECK
 70
     0
  9
$PEXTMIN
 10
1.000000000000000E+20
 20
1.000000000000000E+20
 30
1.000000000000000E+20
  9
$PEXTMAX
 10
-1.000000000000000E+20
 20
-1.000000000000000E+20
 30
-1.000000000000000E+20
  9
$PLIMMIN
 10
0.0
 20
0.0
  9
$PLIMMAX
 10
12.0
 20
9.0
  9
$UNITMODE
 70
     0
  9
$VISRETAIN
 70
     0
  9
$PLINEGEN
 70
     0
  9
$PSLTSCALE
 70
     0
  9
$TREEDEPTH
 70
  3020
  9
$CMLSTYLE
  2
STANDARD
  9
$CMLJUST
 70
     0
  9
$CMLSCALE
 40
1.0
  9
$PROXYGRAPHICS
 70
     1
  9
$MEASUREMENT
 70
     0
  9
$CELWEIGHT
370
    -1
  9
$ENDCAPS
280
     0
  9
$JOINSTYLE
280
     0
  9
$LWDISPLAY
290
     0
  9
$INSUNITS
 70
     0
  9
$HYPERLINKBASE
  1

  9
$STYLESHEET
  1

  9
$XEDIT
290
     1
  9
$CEPSNTYPE
380
     0
  9
$PSTYLEMODE
290
     1
  9
$FINGERPRINTGUID
  2
{4D67D000-BAD0-11D4-8FCF-00D0B726A456}
  9
$VERSIONGUID
  2
{B5513476-66C0-49E3-B476-B0F7193394E9}
  9
$EXTNAMES
290
     1
  9
$PSVPSCALE
 40
0.0
  9
$OLESTARTUP
290
     0
  0
ENDSEC
  0
SECTION
  2
CLASSES
  0
CLASS
  1
DICTIONARYVAR
  2
AcDbDictionaryVar
  3
AutoCAD 2000
 90
        0
280
     0
281
     0
  0
CLASS
  1
LWPOLYLINE
  2
AcDbPolyline
  3
AutoCAD 2000
 90
        0
280
     0
281
     1
  0
CLASS
  1
ACDBDICTIONARYWDFLT
  2
AcDbDictionaryWithDefault
  3
AutoCAD 2000
 90
        0
280
     0
281
     0
  0
CLASS
  1
ACDBPLACEHOLDER
  2
AcDbPlaceHolder
  3
ObjectDBX Classes
 90
        0
280
     0
281
     0
  0
CLASS
  1
LAYOUT
  2
AcDbLayout
  3
ObjectDBX Classes
 90
        0
280
     0
281
     0
  0
CLASS
  1
LONG_TRANSACTION
  2
AcDbLongTransaction
  3
ObjectDBX Classes
 90
   -65536
280
     1
281
     0
  0
CLASS
  1
LWPOLYLINE
  2
AcDbPolyline
  3
AutoCAD 2000
 90
        0
280
     0
281
     1
  0
CLASS
  1
HATCH
  2
AcDbHatch
  3
AutoCAD 2000
 90
        0
280
     0
281
     1
  0
CLASS
  1
XRECORD
  2
AcDbXrecord
  3
AutoCAD 2000
 90
        0
280
     0
281
     0
  0
CLASS
  1
LONG_TRANSACTION
  2
AcDbLongTransaction
  3
ObjectDBX Classes
 90
   -65536
280
     1
281
     0
  0
CLASS
  1
LWPOLYLINE
  2
AcDbPolyline
  3
AutoCAD 2000
 90
        0
280
     0
281
     1
  0
CLASS
  1
HATCH
  2
AcDbHatch
  3
AutoCAD 2000
 90
        0
280
     0
281
     1
  0
CLASS
  1
XRECORD
  2
AcDbXrecord
  3
AutoCAD 2000
 90
        0
280
     0
281
     0
  0
CLASS
  1
LONG_TRANSACTION
  2
AcDbLongTransaction
  3
ObjectDBX Classes
 90
   -65536
280
     1
281
     0
  0
CLASS
  1
LWPOLYLINE
  2
AcDbPolyline
  3
AutoCAD 2000
 90
        0
280
     0
281
     1
  0
CLASS
  1
HATCH
  2
AcDbHatch
  3
AutoCAD 2000
 90
        0
280
     0
281
     1
  0
CLASS
  1
XRECORD
  2
AcDbXrecord
  3
AutoCAD 2000
 90
        0
280
     0
281
     0
  0
CLASS
  1
LONG_TRANSACTION
  2
AcDbLongTransaction
  3
ObjectDBX Classes
 90
   -65536
280
     1
281
     0
  0
CLASS
  1
LWPOLYLINE
  2
AcDbPolyline
  3
AutoCAD 2000
 90
        0
280
     0
281
     1
  0
CLASS
  1
HATCH
  2
AcDbHatch
  3
AutoCAD 2000
 90
        0
280
     0
281
     1
  0
CLASS
  1
XRECORD
  2
AcDbXrecord
  3
AutoCAD 2000
 90
        0
280
     0
281
     0
  0
CLASS
  1
LONG_TRANSACTION
  2
AcDbLongTransaction
  3
ObjectDBX Classes
 90
   -65536
280
     1
281
     0
  0
CLASS
  1
LWPOLYLINE
  2
AcDbPolyline
  3
AutoCAD 2000
 90
        0
280
     0
281
     1
  0
CLASS
  1
HATCH
  2
AcDbHatch
  3
AutoCAD 2000
 90
        0
280
     0
281
     1
  0
CLASS
  1
XRECORD
  2
AcDbXrecord
  3
AutoCAD 2000
 90
        0
280
     0
281
     0
  0
CLASS
  1
LONG_TRANSACTION
  2
AcDbLongTransaction
  3
ObjectDBX Classes
 90
   -65536
280
     1
281
     0
  0
CLASS
  1
LWPOLYLINE
  2
AcDbPolyline
  3
AutoCAD 2000
 90
        0
280
     0
281
     1
  0
CLASS
  1
HATCH
  2
AcDbHatch
  3
AutoCAD 2000
 90
        0
280
     0
281
     1
  0
CLASS
  1
XRECORD
  2
AcDbXrecord
  3
AutoCAD 2000
 90
        0
280
     0
281
     0
  0
CLASS
  1
LONG_TRANSACTION
  2
AcDbLongTransaction
  3
ObjectDBX Classes
 90
   -65536
280
     1
281
     0
  0
CLASS
  1
LWPOLYLINE
  2
AcDbPolyline
  3
AutoCAD 2000
 90
        0
280
     0
281
     1
  0
CLASS
  1
HATCH
  2
AcDbHatch
  3
AutoCAD 2000
 90
        0
280
     0
281
     1
  0
CLASS
  1
XRECORD
  2
AcDbXrecord
  3
AutoCAD 2000
 90
        0
280
     0
281
     0
  0
CLASS
  1
LONG_TRANSACTION
  2
AcDbLongTransaction
  3
ObjectDBX Classes
 90
   -65536
280
     1
281
     0
  0
CLASS
  1
LWPOLYLINE
  2
AcDbPolyline
  3
AutoCAD 2000
 90
        0
280
     0
281
     1
  0
CLASS
  1
HATCH
  2
AcDbHatch
  3
AutoCAD 2000
 90
        0
280
     0
281
     1
  0
CLASS
  1
XRECORD
  2
AcDbXrecord
  3
AutoCAD 2000
 90
        0
280
     0
281
     0
  0
CLASS
  1
LONG_TRANSACTION
  2
AcDbLongTransaction
  3
ObjectDBX Classes
 90
   -65536
280
     1
281
     0
  0
CLASS
  1
LWPOLYLINE
  2
AcDbPolyline
  3
AutoCAD 2000
 90
        0
280
     0
281
     1
  0
CLASS
  1
HATCH
  2
AcDbHatch
  3
AutoCAD 2000
 90
        0
280
     0
281
     1
  0
CLASS
  1
XRECORD
  2
AcDbXrecord
  3
AutoCAD 2000
 90
        0
280
     0
281
     0
  0
CLASS
  1
LONG_TRANSACTION
  2
AcDbLongTransaction
  3
ObjectDBX Classes
 90
   -65536
280
     1
281
     0
  0
CLASS
  1
LWPOLYLINE
  2
AcDbPolyline
  3
AutoCAD 2000
 90
        0
280
     0
281
     1
  0
CLASS
  1
HATCH
  2
AcDbHatch
  3
AutoCAD 2000
 90
        0
280
     0
281
     1
  0
CLASS
  1
XRECORD
  2
AcDbXrecord
  3
AutoCAD 2000
 90
        0
280
     0
281
     0
  0
CLASS
  1
LONG_TRANSACTION
  2
AcDbLongTransaction
  3
ObjectDBX Classes
 90
   -65536
280
     1
281
     0
  0
CLASS
  1
LWPOLYLINE
  2
AcDbPolyline
  3
AutoCAD 2000
 90
        0
280
     0
281
     1
  0
CLASS
  1
HATCH
  2
AcDbHatch
  3
AutoCAD 2000
 90
        0
280
     0
281
     1
  0
CLASS
  1
XRECORD
  2
AcDbXrecord
  3
AutoCAD 2000
 90
        0
280
     0
281
     0
  0
CLASS
  1
LONG_TRANSACTION
  2
AcDbLongTransaction
  3
ObjectDBX Classes
 90
   -65536
280
     1
281
     0
  0
CLASS
  1
LWPOLYLINE
  2
AcDbPolyline
  3
AutoCAD 2000
 90
        0
280
     0
281
     1
  0
CLASS
  1
HATCH
  2
AcDbHatch
  3
AutoCAD 2000
 90
        0
280
     0
281
     1
  0
CLASS
  1
XRECORD
  2
AcDbXrecord
  3
AutoCAD 2000
 90
        0
280
     0
281
     0
  0
CLASS
  1
LONG_TRANSACTION
  2
AcDbLongTransaction
  3
ObjectDBX Classes
 90
   -65536
280
     1
281
     0
  0
CLASS
  1
LWPOLYLINE
  2
AcDbPolyline
  3
AutoCAD 2000
 90
        0
280
     0
281
     1
  0
CLASS
  1
HATCH
  2
AcDbHatch
  3
AutoCAD 2000
 90
        0
280
     0
281
     1
  0
CLASS
  1
XRECORD
  2
AcDbXrecord
  3
AutoCAD 2000
 90
        0
280
     0
281
     0
  0
CLASS
  1
LONG_TRANSACTION
  2
AcDbLongTransaction
  3
ObjectDBX Classes
 90
   -65536
280
     1
281
     0
  0
CLASS
  1
LWPOLYLINE
  2
AcDbPolyline
  3
AutoCAD 2000
 90
        0
280
     0
281
     1
  0
CLASS
  1
HATCH
  2
AcDbHatch
  3
AutoCAD 2000
 90
        0
280
     0
281
     1
  0
CLASS
  1
XRECORD
  2
AcDbXrecord
  3
AutoCAD 2000
 90
        0
280
     0
281
     0
  0
CLASS
  1
LONG_TRANSACTION
  2
AcDbLongTransaction
  3
ObjectDBX Classes
 90
   -65536
280
     1
281
     0
  0
CLASS
  1
LWPOLYLINE
  2
AcDbPolyline
  3
AutoCAD 2000
 90
        0
280
     0
281
     1
  0
CLASS
  1
HATCH
  2
AcDbHatch
  3
AutoCAD 2000
 90
        0
280
     0
281
     1
  0
CLASS
  1
XRECORD
  2
AcDbXrecord
  3
AutoCAD 2000
 90
        0
280
     0
281
     0
  0
CLASS
  1
LONG_TRANSACTION
  2
AcDbLongTransaction
  3
ObjectDBX Classes
 90
   -65536
280
     1
281
     0
  0
CLASS
  1
LWPOLYLINE
  2
AcDbPolyline
  3
AutoCAD 2000
 90
        0
280
     0
281
     1
  0
CLASS
  1
HATCH
  2
AcDbHatch
  3
AutoCAD 2000
 90
        0
280
     0
281
     1
  0
CLASS
  1
XRECORD
  2
AcDbXrecord
  3
AutoCAD 2000
 90
        0
280
     0
281
     0
  0
CLASS
  1
LONG_TRANSACTION
  2
AcDbLongTransaction
  3
ObjectDBX Classes
 90
   -65536
280
     1
281
     0
  0
CLASS
  1
LWPOLYLINE
  2
AcDbPolyline
  3
AutoCAD 2000
 90
        0
280
     0
281
     1
  0
CLASS
  1
HATCH
  2
AcDbHatch
  3
AutoCAD 2000
 90
        0
280
     0
281
     1
  0
CLASS
  1
XRECORD
  2
AcDbXrecord
  3
AutoCAD 2000
 90
        0
280
     0
281
     0
  0
CLASS
  1
LONG_TRANSACTION
  2
AcDbLongTransaction
  3
ObjectDBX Classes
 90
   -65536
280
     1
281
     0
  0
CLASS
  1
LWPOLYLINE
  2
AcDbPolyline
  3
AutoCAD 2000
 90
        0
280
     0
281
     1
  0
CLASS
  1
HATCH
  2
AcDbHatch
  3
AutoCAD 2000
 90
        0
280
     0
281
     1
  0
CLASS
  1
XRECORD
  2
AcDbXrecord
  3
AutoCAD 2000
 90
        0
280
     0
281
     0
  0
CLASS
  1
TABLESTYLE
  2
AcDbTableStyle
  3
ObjectDBX Classes
 90
     2047
280
     1
281
     0
  0
CLASS
  1
SORTENTSTABLE
  2
AcDbSortentsTable
  3
AutoCAD 2000
 90
        0
280
     0
281
     0
  0
ENDSEC
  0
SECTION
  2
TABLES
  0
TABLE
  2
VPORT
  5
1D
330
0
100
AcDbSymbolTable
 70
     2
  0
VPORT
  5
B0
330
1D
100
AcDbSymbolTableRecord
100
AcDbViewportTableRecord
  2
*Active
 70
     0
 10
0.0
 20
0.0
 11
1.0
 21
1.0
 12
9.083163963504587
 22
7.785175124012343
 13
0.0
 23
0.0
 14
0.063
 24
0.063
 15
0.25
 25
0.25
 16
0.0
 26
0.0
 36
1.0
 17
0.0
 27
0.0
 37
0.0
 40
15.81623869666159
 41
1.55012853470437
 42
50.0
 43
0.0
 44
0.0
 50
0.0
 51
0.0
 71
     0
 72
   100
 73
     1
 74
     0
 75
     0
 76
     0
 77
     0
 78
     0
281
     0
 65
     1
110
0.0
120
0.0
130
0.0
111
1.0
121
0.0
131
0.0
112
0.0
122
1.0
132
0.0
 79
     0
146
0.0
  0
ENDTAB
  0
TABLE
  2
LTYPE
  5
18
330
0
100
AcDbSymbolTable
 70
     1
  0
LTYPE
  5
19
330
18
100
AcDbSymbolTableRecord
100
AcDbLinetypeTableRecord
  2
BYBLOCK
 70
     0
  3

 72
    65
 73
     0
 40
0.0
  0
LTYPE
  5
1A
330
18
100
AcDbSymbolTableRecord
100
AcDbLinetypeTableRecord
  2
BYLAYER
 70
     0
  3

 72
    65
 73
     0
 40
0.0
  0
LTYPE
  5
A
330
18
100
AcDbSymbolTableRecord
100
AcDbLinetypeTableRecord
  2
CONTINUOUS
 70
     0
  3
Solid line
 72
    65
 73
     0
 40
0.0
  0
ENDTAB
  0
TABLE
  2
LAYER
  5
14
330
0
100
AcDbSymbolTable
 70
     3
  0
LAYER
  5
6
330
14
100
AcDbSymbolTableRecord
100
AcDbLayerTableRecord
  2
0
 70
     0
 62
     7
  6
CONTINUOUS
370
    -3
390
7
  0
LAYER
  5
26
330
14
100
AcDbSymbolTableRecord
100
AcDbLayerTableRecord
  2
OBJECT
 70
     0
 62
     7
  6
CONTINUOUS
370
    -3
390
7
  0
LAYER
  5
2E
330
14
100
AcDbSymbolTableRecord
100
AcDbLayerTableRecord
  2
LINE
 70
     0
 62
     7
  6
CONTINUOUS
370
    -3
390
7
  0
ENDTAB
  0
TABLE
  2
STYLE
  5
15
330
0
100
AcDbSymbolTable
 70
     1
  0
STYLE
  5
16
330
15
100
AcDbSymbolTableRecord
100
AcDbTextStyleTableRecord
  2
STANDARD
 70
     0
 40
0.0
 41
1.0
 50
0.0
 71
     0
 42
0.18
  3
TXT
  4

  0
ENDTAB
  0
TABLE
  2
VIEW
  5
1B
330
0
100
AcDbSymbolTable
 70
     1
  0
ENDTAB
  0
TABLE
  2
UCS
  5
1C
330
0
100
AcDbSymbolTable
 70
     0
  0
ENDTAB
  0
TABLE
  2
APPID
  5
1F
330
0
100
AcDbSymbolTable
 70
     1
  0
APPID
  5
20
330
1F
100
AcDbSymbolTableRecord
100
AcDbRegAppTableRecord
  2
ACAD
 70
     0
  0
ENDTAB
  0
TABLE
  2
DIMSTYLE
  5
21
330
0
100
AcDbSymbolTable
 70
     1
100
AcDbDimStyleTable
  0
DIMSTYLE
105
28
330
21
100
AcDbSymbolTableRecord
100
AcDbDimStyleTableRecord
  2
STANDARD
 70
     0
  3

  4

340
16
  0
ENDTAB
  0
TABLE
  2
BLOCK_RECORD
  5
1
330
0
100
AcDbSymbolTable
 70
     2
  0
BLOCK_RECORD
  5
2
102
{ACAD_XDICTIONARY
360
3
102
}
330
1
100
AcDbSymbolTableRecord
100
AcDbBlockTableRecord
  2
*MODEL_SPACE
340
C
  0
BLOCK_RECORD
  5
E
330
1
100
AcDbSymbolTableRecord
100
AcDbBlockTableRecord
  2
*PAPER_SPACE
340
13
  0
BLOCK_RECORD
  5
2C
330
1
100
AcDbSymbolTableRecord
100
AcDbBlockTableRecord
  2
F
340
0
310
2800000020000000200000000100080000000000000400000000000000000000000000000000000000000000000080000080000000808000800000008000800080800000C0C0C000688DA200BBCCD5000000FF007F7FFF000000CC006666CC00000099004C4C990000007F003F3F7F0000004C0026264C00003FFF007F9FFF
310
000033CC00667FCC00002699004C5F9900001F7F003F4F7F0000134C00262F4C00007FFF007FBFFF000066CC006699CC00004C99004C729900003F7F003F5F7F0000264C0026394C0000BFFF007FDFFF000099CC0066B2CC00007299004C859900005F7F003F6F7F0000394C0026424C0000FFFF007FFFFF0000CCCC0066CC
310
CC00009999004C999900007F7F003F7F7F00004C4C00264C4C0000FFBF007FFFDF0000CC990066CCB200009972004C998500007F5F003F7F6F00004C3900264C420000FF7F007FFFBF0000CC660066CC990000994C004C997200007F3F003F7F5F00004C2600264C390000FF3F007FFF9F0000CC330066CC7F00009926004C
310
995F00007F1F003F7F4F00004C1300264C2F0000FF00007FFF7F0000CC000066CC6600009900004C994C00007F00003F7F3F00004C0000264C26003FFF00009FFF7F0033CC00007FCC6600269900005F994C001F7F00004F7F3F00134C00002F4C26007FFF0000BFFF7F0066CC000099CC66004C99000072994C003F7F0000
310
5F7F3F00264C0000394C2600BFFF0000DFFF7F0099CC0000B2CC66007299000085994C005F7F00006F7F3F00394C0000424C2600FFFF0000FFFF7F00CCCC0000CCCC66009999000099994C007F7F00007F7F3F004C4C00004C4C2600FFBF0000FFDF7F00CC990000CCB266009972000099854C007F5F00007F6F3F004C3900
310
004C422600FF7F0000FFBF7F00CC660000CC996600994C000099724C007F3F00007F5F3F004C2600004C392600FF3F0000FF9F7F00CC330000CC7F660099260000995F4C007F1F00007F4F3F004C1300004C2F2600FF000000FF7F7F00CC000000CC66660099000000994C4C007F0000007F3F3F004C0000004C262600FF00
310
3F00FF7F9F00CC003300CC667F0099002600994C5F007F001F007F3F4F004C0013004C262F00FF007F00FF7FBF00CC006600CC66990099004C00994C72007F003F007F3F5F004C0026004C263900FF00BF00FF7FDF00CC009900CC66B20099007200994C85007F005F007F3F6F004C0039004C264200FF00FF00FF7FFF00CC
310
00CC00CC66CC0099009900994C99007F007F007F3F7F004C004C004C264C00BF00FF00DF7FFF009900CC00B266CC0072009900854C99005F007F006F3F7F0039004C0042264C007F00FF00BF7FFF006600CC009966CC004C009900724C99003F007F005F3F7F0026004C0039264C003F00FF009F7FFF003300CC007F66CC00
310
260099005F4C9900DDE6EA00688DA200808080000000FF0000FF000000FFFF00FF000000FF00FF00FFFF0000FFFFFF0000000000000000000000000000000000000000000000000000000000000000000000000000D7D7D7D7D7D7D7D7D7D7D7D7D7D7D7D7D7D7D7D7D7D7000000000000000000D700000000000000000000
310
000000000000000000000000D70000000000000000D700000000000000000000000000000000000000000000D70000000000000000D700000000000000000000000000000000000000000000D70000000000000000D700000000000000000000000000000000000000000000D70000000000000000D7000000000000000000
310
00000000000000000000000000D70000000000000000D700000000000000000000000000000000000000000000D70000000000000000D700000000000000000000000000000000000000000000D70000000000000000D700000000000000000000000000000000000000000000D70000000000000000D70000000000000000
310
0000000000000000000000000000D70000000000000000D700000000000000000000000000000000000000000000D70000000000000000D700000000000000D7D7D7D7D7D7D7D700000000000000D70000000000000000D70000D700000000D7D700000000D7D700000000D70000D70000000000000000D700D700D7000000
310
D7D700000000D7D700000000D7D700D70000000000000000D70000D7D7000000D7D700000000D7D7000000D700D700D70000000000000000D70000D700D70000D7D700000000D7D7000000D7D70000D70000000000000000D7000000D7D70000D7D700000000D7D70000D700D70000D70000000000000000D7000000D700D7
310
00D7D700000000D7D70000D7D7000000D70000000000000000D700000000D7D700D7D700000000D7D700D700D7000000D70000000000000000D700D7D700D700D7D7D700000000D7D700D7D700D7D700D70000000000000000D70000D7D700D7D7D7D700000000D7D7D700D700D7D700D70000000000000000D70000D7D700
310
D700D7D700000000D7D700D700D7D70000D70000000000000000D7000000D7D70000D7D700000000D7D7000000D7D70000D70000000000000000D7000000D7D70000D7D700000000D7D70000D7D7000000D70000000000000000D700000000D7D700D7D700000000D7D70000D7D7000000D70000000000000000D700000000
310
D7D700D7D700000000D7D700D7D700000000D7000000000000000000D700000000D7D7D7D700000000D7D700D7D7000000D70000000000000000000000D7000000D7D7D7D700000000D7D7D7D7000000D700000000000000000000000000D700000000D7D700000000D7D700000000D7000000000000000000000000000000
310
D7D7D7D7D7D700000000D7D7D7D7D7D700000000000000000000000000000000000000000000000000000000000000000000000000000000
102
{BLKREFS
331
95
102
}
  0
ENDTAB
  0
ENDSEC
  0
SECTION
  2
BLOCKS
  0
BLOCK
  5
5
330
2
100
AcDbEntity
  8
0
100
AcDbBlockBegin
  2
*MODEL_SPACE
 70
     0
 10
0.0
 20
0.0
 30
0.0
  3
*MODEL_SPACE
  1

  4

  0
ENDBLK
  5
B
330
2
100
AcDbEntity
  8
0
100
AcDbBlockEnd
  0
BLOCK
  5
11
330
E
100
AcDbEntity
 67
     1
  8
0
100
AcDbBlockBegin
  2
*PAPER_SPACE
 70
     0
 10
0.0
 20
0.0
 30
0.0
  3
*PAPER_SPACE
  1

  4

  0
ENDBLK
  5
12
330
E
100
AcDbEntity
 67
     1
  8
0
100
AcDbBlockEnd
  0
BLOCK
  5
6F
330
2C
100
AcDbEntity
  8
0
100
AcDbBlockBegin
  2
F
 70
     0
 10
0.0
 20
0.0
 30
0.0
  3
F
  1

  4

  0
LINE
  5
2D
330
2C
100
AcDbEntity
  8
LINE
100
AcDbLine
 10
8.814903572955302
 20
13.00792821391002
 30
0.0
 11
8.814903572955302
 21
6.861428244638042
 31
0.0
  0
LINE
  5
2F
330
2C
100
AcDbEntity
  8
LINE
100
AcDbLine
 10
2.814903572955302
 20
6.861428244638042
 30
0.0
 11
2.814903572954725
 21
13.0079282139095
 31
0.0
  0
LINE
  5
30
330
2C
100
AcDbEntity
  8
OBJECT
100
AcDbLine
 10
8.541466072955304
 20
6.587990744638042
 30
0.0
 11
3.088341072955302
 21
6.587990744638042
 31
0.0
  0
LINE
  5
31
330
2C
100
AcDbEntity
  8
LINE
100
AcDbLine
 10
3.088341072955302
 20
6.587990744638042
 30
0.0
 11
2.814903572955302
 21
6.861428244638042
 31
0.0
  0
LINE
  5
32
330
2C
100
AcDbEntity
  8
LINE
100
AcDbLine
 10
8.814903572955302
 20
6.861428244638042
 30
0.0
 11
8.541466072955304
 21
6.587990744638042
 31
0.0
  0
LINE
  5
33
330
2C
100
AcDbEntity
  8
LINE
100
AcDbLine
 10
5.096819942001986
 20
9.487880207774349
 30
0.0
 11
5.682321051482823
 21
9.487880207774349
 31
0.0
  0
LINE
  5
34
330
2C
100
AcDbEntity
  8
OBJECT
100
AcDbLine
 10
5.034528572955311
 20
9.61147824463805
 30
0.0
 11
5.03452857295531
 21
13.98642824463804
 31
0.0
  0
LINE
  5
35
330
2C
100
AcDbEntity
  8
OBJECT
100
AcDbLine
 10
4.972028572955311
 20
9.61147824463805
 30
0.0
 11
4.972028572955308
 21
13.79892824464742
 31
0.0
  0
LWPOLYLINE
  5
36
330
2C
100
AcDbEntity
  8
LINE
100
AcDbPolyline
 90
        4
 70
     1
 43
0.0
 10
4.373402451986749
 20
13.56896715794487
 42
-0.9999999999999997
 10
4.600154693923855
 20
13.46368933133121
 10
3.631404693923869
 20
11.37715086979275
 42
-0.9999999999999994
 10
3.404652451986749
 20
11.4824286964064
  0
LINE
  5
37
330
2C
100
AcDbEntity
  8
OBJECT
100
AcDbLine
 10
4.822801258162755
 20
10.32578421500054
 30
0.0
 11
4.972028572955322
 21
10.21438134696777
 31
0.0
  0
LWPOLYLINE
  5
38
330
2C
100
AcDbEntity
  8
LINE
100
AcDbPolyline
 90
        4
 70
     1
 43
0.0
 10
4.373402451986749
 20
11.92657760750376
 42
-1.0
 10
4.600154693923855
 20
11.82129978089011
 10
3.631404693923855
 20
9.734761319351639
 42
-0.999999999999999
 10
3.404652451986749
 20
9.840039145965298
  0
LINE
  5
39
330
2C
100
AcDbEntity
  8
LINE
100
AcDbLine
 10
5.050153572955296
 20
9.47238020777435
 30
0.0
 11
4.925153572955296
 21
9.47238020777435
 31
0.0
  0
ARC
  5
3A
330
2C
100
AcDbEntity
  8
LINE
100
AcDbCircle
 10
5.050153572955292
 20
9.550380207774339
 30
0.0
 40
0.0779999999999887
100
AcDbArc
 50
270.0000000000027
 51
306.747295776884
  0
ARC
  5
3B
330
2C
100
AcDbEntity
  8
LINE
100
AcDbCircle
 10
4.925153572955296
 20
9.550380207774349
 30
0.0
 40
0.0779999999999994
100
AcDbArc
 50
90.0
 51
270.0
  0
LINE
  5
3C
330
2C
100
AcDbEntity
  8
LINE
100
AcDbLine
 10
4.972028572955296
 20
9.628380207774349
 30
0.0
 11
4.925153572955296
 21
9.628380207774349
 31
0.0
  0
LINE
  5
3D
330
2C
100
AcDbEntity
  8
LINE
100
AcDbLine
 10
4.972028572955296
 20
9.61147824463805
 30
0.0
 11
5.034528572955296
 21
9.61147824463805
 31
0.0
  0
LINE
  5
3E
330
2C
100
AcDbEntity
  8
OBJECT
100
AcDbLine
 10
4.822801258162755
 20
10.32578421500054
 30
0.0
 11
4.822801258162755
 21
10.39707227427554
 31
0.0
  0
LINE
  5
3F
330
2C
100
AcDbEntity
  8
OBJECT
100
AcDbLine
 10
4.972028572955322
 20
10.32578421500055
 30
0.0
 11
4.822801258162755
 21
10.32578421500054
 31
0.0
  0
LINE
  5
40
330
2C
100
AcDbEntity
  8
OBJECT
100
AcDbLine
 10
4.972028572955322
 20
10.39707227427554
 30
0.0
 11
4.822801258162755
 21
10.39707227427554
 31
0.0
  0
LINE
  5
41
330
2C
100
AcDbEntity
  8
OBJECT
100
AcDbLine
 10
4.972028572955322
 20
10.50847514222873
 30
0.0
 11
4.822801258162755
 21
10.39707227427554
 31
0.0
  0
LINE
  5
42
330
2C
100
AcDbEntity
  8
OBJECT
100
AcDbLine
 10
4.822801258162755
 20
11.82578421500054
 30
0.0
 11
4.972028572955322
 21
11.71438134696777
 31
0.0
  0
LINE
  5
43
330
2C
100
AcDbEntity
  8
OBJECT
100
AcDbLine
 10
4.972028572955322
 20
12.00847514222873
 30
0.0
 11
4.822801258162755
 21
11.89707227427554
 31
0.0
  0
LINE
  5
44
330
2C
100
AcDbEntity
  8
OBJECT
100
AcDbLine
 10
4.972028572955322
 20
11.89707227427554
 30
0.0
 11
4.822801258162755
 21
11.89707227427554
 31
0.0
  0
LINE
  5
45
330
2C
100
AcDbEntity
  8
OBJECT
100
AcDbLine
 10
4.972028572955322
 20
11.82578421500055
 30
0.0
 11
4.822801258162755
 21
11.82578421500054
 31
0.0
  0
LINE
  5
46
330
2C
100
AcDbEntity
  8
OBJECT
100
AcDbLine
 10
4.822801258162755
 20
11.82578421500054
 30
0.0
 11
4.822801258162755
 21
11.89707227427554
 31
0.0
  0
LINE
  5
47
330
2C
100
AcDbEntity
  8
LINE
100
AcDbLine
 10
3.790156272481165
 20
13.9864282446377
 30
0.0
 11
2.814903572954725
 21
13.0079282139095
 31
0.0
  0
LINE
  5
48
330
2C
100
AcDbEntity
  8
OBJECT
100
AcDbLine
 10
5.034528572955308
 20
13.79892824464743
 30
0.0
 11
4.926275397487673
 21
13.98642824463804
 31
0.0
  0
LINE
  5
49
330
2C
100
AcDbEntity
  8
OBJECT
100
AcDbLine
 10
4.972028572955308
 20
13.79892824464742
 30
0.0
 11
4.863775397487673
 21
13.98642824463804
 31
0.0
  0
LINE
  5
4A
330
2C
100
AcDbEntity
  8
OBJECT
100
AcDbLine
 10
4.822801258162755
 20
13.32578421500054
 30
0.0
 11
4.972028572955322
 21
13.21438134696777
 31
0.0
  0
LINE
  5
4B
330
2C
100
AcDbEntity
  8
OBJECT
100
AcDbLine
 10
4.822801258162755
 20
13.32578421500054
 30
0.0
 11
4.822801258162755
 21
13.39707227427554
 31
0.0
  0
LINE
  5
4C
330
2C
100
AcDbEntity
  8
OBJECT
100
AcDbLine
 10
4.972028572955322
 20
13.39707227427554
 30
0.0
 11
4.822801258162755
 21
13.39707227427554
 31
0.0
  0
LINE
  5
4D
330
2C
100
AcDbEntity
  8
OBJECT
100
AcDbLine
 10
4.972028572955322
 20
13.32578421500055
 30
0.0
 11
4.822801258162755
 21
13.32578421500054
 31
0.0
  0
LINE
  5
4E
330
2C
100
AcDbEntity
  8
OBJECT
100
AcDbLine
 10
4.972028572955322
 20
13.50847514222873
 30
0.0
 11
4.822801258162755
 21
13.39707227427554
 31
0.0
  0
LINE
  5
4F
330
2C
100
AcDbEntity
  8
LINE
100
AcDbLine
 10
3.790156272481165
 20
13.9864282446377
 30
0.0
 11
5.03452857295531
 21
13.98642824463804
 31
0.0
  0
LWPOLYLINE
  5
50
330
2C
100
AcDbEntity
  8
LINE
100
AcDbPolyline
 90
        4
 70
     1
 43
0.0
 10
7.256404693923884
 20
13.56896715794487
 42
0.9999999999999997
 10
7.029652451986777
 20
13.46368933133121
 10
7.998402451986763
 20
11.37715086979275
 42
0.9999999999999994
 10
8.225154693923884
 20
11.4824286964064
  0
LINE
  5
51
330
2C
100
AcDbEntity
  8
OBJECT
100
AcDbLine
 10
6.595278572955309
 20
9.61147824463805
 30
0.0
 11
6.595278572955309
 21
13.98642824463804
 31
0.0
  0
LINE
  5
52
330
2C
100
AcDbEntity
  8
OBJECT
100
AcDbLine
 10
6.657778572955309
 20
9.61147824463805
 30
0.0
 11
6.65777857295531
 21
13.79892824464742
 31
0.0
  0
LWPOLYLINE
  5
53
330
2C
100
AcDbEntity
  8
LINE
100
AcDbPolyline
 90
        4
 70
     1
 43
0.0
 10
7.256404693923884
 20
11.92657760750376
 42
1.0
 10
7.029652451986777
 20
11.82129978089011
 10
7.998402451986777
 20
9.734761319351639
 42
0.999999999999999
 10
8.225154693923884
 20
9.840039145965298
  0
LINE
  5
54
330
2C
100
AcDbEntity
  8
OBJECT
100
AcDbLine
 10
6.807005887747877
 20
10.32578421500054
 30
0.0
 11
6.65777857295531
 21
10.21438134696777
 31
0.0
  0
LINE
  5
55
330
2C
100
AcDbEntity
  8
LINE
100
AcDbLine
 10
5.94748609442778
 20
9.487880207774349
 30
0.0
 11
6.532987203908647
 21
9.487880207774349
 31
0.0
  0
LINE
  5
56
330
2C
100
AcDbEntity
  8
OBJECT
100
AcDbLine
 10
5.814903572955302
 20
9.355297686301872
 30
0.0
 11
5.94748609442778
 21
9.487880207774349
 31
0.0
  0
LINE
  5
57
330
2C
100
AcDbEntity
  8
OBJECT
100
AcDbLine
 10
5.682321051482824
 20
9.487880207774349
 30
0.0
 11
5.814903572955302
 21
9.355297686301872
 31
0.0
  0
LINE
  5
58
330
2C
100
AcDbEntity
  8
LINE
100
AcDbLine
 10
6.657778572955309
 20
9.628380207774349
 30
0.0
 11
6.704653572955309
 21
9.628380207774349
 31
0.0
  0
LINE
  5
59
330
2C
100
AcDbEntity
  8
LINE
100
AcDbLine
 10
6.657778572955309
 20
9.61147824463805
 30
0.0
 11
6.595278572955309
 21
9.61147824463805
 31
0.0
  0
ARC
  5
5A
330
2C
100
AcDbEntity
  8
LINE
100
AcDbCircle
 10
6.704653572955309
 20
9.550380207774349
 30
0.0
 40
0.0779999999999994
100
AcDbArc
 50
270.0
 51
90.0
  0
LINE
  5
5B
330
2C
100
AcDbEntity
  8
LINE
100
AcDbLine
 10
6.579653572955309
 20
9.47238020777435
 30
0.0
 11
6.704653572955309
 21
9.47238020777435
 31
0.0
  0
ARC
  5
5C
330
2C
100
AcDbEntity
  8
LINE
100
AcDbCircle
 10
6.579653572955312
 20
9.550380207774339
 30
0.0
 40
0.0779999999999887
100
AcDbArc
 50
233.2527042231161
 51
269.9999999999973
  0
LINE
  5
5D
330
2C
100
AcDbEntity
  8
OBJECT
100
AcDbLine
 10
6.65777857295531
 20
10.50847514222873
 30
0.0
 11
6.807005887747877
 21
10.39707227427554
 31
0.0
  0
LINE
  5
5E
330
2C
100
AcDbEntity
  8
OBJECT
100
AcDbLine
 10
6.65777857295531
 20
10.39707227427554
 30
0.0
 11
6.807005887747877
 21
10.39707227427554
 31
0.0
  0
LINE
  5
5F
330
2C
100
AcDbEntity
  8
OBJECT
100
AcDbLine
 10
6.65777857295531
 20
10.32578421500055
 30
0.0
 11
6.807005887747877
 21
10.32578421500054
 31
0.0
  0
LINE
  5
60
330
2C
100
AcDbEntity
  8
OBJECT
100
AcDbLine
 10
6.807005887747877
 20
10.32578421500054
 30
0.0
 11
6.807005887747877
 21
10.39707227427554
 31
0.0
  0
LINE
  5
61
330
2C
100
AcDbEntity
  8
OBJECT
100
AcDbLine
 10
6.807005887747877
 20
11.82578421500054
 30
0.0
 11
6.65777857295531
 21
11.71438134696777
 31
0.0
  0
LINE
  5
62
330
2C
100
AcDbEntity
  8
OBJECT
100
AcDbLine
 10
6.65777857295531
 20
11.89707227427554
 30
0.0
 11
6.807005887747877
 21
11.89707227427554
 31
0.0
  0
LINE
  5
63
330
2C
100
AcDbEntity
  8
OBJECT
100
AcDbLine
 10
6.65777857295531
 20
11.82578421500055
 30
0.0
 11
6.807005887747877
 21
11.82578421500054
 31
0.0
  0
LINE
  5
64
330
2C
100
AcDbEntity
  8
OBJECT
100
AcDbLine
 10
6.65777857295531
 20
12.00847514222873
 30
0.0
 11
6.807005887747877
 21
11.89707227427554
 31
0.0
  0
LINE
  5
65
330
2C
100
AcDbEntity
  8
OBJECT
100
AcDbLine
 10
6.807005887747877
 20
11.82578421500054
 30
0.0
 11
6.807005887747877
 21
11.89707227427554
 31
0.0
  0
LINE
  5
66
330
2C
100
AcDbEntity
  8
LINE
100
AcDbLine
 10
6.595278572955309
 20
13.98642824463804
 30
0.0
 11
7.839650873428694
 21
13.98642824463805
 31
0.0
  0
LINE
  5
67
330
2C
100
AcDbEntity
  8
OBJECT
100
AcDbLine
 10
6.65777857295531
 20
13.79892824464742
 30
0.0
 11
6.766031748422946
 21
13.98642824463804
 31
0.0
  0
LINE
  5
68
330
2C
100
AcDbEntity
  8
OBJECT
100
AcDbLine
 10
6.59527857295531
 20
13.79892824464743
 30
0.0
 11
6.703531748422946
 21
13.98642824463804
 31
0.0
  0
LINE
  5
69
330
2C
100
AcDbEntity
  8
OBJECT
100
AcDbLine
 10
6.807005887747877
 20
13.32578421500054
 30
0.0
 11
6.65777857295531
 21
13.21438134696777
 31
0.0
  0
LINE
  5
6A
330
2C
100
AcDbEntity
  8
OBJECT
100
AcDbLine
 10
6.65777857295531
 20
13.50847514222873
 30
0.0
 11
6.807005887747877
 21
13.39707227427554
 31
0.0
  0
LINE
  5
6B
330
2C
100
AcDbEntity
  8
OBJECT
100
AcDbLine
 10
6.65777857295531
 20
13.32578421500055
 30
0.0
 11
6.807005887747877
 21
13.32578421500054
 31
0.0
  0
LINE
  5
6C
330
2C
100
AcDbEntity
  8
OBJECT
100
AcDbLine
 10
6.65777857295531
 20
13.39707227427554
 30
0.0
 11
6.807005887747877
 21
13.39707227427554
 31
0.0
  0
LINE
  5
6D
330
2C
100
AcDbEntity
  8
OBJECT
100
AcDbLine
 10
6.807005887747877
 20
13.32578421500054
 30
0.0
 11
6.807005887747877
 21
13.39707227427554
 31
0.0
  0
LINE
  5
6E
330
2C
100
AcDbEntity
  8
LINE
100
AcDbLine
 10
7.839650873428694
 20
13.98642824463805
 30
0.0
 11
8.814903572955302
 21
13.00792821391002
 31
0.0
  0
ENDBLK
  5
70
330
2C
100
AcDbEntity
  8
0
100
AcDbBlockEnd
  0
ENDSEC
  0
SECTION
  2
ENTITIES
  0
INSERT
  5
95
330
2
100
AcDbEntity
  8
0
100
AcDbBlockReference
  2
F
 10
-5.775403572955298
 20
-6.61142824463804
 30
0.0
  0
CIRCLE
  5
96
330
2
100
AcDbEntity
  8
0
100
AcDbCircle
 10
-2.585499999999996
 20
0.9375000000000018
 30
0.0
 40
0.0855
  0
CIRCLE
  5
97
330
2
100
AcDbEntity
  8
0
100
AcDbCircle
 10
-1.535499999999985
 20
0.5625000000000018
 30
0.0
 40
0.0855
  0
ARC
  5
98
330
2
100
AcDbEntity
  8
0
100
AcDbCircle
 10
-1.295999999999992
 20
0.0
 30
0.0
 40
0.0854999999999997
100
AcDbArc
 50
344.0902539823935
 51
90.00000000000003
  0
LINE
  5
99
330
2
100
AcDbEntity
  8
0
100
AcDbLine
 10
-1.457224896435021
 20
0.0234374999999982
 30
0.0
 11
-1.213775103564971
 21
0.0234374999999982
 31
0.0
  0
ARC
  5
9A
330
2
100
AcDbEntity
  8
0
100
AcDbCircle
 10
-1.375
 20
0.0
 30
0.0
 40
0.0854999999999997
100
AcDbArc
 50
90.00000000000003
 51
195.9097460176065
  0
LINE
  5
9B
330
2
100
AcDbEntity
  8
0
100
AcDbLine
 10
-1.375
 20
0.0854999999999997
 30
0.0
 11
-1.295999999999992
 21
0.0854999999999997
 31
0.0
  0
CIRCLE
  5
9C
330
2
100
AcDbEntity
  8
0
100
AcDbCircle
 10
-0.4854999999999876
 20
0.9375000000000018
 30
0.0
 40
0.0855
  0
CIRCLE
  5
9D
330
2
100
AcDbEntity
  8
0
100
AcDbCircle
 10
0.5645000000000096
 20
0.5625000000000018
 30
0.0
 40
0.0855
  0
ARC
  5
9E
330
2
100
AcDbEntity
  8
0
100
AcDbCircle
 10
0.0790000000000077
 20
0.0
 30
0.0
 40
0.0854999999999997
100
AcDbArc
 50
344.0902539823935
 51
90.00000000000003
  0
ARC
  5
9F
330
2
100
AcDbEntity
  8
0
100
AcDbCircle
 10
0.0
 20
0.0
 30
0.0
 40
0.0854999999999997
100
AcDbArc
 50
90.00000000000003
 51
195.9097460176065
  0
LINE
  5
A0
330
2
100
AcDbEntity
  8
0
100
AcDbLine
 10
-0.0822248964350214
 20
0.0234374999999982
 30
0.0
 11
0.1612248964350291
 21
0.0234374999999982
 31
0.0
  0
LINE
  5
A1
330
2
100
AcDbEntity
  8
0
100
AcDbLine
 10
0.0
 20
0.0854999999999997
 30
0.0
 11
0.0790000000000077
 21
0.0854999999999997
 31
0.0
  0
ARC
  5
A2
330
2
100
AcDbEntity
  8
0
100
AcDbCircle
 10
1.375
 20
0.0
 30
0.0
 40
0.0854999999999997
100
AcDbArc
 50
90.00000000000003
 51
195.9097460176065
  0
LINE
  5
A3
330
2
100
AcDbEntity
  8
0
100
AcDbLine
 10
1.292775103564979
 20
0.0234374999999982
 30
0.0
 11
1.536224896435029
 21
0.0234374999999982
 31
0.0
  0
ARC
  5
A4
330
2
100
AcDbEntity
  8
0
100
AcDbCircle
 10
1.454000000000008
 20
0.0
 30
0.0
 40
0.0854999999999997
100
AcDbArc
 50
344.0902539823935
 51
90.00000000000003
  0
LINE
  5
A5
330
2
100
AcDbEntity
  8
0
100
AcDbLine
 10
1.375
 20
0.0854999999999997
 30
0.0
 11
1.454000000000008
 21
0.0854999999999997
 31
0.0
  0
CIRCLE
  5
A6
330
2
100
AcDbEntity
  8
0
100
AcDbCircle
 10
1.614500000000007
 20
0.9375000000000018
 30
0.0
 40
0.0855
  0
CIRCLE
  5
A7
330
2
100
AcDbEntity
  8
0
100
AcDbCircle
 10
2.664500000000004
 20
0.5625000000000018
 30
0.0
 40
0.0855
  0
CIRCLE
  5
A8
330
2
100
AcDbEntity
  8
0
100
AcDbCircle
 10
-2.585499999999996
 20
2.468750000000002
 30
0.0
 40
0.0855
  0
CIRCLE
  5
A9
330
2
100
AcDbEntity
  8
0
100
AcDbCircle
 10
-0.4854999999999876
 20
2.468750000000002
 30
0.0
 40
0.0855
  0
CIRCLE
  5
AA
330
2
100
AcDbEntity
  8
0
100
AcDbCircle
 10
-1.535499999999985
 20
2.093750000000002
 30
0.0
 40
0.0855
  0
CIRCLE
  5
AB
330
2
100
AcDbEntity
  8
0
100
AcDbCircle
 10
1.614500000000007
 20
2.468750000000002
 30
0.0
 40
0.0855
  0
CIRCLE
  5
AC
330
2
100
AcDbEntity
  8
0
100
AcDbCircle
 10
0.5645000000000096
 20
2.093750000000002
 30
0.0
 40
0.0855
  0
CIRCLE
  5
AD
330
2
100
AcDbEntity
  8
0
100
AcDbCircle
 10
2.664500000000004
 20
2.093750000000002
 30
0.0
 40
0.0855
  0
ENDSEC
  0
SECTION
  2
OBJECTS
  0
DICTIONARY
  5
9
330
0
100
AcDbDictionary
281
     1
  3
ACAD_COLOR
350
90
  3
ACAD_GROUP
350
23
  3
ACAD_LAYOUT
350
D
  3
ACAD_MATERIAL
350
8F
  3
ACAD_MLINESTYLE
350
24
  3
ACAD_PLOTSETTINGS
350
25
  3
ACAD_PLOTSTYLENAME
350
8
  3
ACAD_TABLESTYLE
350
91
  3
ACDBHEADERROUNDTRIPXREC
350
B9
  3
AcDbVariableDictionary
350
8B
  0
DICTIONARY
  5
3
330
2
100
AcDbDictionary
280
     1
281
     1
  3
ACAD_SORTENTS
360
AE
  0
DICTIONARY
  5
90
102
{ACAD_REACTORS
330
9
102
}
330
9
100
AcDbDictionary
281
     1
  0
DICTIONARY
  5
23
102
{ACAD_REACTORS
330
9
102
}
330
9
100
AcDbDictionary
281
     1
  0
DICTIONARY
  5
D
102
{ACAD_REACTORS
330
9
102
}
330
9
100
AcDbDictionary
281
     1
  3
Layout1
350
13
  3
Model
350
C
  0
DICTIONARY
  5
8F
102
{ACAD_REACTORS
330
9
102
}
330
9
100
AcDbDictionary
281
     1
  0
DICTIONARY
  5
24
102
{ACAD_REACTORS
330
9
102
}
330
9
100
AcDbDictionary
281
     1
  3
STANDARD
350
27
  0
DICTIONARY
  5
25
102
{ACAD_REACTORS
330
9
102
}
330
9
100
AcDbDictionary
281
     1
  0
ACDBDICTIONARYWDFLT
  5
8
102
{ACAD_REACTORS
330
9
102
}
330
9
100
AcDbDictionary
281
     1
  3
Normal
350
7
100
AcDbDictionaryWithDefault
340
7
  0
DICTIONARY
  5
91
102
{ACAD_REACTORS
330
9
102
}
330
9
100
AcDbDictionary
281
     1
  3
Standard
350
92
  0
DICTIONARY
  5
B9
102
{ACAD_REACTORS
330
9
102
}
330
9
100
AcDbDictionary
281
     1
  3
COLORDICT
350
BA
  3
MATERIALDICT
350
BB
  0
DICTIONARY
  5
8B
102
{ACAD_REACTORS
330
9
102
}
330
9
100
AcDbDictionary
281
     1
  3
CTABLESTYLE
350
B6
  3
HIDETEXT
350
B8
  0
SORTENTSTABLE
  5
AE
102
{ACAD_REACTORS
330
3
102
}
330
3
100
AcDbSortentsTable
330
2
331
AA
  5
AA
331
A2
  5
A2
331
A6
  5
A6
331
9C
  5
9C
331
9E
  5
9E
331
A7
  5
A7
331
AD
  5
AD
331
9D
  5
9D
331
A4
  5
A4
331
A1
  5
A1
331
96
  5
96
331
A3
  5
A3
331
A5
  5
A5
331
A0
  5
A0
331
95
  5
95
331
99
  5
99
331
9B
  5
9B
331
A8
  5
A8
331
9A
  5
9A
331
AB
  5
AB
331
9F
  5
9F
331
A9
  5
A9
331
97
  5
97
331
98
  5
98
331
AC
  5
AC
  0
LAYOUT
  5
13
102
{ACAD_REACTORS
330
D
102
}
102
{ACAD_XDICTIONARY
360
BC
102
}
330
D
100
AcDbPlotSettings
  1

  2
HP LaserJet 4
  4

  6

 40
0.0
 41
0.0
 42
0.0
 43
0.0
 44
0.0
 45
0.0
 46
0.0
 47
0.0
 48
0.0
 49
0.0
140
0.0
141
0.0
142
1.0
143
1.0
 70
   688
 72
     0
 73
     0
 74
     5
  7

 75
    16
147
1.0
148
0.0
149
0.0
100
AcDbLayout
  1
Layout1
 70
     0
 71
     1
 10
0.0
 20
0.0
 11
12.0
 21
9.0
 12
0.0
 22
0.0
 32
0.0
 14
1.000000000000000E+20
 24
1.000000000000000E+20
 34
1.000000000000000E+20
 15
-1.000000000000000E+20
 25
-1.000000000000000E+20
 35
-1.000000000000000E+20
146
0.0
 13
0.0
 23
0.0
 33
0.0
 16
1.0
 26
0.0
 36
0.0
 17
0.0
 27
1.0
 37
0.0
 76
     0
330
E
  0
LAYOUT
  5
C
102
{ACAD_REACTORS
330
D
102
}
102
{ACAD_XDICTIONARY
360
BE
102
}
330
D
100
AcDbPlotSettings
  1

  2
HP LaserJet 4
  4
Letter
  6

 40
7.143749713897705
 41
6.127734661102295
 42
7.14373779296875
 43
7.14373779296875
 44
215.8999938964844
 45
279.3999938964844
 46
0.0
 47
0.0
 48
0.0
 49
0.0
140
0.0
141
0.0
142
1.0
143
1.0
 70
 11952
 72
     0
 73
     1
 74
     0
  7

 75
     0
147
1.0
148
-167.083527895903
149
6.421373101192719
100
AcDbLayout
  1
Model
 70
     1
 71
     0
 10
0.0
 20
0.0
 11
12.0
 21
9.0
 12
0.0
 22
0.0
 32
0.0
 14
0.0
 24
0.0
 34
0.0
 15
0.0
 25
0.0
 35
0.0
146
0.0
 13
0.0
 23
0.0
 33
0.0
 16
1.0
 26
0.0
 36
0.0
 17
0.0
 27
1.0
 37
0.0
 76
     0
330
2
  0
MLINESTYLE
  5
27
102
{ACAD_REACTORS
330
24
102
}
330
24
100
AcDbMlineStyle
  2
STANDARD
 70
     0
  3

 62
   256
 51
90.0
 52
90.0
 71
     2
 49
0.5
 62
   256
  6
BYLAYER
 49
-0.5
 62
   256
  6
BYLAYER
  0
ACDBPLACEHOLDER
  5
7
102
{ACAD_REACTORS
330
8
102
}
330
8
  0
ACAD_PROXY_OBJECT
  5
92
102
{ACAD_REACTORS
330
91
102
}
330
91
100
AcDbProxyObject
 90
      499
 91
      577
 95
   983063
 70
     0
 93
     1841
310
4214DD185B99185C9928B81E85EB51B8AE3F2E07A17AD46E2B8FC02B5E8DC0F42B1CFD028000000C1008070000C3001FDFF8000000C1003FBFF000000182007F7FE00000030400FEFFC00000060801FDFF8000000C1003FBFF00000018200000000000000681FA0B0000001820100E000186003FBFF000000182007F7FE000
310
00030400FEFFC00000060801FDFF8000000C1003FBFF000000182007F7FE000000304000AD7A3703D0AC73F4160000003040201C00030C007F7FE00000030400FEFFC00000060801FDFF8000000C1003FBFF000000182007F7FE00000030400FEFFC000000608000
340
16
340
16
340
16
 94
        0
  0
XRECORD
  5
BA
102
{ACAD_REACTORS
330
B9
102
}
330
B9
100
AcDbXrecord
340
90
  0
XRECORD
  5
BB
102
{ACAD_REACTORS
330
B9
102
}
330
B9
100
AcDbXrecord
340
8F
  0
DICTIONARYVAR
  5
B6
102
{ACAD_REACTORS
330
8B
102
}
330
8B
100
DictionaryVariables
280
     0
  1
STANDARD
  0
DICTIONARYVAR
  5
B8
102
{ACAD_REACTORS
330
8B
102
}
330
8B
100
DictionaryVariables
280
     0
  1
0
  0
DICTIONARY
  5
BC
330
13
100
AcDbDictionary
280
     1
281
     1
  3
ACAD_XREC_ROUNDTRIP
360
BD
  0
DICTIONARY
  5
BE
330
C
100
AcDbDictionary
280
     1
281
     1
  3
ACAD_XREC_ROUNDTRIP
360
BF
  0
XRECORD
  5
BD
102
{ACAD_REACTORS
330
BC
102
}
330
BC
100
AcDbXrecord
102
SHADEPLOT
 70
     0
102
SHADEPLOTRESLEVEL
 70
     2
102
SHADEPLOTCUSTOMDPI
 70
   300
  0
XRECORD
  5
BF
102
{ACAD_REACTORS
330
BE
102
}
330
BE
100
AcDbXrecord
102
SHADEPLOT
 70
     0
102
SHADEPLOTRESLEVEL
 70
     2
102
SHADEPLOTCUSTOMDPI
 70
   300
  0
ENDSEC
  0
EOF
