  0
SECTION
  2
HEADER
  9
$ACADVER
  1
AC1015
  9
$ACADMAINTVER
 70
     6
  9
$DWGCODEPAGE
  3
ANSI_1252
  9
$INSBASE
 10
0.0
 20
0.0
 30
0.0
  9
$EXTMIN
 10
-12.06189177559604
 20
-0.0102906989597606
 30
-0.0000000349181948
  9
$EXTMAX
 10
13.3379127067228
 20
12.50077339884706
 30
0.0000000814935746
  9
$LIMMIN
 10
-0.0625
 20
-0.0625
  9
$LIMMAX
 10
21.12826639170268
 20
15.63285024802469
  9
$ORTHOMODE
 70
     1
  9
$REGENMODE
 70
     1
  9
$FILLMODE
 70
     1
  9
$QTEXTMODE
 70
     0
  9
$MIRRTEXT
 70
     1
  9
$LTSCALE
 40
0.5
  9
$ATTMODE
 70
     1
  9
$TEXTSIZE
 40
0.18
  9
$TRACEWID
 40
0.05
  9
$TEXTSTYLE
  7
STANDARD
  9
$CLAYER
  8
0
  9
$CELTYPE
  6
BYLAYER
  9
$CECOLOR
 62
   256
  9
$CELTSCALE
 40
1.0
  9
$DISPSILH
 70
     0
  9
$DIMSCALE
 40
2.0
  9
$DIMASZ
 40
0.125
  9
$DIMEXO
 40
0.062
  9
$DIMDLI
 40
0.375
  9
$DIMRND
 40
0.0
  9
$DIMDLE
 40
0.0
  9
$DIMEXE
 40
0.08
  9
$DIMTP
 40
0.0
  9
$DIMTM
 40
0.0
  9
$DIMTXT
 40
0.09
  9
$DIMCEN
 40
-0.06
  9
$DIMTSZ
 40
0.0
  9
$DIMTOL
 70
     0
  9
$DIMLIM
 70
     0
  9
$DIMTIH
 70
     1
  9
$DIMTOH
 70
     1
  9
$DIMSE1
 70
     0
  9
$DIMSE2
 70
     0
  9
$DIMTAD
 70
     0
  9
$DIMZIN
 70
     0
  9
$DIMBLK
  1

  9
$DIMASO
 70
     0
  9
$DIMSHO
 70
     0
  9
$DIMPOST
  1

  9
$DIMAPOST
  1

  9
$DIMALT
 70
     0
  9
$DIMALTD
 70
     2
  9
$DIMALTF
 40
25.4
  9
$DIMLFAC
 40
1.0
  9
$DIMTOFL
 70
     0
  9
$DIMTVP
 40
0.0
  9
$DIMTIX
 70
     0
  9
$DIMSOXD
 70
     0
  9
$DIMSAH
 70
     0
  9
$DIMBLK1
  1

  9
$DIMBLK2
  1

  9
$DIMSTYLE
  2
STANDARD
  9
$DIMCLRD
 70
     0
  9
$DIMCLRE
 70
     0
  9
$DIMCLRT
 70
     0
  9
$DIMTFAC
 40
1.0
  9
$DIMGAP
 40
0.09
  9
$DIMJUST
 70
     0
  9
$DIMSD1
 70
     0
  9
$DIMSD2
 70
     0
  9
$DIMTOLJ
 70
     1
  9
$DIMTZIN
 70
     0
  9
$DIMALTZ
 70
     0
  9
$DIMALTTZ
 70
     0
  9
$DIMUPT
 70
     0
  9
$DIMDEC
 70
     5
  9
$DIMTDEC
 70
     5
  9
$DIMALTU
 70
     5
  9
$DIMALTTD
 70
     2
  9
$DIMTXSTY
  7
STANDARD
  9
$DIMAUNIT
 70
     0
  9
$DIMADEC
 70
     0
  9
$DIMALTRND
 40
0.0
  9
$DIMAZIN
 70
     0
  9
$DIMDSEP
 70
    46
  9
$DIMATFIT
 70
     3
  9
$DIMFRAC
 70
     2
  9
$DIMLDRBLK
  1

  9
$DIMLUNIT
 70
     5
  9
$DIMLWD
 70
    -2
  9
$DIMLWE
 70
    -2
  9
$DIMTMOVE
 70
     2
  9
$LUNITS
 70
     5
  9
$LUPREC
 70
     5
  9
$SKETCHINC
 40
0.1
  9
$FILLETRAD
 40
0.0
  9
$AUNITS
 70
     0
  9
$AUPREC
 70
     0
  9
$MENU
  1
simpson
  9
$ELEVATION
 40
0.0
  9
$PELEVATION
 40
0.0
  9
$THICKNESS
 40
0.0
  9
$LIMCHECK
 70
     0
  9
$CHAMFERA
 40
0.0
  9
$CHAMFERB
 40
0.0
  9
$CHAMFERC
 40
0.0
  9
$CHAMFERD
 40
0.0
  9
$SKPOLY
 70
     0
  9
$TDCREATE
 40
2449230.732414236
  9
$TDUCREATE
 40
2449231.065747569
  9
$TDUPDATE
 40
2453850.922963391
  9
$TDUUPDATE
 40
2453851.256296725
  9
$TDINDWG
 40
0.3735654745
  9
$TDUSRTIMER
 40
0.3735654745
  9
$USRTIMER
 70
     1
  9
$ANGBASE
 50
0.0
  9
$ANGDIR
 70
     0
  9
$PDMODE
 70
     0
  9
$PDSIZE
 40
0.0
  9
$PLINEWID
 40
0.0
  9
$SPLFRAME
 70
     0
  9
$SPLINETYPE
 70
     6
  9
$SPLINESEGS
 70
     8
  9
$HANDSEED
  5
2A3
  9
$SURFTAB1
 70
     6
  9
$SURFTAB2
 70
     6
  9
$SURFTYPE
 70
     6
  9
$SURFU
 70
     6
  9
$SURFV
 70
     6
  9
$UCSBASE
  2

  9
$UCSNAME
  2

  9
$UCSORG
 10
0.0
 20
0.0
 30
0.0
  9
$UCSXDIR
 10
1.0
 20
0.0
 30
0.0
  9
$UCSYDIR
 10
0.0
 20
1.0
 30
0.0
  9
$UCSORTHOREF
  2

  9
$UCSORTHOVIEW
 70
     0
  9
$UCSORGTOP
 10
0.0
 20
0.0
 30
0.0
  9
$UCSORGBOTTOM
 10
0.0
 20
0.0
 30
0.0
  9
$UCSORGLEFT
 10
0.0
 20
0.0
 30
0.0
  9
$UCSORGRIGHT
 10
0.0
 20
0.0
 30
0.0
  9
$UCSORGFRONT
 10
0.0
 20
0.0
 30
0.0
  9
$UCSORGBACK
 10
0.0
 20
0.0
 30
0.0
  9
$PUCSBASE
  2

  9
$PUCSNAME
  2

  9
$PUCSORG
 10
0.0
 20
0.0
 30
0.0
  9
$PUCSXDIR
 10
1.0
 20
0.0
 30
0.0
  9
$PUCSYDIR
 10
0.0
 20
1.0
 30
0.0
  9
$PUCSORTHOREF
  2

  9
$PUCSORTHOVIEW
 70
     0
  9
$PUCSORGTOP
 10
0.0
 20
0.0
 30
0.0
  9
$PUCSORGBOTTOM
 10
0.0
 20
0.0
 30
0.0
  9
$PUCSORGLEFT
 10
0.0
 20
0.0
 30
0.0
  9
$PUCSORGRIGHT
 10
0.0
 20
0.0
 30
0.0
  9
$PUCSORGFRONT
 10
0.0
 20
0.0
 30
0.0
  9
$PUCSORGBACK
 10
0.0
 20
0.0
 30
0.0
  9
$USERI1
 70
     0
  9
$USERI2
 70
     0
  9
$USERI3
 70
     0
  9
$USERI4
 70
     0
  9
$USERI5
 70
     0
  9
$USERR1
 40
0.0
  9
$USERR2
 40
0.0
  9
$USERR3
 40
0.0
  9
$USERR4
 40
0.0
  9
$USERR5
 40
0.0
  9
$WORLDVIEW
 70
     1
  9
$SHADEDGE
 70
     3
  9
$SHADEDIF
 70
    70
  9
$TILEMODE
 70
     1
  9
$MAXACTVP
 70
    16
  9
$PINSBASE
 10
0.0
 20
0.0
 30
0.0
  9
$PLIMCHECK
 70
     0
  9
$PEXTMIN
 10
1.000000000000000E+20
 20
1.000000000000000E+20
 30
1.000000000000000E+20
  9
$PEXTMAX
 10
-1.000000000000000E+20
 20
-1.000000000000000E+20
 30
-1.000000000000000E+20
  9
$PLIMMIN
 10
0.0
 20
0.0
  9
$PLIMMAX
 10
12.0
 20
9.0
  9
$UNITMODE
 70
     0
  9
$VISRETAIN
 70
     0
  9
$PLINEGEN
 70
     0
  9
$PSLTSCALE
 70
     0
  9
$TREEDEPTH
 70
  3020
  9
$CMLSTYLE
  2
STANDARD
  9
$CMLJUST
 70
     0
  9
$CMLSCALE
 40
1.0
  9
$PROXYGRAPHICS
 70
     1
  9
$MEASUREMENT
 70
     0
  9
$CELWEIGHT
370
    -1
  9
$ENDCAPS
280
     0
  9
$JOINSTYLE
280
     0
  9
$LWDISPLAY
290
     0
  9
$INSUNITS
 70
     0
  9
$HYPERLINKBASE
  1

  9
$STYLESHEET
  1

  9
$XEDIT
290
     1
  9
$CEPSNTYPE
380
     0
  9
$PSTYLEMODE
290
     1
  9
$FINGERPRINTGUID
  2
{4D67D000-BAD0-11D4-8FCF-00D0B726A456}
  9
$VERSIONGUID
  2
{0E6EB4BE-34FE-4E08-81B6-DD53FD8C2BC5}
  9
$EXTNAMES
290
     1
  9
$PSVPSCALE
 40
0.0
  9
$OLESTARTUP
290
     0
  0
ENDSEC
  0
SECTION
  2
CLASSES
  0
CLASS
  1
DICTIONARYVAR
  2
AcDbDictionaryVar
  3
AutoCAD 2000
 90
        0
280
     0
281
     0
  0
CLASS
  1
LWPOLYLINE
  2
AcDbPolyline
  3
AutoCAD 2000
 90
        0
280
     0
281
     1
  0
CLASS
  1
ACDBDICTIONARYWDFLT
  2
AcDbDictionaryWithDefault
  3
AutoCAD 2000
 90
        0
280
     0
281
     0
  0
CLASS
  1
ACDBPLACEHOLDER
  2
AcDbPlaceHolder
  3
ObjectDBX Classes
 90
        0
280
     0
281
     0
  0
CLASS
  1
LAYOUT
  2
AcDbLayout
  3
ObjectDBX Classes
 90
        0
280
     0
281
     0
  0
CLASS
  1
LONG_TRANSACTION
  2
AcDbLongTransaction
  3
AutoCAD 2000
 90
        0
280
     1
281
     0
  0
CLASS
  1
LWPOLYLINE
  2
AcDbPolyline
  3
AutoCAD 2000
 90
        0
280
     0
281
     1
  0
CLASS
  1
HATCH
  2
AcDbHatch
  3
AutoCAD 2000
 90
        0
280
     0
281
     1
  0
CLASS
  1
XRECORD
  2
AcDbXrecord
  3
AutoCAD 2000
 90
        0
280
     0
281
     0
  0
CLASS
  1
LONG_TRANSACTION
  2
AcDbLongTransaction
  3
AutoCAD 2000
 90
        0
280
     1
281
     0
  0
CLASS
  1
LWPOLYLINE
  2
AcDbPolyline
  3
AutoCAD 2000
 90
        0
280
     0
281
     1
  0
CLASS
  1
HATCH
  2
AcDbHatch
  3
AutoCAD 2000
 90
        0
280
     0
281
     1
  0
CLASS
  1
XRECORD
  2
AcDbXrecord
  3
AutoCAD 2000
 90
        0
280
     0
281
     0
  0
CLASS
  1
LONG_TRANSACTION
  2
AcDbLongTransaction
  3
AutoCAD 2000
 90
        0
280
     1
281
     0
  0
CLASS
  1
LWPOLYLINE
  2
AcDbPolyline
  3
AutoCAD 2000
 90
        0
280
     0
281
     1
  0
CLASS
  1
HATCH
  2
AcDbHatch
  3
AutoCAD 2000
 90
        0
280
     0
281
     1
  0
CLASS
  1
XRECORD
  2
AcDbXrecord
  3
AutoCAD 2000
 90
        0
280
     0
281
     0
  0
CLASS
  1
LONG_TRANSACTION
  2
AcDbLongTransaction
  3
AutoCAD 2000
 90
        0
280
     1
281
     0
  0
CLASS
  1
LWPOLYLINE
  2
AcDbPolyline
  3
AutoCAD 2000
 90
        0
280
     0
281
     1
  0
CLASS
  1
HATCH
  2
AcDbHatch
  3
AutoCAD 2000
 90
        0
280
     0
281
     1
  0
CLASS
  1
XRECORD
  2
AcDbXrecord
  3
AutoCAD 2000
 90
        0
280
     0
281
     0
  0
CLASS
  1
LONG_TRANSACTION
  2
AcDbLongTransaction
  3
AutoCAD 2000
 90
        0
280
     1
281
     0
  0
CLASS
  1
LWPOLYLINE
  2
AcDbPolyline
  3
AutoCAD 2000
 90
        0
280
     0
281
     1
  0
CLASS
  1
HATCH
  2
AcDbHatch
  3
AutoCAD 2000
 90
        0
280
     0
281
     1
  0
CLASS
  1
XRECORD
  2
AcDbXrecord
  3
AutoCAD 2000
 90
        0
280
     0
281
     0
  0
CLASS
  1
LONG_TRANSACTION
  2
AcDbLongTransaction
  3
AutoCAD 2000
 90
        0
280
     1
281
     0
  0
CLASS
  1
LWPOLYLINE
  2
AcDbPolyline
  3
AutoCAD 2000
 90
        0
280
     0
281
     1
  0
CLASS
  1
HATCH
  2
AcDbHatch
  3
AutoCAD 2000
 90
        0
280
     0
281
     1
  0
CLASS
  1
XRECORD
  2
AcDbXrecord
  3
AutoCAD 2000
 90
        0
280
     0
281
     0
  0
CLASS
  1
LONG_TRANSACTION
  2
AcDbLongTransaction
  3
AutoCAD 2000
 90
        0
280
     1
281
     0
  0
CLASS
  1
LWPOLYLINE
  2
AcDbPolyline
  3
AutoCAD 2000
 90
        0
280
     0
281
     1
  0
CLASS
  1
HATCH
  2
AcDbHatch
  3
AutoCAD 2000
 90
        0
280
     0
281
     1
  0
CLASS
  1
XRECORD
  2
AcDbXrecord
  3
AutoCAD 2000
 90
        0
280
     0
281
     0
  0
CLASS
  1
LONG_TRANSACTION
  2
AcDbLongTransaction
  3
AutoCAD 2000
 90
        0
280
     1
281
     0
  0
CLASS
  1
LWPOLYLINE
  2
AcDbPolyline
  3
AutoCAD 2000
 90
        0
280
     0
281
     1
  0
CLASS
  1
HATCH
  2
AcDbHatch
  3
AutoCAD 2000
 90
        0
280
     0
281
     1
  0
CLASS
  1
XRECORD
  2
AcDbXrecord
  3
AutoCAD 2000
 90
        0
280
     0
281
     0
  0
CLASS
  1
LONG_TRANSACTION
  2
AcDbLongTransaction
  3
AutoCAD 2000
 90
        0
280
     1
281
     0
  0
CLASS
  1
LWPOLYLINE
  2
AcDbPolyline
  3
AutoCAD 2000
 90
        0
280
     0
281
     1
  0
CLASS
  1
HATCH
  2
AcDbHatch
  3
AutoCAD 2000
 90
        0
280
     0
281
     1
  0
CLASS
  1
XRECORD
  2
AcDbXrecord
  3
AutoCAD 2000
 90
        0
280
     0
281
     0
  0
CLASS
  1
LONG_TRANSACTION
  2
AcDbLongTransaction
  3
AutoCAD 2000
 90
        0
280
     1
281
     0
  0
CLASS
  1
LWPOLYLINE
  2
AcDbPolyline
  3
AutoCAD 2000
 90
        0
280
     0
281
     1
  0
CLASS
  1
HATCH
  2
AcDbHatch
  3
AutoCAD 2000
 90
        0
280
     0
281
     1
  0
CLASS
  1
XRECORD
  2
AcDbXrecord
  3
AutoCAD 2000
 90
        0
280
     0
281
     0
  0
CLASS
  1
LONG_TRANSACTION
  2
AcDbLongTransaction
  3
AutoCAD 2000
 90
        0
280
     1
281
     0
  0
CLASS
  1
LWPOLYLINE
  2
AcDbPolyline
  3
AutoCAD 2000
 90
        0
280
     0
281
     1
  0
CLASS
  1
HATCH
  2
AcDbHatch
  3
AutoCAD 2000
 90
        0
280
     0
281
     1
  0
CLASS
  1
XRECORD
  2
AcDbXrecord
  3
AutoCAD 2000
 90
        0
280
     0
281
     0
  0
CLASS
  1
LONG_TRANSACTION
  2
AcDbLongTransaction
  3
AutoCAD 2000
 90
        0
280
     1
281
     0
  0
CLASS
  1
LWPOLYLINE
  2
AcDbPolyline
  3
AutoCAD 2000
 90
        0
280
     0
281
     1
  0
CLASS
  1
HATCH
  2
AcDbHatch
  3
AutoCAD 2000
 90
        0
280
     0
281
     1
  0
CLASS
  1
XRECORD
  2
AcDbXrecord
  3
AutoCAD 2000
 90
        0
280
     0
281
     0
  0
CLASS
  1
LONG_TRANSACTION
  2
AcDbLongTransaction
  3
AutoCAD 2000
 90
        0
280
     1
281
     0
  0
CLASS
  1
LWPOLYLINE
  2
AcDbPolyline
  3
AutoCAD 2000
 90
        0
280
     0
281
     1
  0
CLASS
  1
HATCH
  2
AcDbHatch
  3
AutoCAD 2000
 90
        0
280
     0
281
     1
  0
CLASS
  1
XRECORD
  2
AcDbXrecord
  3
AutoCAD 2000
 90
        0
280
     0
281
     0
  0
CLASS
  1
LONG_TRANSACTION
  2
AcDbLongTransaction
  3
AutoCAD 2000
 90
        0
280
     1
281
     0
  0
CLASS
  1
LWPOLYLINE
  2
AcDbPolyline
  3
AutoCAD 2000
 90
        0
280
     0
281
     1
  0
CLASS
  1
HATCH
  2
AcDbHatch
  3
AutoCAD 2000
 90
        0
280
     0
281
     1
  0
CLASS
  1
XRECORD
  2
AcDbXrecord
  3
AutoCAD 2000
 90
        0
280
     0
281
     0
  0
CLASS
  1
LONG_TRANSACTION
  2
AcDbLongTransaction
  3
AutoCAD 2000
 90
        0
280
     1
281
     0
  0
CLASS
  1
LWPOLYLINE
  2
AcDbPolyline
  3
AutoCAD 2000
 90
        0
280
     0
281
     1
  0
CLASS
  1
HATCH
  2
AcDbHatch
  3
AutoCAD 2000
 90
        0
280
     0
281
     1
  0
CLASS
  1
XRECORD
  2
AcDbXrecord
  3
AutoCAD 2000
 90
        0
280
     0
281
     0
  0
CLASS
  1
LONG_TRANSACTION
  2
AcDbLongTransaction
  3
AutoCAD 2000
 90
        0
280
     1
281
     0
  0
CLASS
  1
LWPOLYLINE
  2
AcDbPolyline
  3
AutoCAD 2000
 90
        0
280
     0
281
     1
  0
CLASS
  1
HATCH
  2
AcDbHatch
  3
AutoCAD 2000
 90
        0
280
     0
281
     1
  0
CLASS
  1
XRECORD
  2
AcDbXrecord
  3
AutoCAD 2000
 90
        0
280
     0
281
     0
  0
CLASS
  1
LONG_TRANSACTION
  2
AcDbLongTransaction
  3
AutoCAD 2000
 90
        0
280
     1
281
     0
  0
CLASS
  1
LWPOLYLINE
  2
AcDbPolyline
  3
AutoCAD 2000
 90
        0
280
     0
281
     1
  0
CLASS
  1
HATCH
  2
AcDbHatch
  3
AutoCAD 2000
 90
        0
280
     0
281
     1
  0
CLASS
  1
XRECORD
  2
AcDbXrecord
  3
AutoCAD 2000
 90
        0
280
     0
281
     0
  0
CLASS
  1
LONG_TRANSACTION
  2
AcDbLongTransaction
  3
AutoCAD 2000
 90
        0
280
     1
281
     0
  0
CLASS
  1
LWPOLYLINE
  2
AcDbPolyline
  3
AutoCAD 2000
 90
        0
280
     0
281
     1
  0
CLASS
  1
HATCH
  2
AcDbHatch
  3
AutoCAD 2000
 90
        0
280
     0
281
     1
  0
CLASS
  1
XRECORD
  2
AcDbXrecord
  3
AutoCAD 2000
 90
        0
280
     0
281
     0
  0
CLASS
  1
TABLESTYLE
  2
AcDbTableStyle
  3
ObjectDBX Classes
 90
     2047
280
     1
281
     0
  0
CLASS
  1
SORTENTSTABLE
  2
AcDbSortentsTable
  3
AutoCAD 2000
 90
        0
280
     0
281
     0
  0
ENDSEC
  0
SECTION
  2
TABLES
  0
TABLE
  2
VPORT
  5
1D
330
0
100
AcDbSymbolTable
 70
     3
  0
VPORT
  5
29A
330
1D
100
AcDbSymbolTableRecord
100
AcDbViewportTableRecord
  2
*Active
 70
     0
 10
0.0
 20
0.0
 11
1.0
 21
1.0
 12
4.533187308053318
 22
7.785175124012343
 13
0.0
 23
0.0
 14
0.063
 24
0.063
 15
0.25
 25
0.25
 16
0.0
 26
0.0
 36
1.0
 17
0.0
 27
0.0
 37
0.0
 40
20.99176251011825
 41
1.592178770949721
 42
50.0
 43
0.0
 44
0.0
 50
0.0
 51
0.0
 71
     0
 72
   100
 73
     1
 74
     0
 75
     0
 76
     0
 77
     0
 78
     0
281
     0
 65
     1
110
0.0
120
0.0
130
0.0
111
1.0
121
0.0
131
0.0
112
0.0
122
1.0
132
0.0
 79
     0
146
0.0
  0
ENDTAB
  0
TABLE
  2
LTYPE
  5
18
330
0
100
AcDbSymbolTable
 70
     1
  0
LTYPE
  5
19
330
18
100
AcDbSymbolTableRecord
100
AcDbLinetypeTableRecord
  2
BYBLOCK
 70
     0
  3

 72
    65
 73
     0
 40
0.0
  0
LTYPE
  5
1A
330
18
100
AcDbSymbolTableRecord
100
AcDbLinetypeTableRecord
  2
BYLAYER
 70
     0
  3

 72
    65
 73
     0
 40
0.0
  0
LTYPE
  5
A
330
18
100
AcDbSymbolTableRecord
100
AcDbLinetypeTableRecord
  2
CONTINUOUS
 70
     0
  3
Solid line
 72
    65
 73
     0
 40
0.0
  0
ENDTAB
  0
TABLE
  2
LAYER
  5
14
330
0
100
AcDbSymbolTable
 70
     1
  0
LAYER
  5
6
330
14
100
AcDbSymbolTableRecord
100
AcDbLayerTableRecord
  2
0
 70
     0
 62
     7
  6
CONTINUOUS
370
    -3
390
7
  0
ENDTAB
  0
TABLE
  2
STYLE
  5
15
330
0
100
AcDbSymbolTable
 70
     1
  0
STYLE
  5
16
330
15
100
AcDbSymbolTableRecord
100
AcDbTextStyleTableRecord
  2
STANDARD
 70
     0
 40
0.0
 41
1.0
 50
0.0
 71
     0
 42
0.18
  3
TXT
  4

  0
ENDTAB
  0
TABLE
  2
VIEW
  5
1B
330
0
100
AcDbSymbolTable
 70
     0
  0
ENDTAB
  0
TABLE
  2
UCS
  5
1C
330
0
100
AcDbSymbolTable
 70
     0
  0
ENDTAB
  0
TABLE
  2
APPID
  5
1F
330
0
100
AcDbSymbolTable
 70
     1
  0
APPID
  5
20
330
1F
100
AcDbSymbolTableRecord
100
AcDbRegAppTableRecord
  2
ACAD
 70
     0
  0
ENDTAB
  0
TABLE
  2
DIMSTYLE
  5
21
330
0
100
AcDbSymbolTable
 70
     1
100
AcDbDimStyleTable
  0
DIMSTYLE
105
28
330
21
100
AcDbSymbolTableRecord
100
AcDbDimStyleTableRecord
  2
STANDARD
 70
     0
  3

  4

340
16
  0
ENDTAB
  0
TABLE
  2
BLOCK_RECORD
  5
1
330
0
100
AcDbSymbolTable
 70
     0
  0
BLOCK_RECORD
  5
2
102
{ACAD_XDICTIONARY
360
3
102
}
330
1
100
AcDbSymbolTableRecord
100
AcDbBlockTableRecord
  2
*MODEL_SPACE
340
C
  0
BLOCK_RECORD
  5
E
330
1
100
AcDbSymbolTableRecord
100
AcDbBlockTableRecord
  2
*PAPER_SPACE
340
13
  0
ENDTAB
  0
ENDSEC
  0
SECTION
  2
BLOCKS
  0
BLOCK
  5
5
330
2
100
AcDbEntity
  8
0
100
AcDbBlockBegin
  2
*MODEL_SPACE
 70
     0
 10
0.0
 20
0.0
 30
0.0
  3
*MODEL_SPACE
  1

  4

  0
ENDBLK
  5
B
330
2
100
AcDbEntity
  8
0
100
AcDbBlockEnd
  0
BLOCK
  5
11
330
E
100
AcDbEntity
 67
     1
  8
0
100
AcDbBlockBegin
  2
*PAPER_SPACE
 70
     0
 10
0.0
 20
0.0
 30
0.0
  3
*PAPER_SPACE
  1

  4

  0
ENDBLK
  5
12
330
E
100
AcDbEntity
 67
     1
  8
0
100
AcDbBlockEnd
  0
ENDSEC
  0
SECTION
  2
ENTITIES
  0
LINE
  5
151
330
2
100
AcDbEntity
  8
0
100
AcDbLine
 10
2.789062500000001
 20
11.7499534059839
 30
0.0
 11
1.999999999999999
 21
10.9608909059839
 31
0.0
  0
LINE
  5
152
330
2
100
AcDbEntity
  8
0
100
AcDbLine
 10
-2.000000000000001
 20
10.9608909059839
 30
0.0
 11
-2.789062500000001
 21
11.7499534059839
 31
0.0
  0
LINE
  5
153
330
2
100
AcDbEntity
  8
0
100
AcDbLine
 10
1.999999999999999
 20
10.9608909059839
 30
0.0
 11
-2.000000000000001
 21
10.9608909059839
 31
0.0
  0
LINE
  5
154
330
2
100
AcDbEntity
  8
0
100
AcDbLine
 10
2.999999999999999
 20
11.7499534059839
 30
0.0
 11
-3.000000000000001
 21
11.7499534059839
 31
0.0
  0
LINE
  5
155
330
2
100
AcDbEntity
  8
0
100
AcDbLine
 10
-2.746724896435027
 20
11.70307840598391
 30
0.0
 11
-3.000000000000001
 21
11.70307840598391
 31
0.0
  0
LINE
  5
156
330
2
100
AcDbEntity
  8
0
100
AcDbLine
 10
-3.000000000000001
 20
11.7499534059839
 30
0.0
 11
-3.000000000000001
 21
11.70307840598391
 31
0.0
  0
LINE
  5
157
330
2
100
AcDbEntity
  8
0
100
AcDbLine
 10
-0.7959999999999932
 20
12.4999534059839
 30
0.0
 11
-0.7959999999999932
 21
11.76597792365935
 31
0.0
  0
LINE
  5
158
330
2
100
AcDbEntity
  8
0
100
AcDbLine
 10
-0.8584999999999932
 20
12.4999534059839
 30
0.0
 11
-0.8584999999999941
 21
11.7499534059839
 31
0.0
  0
LINE
  5
159
330
2
100
AcDbEntity
  8
0
100
AcDbLine
 10
-1.463873879031451
 20
11.79595340598391
 30
0.0
 11
-2.578999999999998
 21
11.79595340598391
 31
0.0
  0
LWPOLYLINE
  5
15A
330
2
100
AcDbEntity
  8
0
100
AcDbPolyline
 90
        4
 70
     1
 43
0.0
 10
-1.816597018380927
 20
11.11421758968847
 10
-1.893254221251296
 20
11.4003061655668
 10
-1.607165645372965
 20
11.32364896269644
 10
-1.711881331876946
 20
11.21893327619245
  0
ARC
  5
15B
330
2
100
AcDbEntity
  8
0
100
AcDbCircle
 10
-2.578999999999998
 20
11.74995340598391
 30
0.0
 40
0.0460000000000029
100
AcDbArc
 50
89.99999999999999
 51
180.0000000000044
  0
LINE
  5
15C
330
2
100
AcDbEntity
  8
0
100
AcDbLine
 10
-1.007727314792548
 20
11.7499534059839
 30
0.0
 11
-0.8584999999999941
 21
11.89918072077646
 31
0.0
  0
ARC
  5
15D
330
2
100
AcDbEntity
  8
0
100
AcDbCircle
 10
-1.463873879031451
 20
11.74995340598391
 30
0.0
 40
0.0460000000000029
100
AcDbArc
 50
359.9999999999956
 51
89.99999999999999
  0
LINE
  5
15E
330
2
100
AcDbEntity
  8
0
100
AcDbLine
 10
-0.7959999999999932
 20
12.4999534059839
 30
0.0
 11
-0.8584999999999932
 21
12.4999534059839
 31
0.0
  0
LINE
  5
15F
330
2
100
AcDbEntity
  8
0
100
AcDbLine
 10
1.463873879031449
 20
11.79595340598391
 30
0.0
 11
2.578999999999996
 21
11.79595340598391
 31
0.0
  0
LWPOLYLINE
  5
160
330
2
100
AcDbEntity
  8
0
100
AcDbPolyline
 90
        4
 70
     1
 43
0.0
 10
1.816597018380925
 20
11.11421758968847
 10
1.893254221251294
 20
11.4003061655668
 10
1.607165645372963
 20
11.32364896269644
 10
1.711881331876945
 20
11.21893327619245
  0
LINE
  5
161
330
2
100
AcDbEntity
  8
0
100
AcDbLine
 10
0.8584999999999914
 20
12.4999534059839
 30
0.0
 11
0.8584999999999914
 21
11.7499534059839
 31
0.0
  0
LINE
  5
162
330
2
100
AcDbEntity
  8
0
100
AcDbLine
 10
0.7959999999999914
 20
12.4999534059839
 30
0.0
 11
0.7959999999999914
 21
11.76597792365935
 31
0.0
  0
LWPOLYLINE
  5
163
330
2
100
AcDbEntity
  8
0
100
AcDbPolyline
 90
        4
 70
     1
 43
0.0
 10
0.419258056712529
 20
11.11421758968847
 10
0.4959152595828984
 20
11.4003061655668
 10
0.2098266837045673
 20
11.32364896269644
 10
0.3145423702085486
 20
11.21893327619245
  0
LINE
  5
164
330
2
100
AcDbEntity
  8
0
100
AcDbLine
 10
1.007727314792546
 20
11.7499534059839
 30
0.0
 11
0.8584999999999914
 21
11.89918072077646
 31
0.0
  0
ARC
  5
165
330
2
100
AcDbEntity
  8
0
100
AcDbCircle
 10
1.463873879031449
 20
11.74995340598391
 30
0.0
 40
0.0460000000000029
100
AcDbArc
 50
90.00000000000003
 51
180.0000000000044
  0
LINE
  5
166
330
2
100
AcDbEntity
  8
0
100
AcDbLine
 10
0.7959999999999914
 20
12.4999534059839
 30
0.0
 11
0.8584999999999914
 21
12.4999534059839
 31
0.0
  0
LINE
  5
167
330
2
100
AcDbEntity
  8
0
100
AcDbLine
 10
2.742187500000003
 20
11.70307840598391
 30
0.0
 11
2.999999999999999
 21
11.70307840598391
 31
0.0
  0
ARC
  5
168
330
2
100
AcDbEntity
  8
0
100
AcDbCircle
 10
2.578999999999996
 20
11.74995340598391
 30
0.0
 40
0.0460000000000029
100
AcDbArc
 50
359.9999999999956
 51
90.00000000000003
  0
LINE
  5
169
330
2
100
AcDbEntity
  8
0
100
AcDbLine
 10
2.999999999999999
 20
11.7499534059839
 30
0.0
 11
2.999999999999999
 21
11.70307840598391
 31
0.0
  0
LINE
  5
16A
330
2
100
AcDbEntity
  8
0
100
AcDbLine
 10
12.58650124510211
 20
3.976437500342196
 30
0.0
 11
12.58650124510212
 21
0.0703124999999973
 31
0.0
  0
LINE
  5
16B
330
2
100
AcDbEntity
  8
0
100
AcDbLine
 10
12.53962624510211
 20
3.976437500342196
 30
0.0
 11
12.53962624510212
 21
0.0468749999999991
 31
0.0
  0
LINE
  5
16C
330
2
100
AcDbEntity
  8
0
100
AcDbLine
 10
12.58650124510212
 20
-0.0000000000000009
 30
0.0
 11
13.33650124510212
 21
-0.0000000000000009
 31
0.0
  0
LINE
  5
16D
330
2
100
AcDbEntity
  8
0
100
AcDbLine
 10
12.60993874510212
 20
0.0468749999999991
 30
0.0
 11
13.33650124510212
 21
0.0468749999999991
 31
0.0
  0
ARC
  5
16E
330
2
100
AcDbEntity
  8
0
100
AcDbCircle
 10
12.60993874510212
 20
0.0703124999999973
 30
0.0
 40
0.0234374999999991
100
AcDbArc
 50
180.0
 51
270.0
  0
ARC
  5
16F
330
2
100
AcDbEntity
  8
0
100
AcDbCircle
 10
12.58650124510212
 20
0.0468749999999991
 30
0.0
 40
0.0468749999999982
100
AcDbArc
 50
180.0
 51
270.0
  0
LINE
  5
170
330
2
100
AcDbEntity
  8
0
100
AcDbLine
 10
12.58650124510212
 20
0.2734374999999991
 30
0.0
 11
12.53962624510212
 21
0.2734374999999991
 31
0.0
  0
LINE
  5
171
330
2
100
AcDbEntity
  8
0
100
AcDbLine
 10
13.33650124510212
 20
0.0468749999999991
 30
0.0
 11
13.33650124510212
 21
-0.0000000000000009
 31
0.0
  0
LINE
  5
172
330
2
100
AcDbEntity
  8
0
100
AcDbLine
 10
11.71237624510214
 20
3.023487500000008
 30
0.0
 11
11.71237626336045
 21
7.236057736511401
 31
0.0
  0
LINE
  5
173
330
2
100
AcDbEntity
  8
0
100
AcDbLine
 10
12.49362624510211
 20
7.003599386133046
 30
0.0
 11
12.49362624510211
 21
3.116671374153484
 31
0.0
  0
LINE
  5
174
330
2
100
AcDbEntity
  8
0
100
AcDbLine
 10
12.58650124510211
 20
7.398437500000006
 30
0.0
 11
12.58650124510211
 21
3.976437500342196
 31
0.0
  0
LINE
  5
175
330
2
100
AcDbEntity
  8
0
100
AcDbLine
 10
12.53962624510211
 20
7.398437500000006
 30
0.0
 11
12.53962624510211
 21
3.976437500342196
 31
0.0
  0
LINE
  5
176
330
2
100
AcDbEntity
  8
0
100
AcDbLine
 10
12.42017503674031
 20
3.02348750000001
 30
0.0
 11
11.71237624510214
 21
3.023487500000008
 31
0.0
  0
ARC
  5
177
330
2
100
AcDbEntity
  8
0
100
AcDbCircle
 10
12.49223816667083
 20
2.993639463136307
 30
0.0
 40
0.0779999999999994
100
AcDbArc
 50
90.0
 51
157.5010104366091
  0
LINE
  5
178
330
2
100
AcDbEntity
  8
0
100
AcDbLine
 10
12.53911316667083
 20
3.071639463136306
 30
0.0
 11
12.49223816667083
 21
3.071639463136306
 31
0.0
  0
ARC
  5
179
330
2
100
AcDbEntity
  8
0
100
AcDbCircle
 10
12.53962624510211
 20
3.116671374153484
 30
0.0
 40
0.0460000000000029
100
AcDbArc
 50
180.0
 51
270.0000000000044
  0
LINE
  5
17A
330
2
100
AcDbEntity
  8
0
100
AcDbLine
 10
12.00837624510211
 20
4.382937500000007
 30
0.0
 11
12.10212624510211
 21
4.382937500000007
 31
0.0
  0
LINE
  5
17B
330
2
100
AcDbEntity
  8
0
100
AcDbLine
 10
12.10212624510211
 20
4.538937500000006
 30
0.0
 11
12.00837624510211
 21
4.538937500000006
 31
0.0
  0
LINE
  5
17C
330
2
100
AcDbEntity
  8
0
100
AcDbLine
 10
12.10212624510211
 20
3.882687500000006
 30
0.0
 11
12.00837624510211
 21
3.882687500000006
 31
0.0
  0
LINE
  5
17D
330
2
100
AcDbEntity
  8
0
100
AcDbLine
 10
12.00837624510211
 20
3.726687500000007
 30
0.0
 11
12.10212624510211
 21
3.726687500000007
 31
0.0
  0
ARC
  5
17E
330
2
100
AcDbEntity
  8
0
100
AcDbCircle
 10
12.00837624510211
 20
3.804687500000006
 30
0.0
 40
0.0779999999999994
100
AcDbArc
 50
90.0
 51
270.0
  0
ARC
  5
17F
330
2
100
AcDbEntity
  8
0
100
AcDbCircle
 10
12.00837624510211
 20
4.460937500000006
 30
0.0
 40
0.0779999999999994
100
AcDbArc
 50
90.0
 51
270.0
  0
ARC
  5
180
330
2
100
AcDbEntity
  8
0
100
AcDbCircle
 10
12.10212624510211
 20
3.804687500000006
 30
0.0
 40
0.0779999999999994
100
AcDbArc
 50
270.0
 51
90.0
  0
LINE
  5
181
330
2
100
AcDbEntity
  8
0
100
AcDbLine
 10
12.39039893030955
 20
3.737793470362502
 30
0.0
 11
12.39039893030955
 21
3.809081529637497
 31
0.0
  0
LINE
  5
182
330
2
100
AcDbEntity
  8
0
100
AcDbLine
 10
12.49362624510211
 20
3.737793470362507
 30
0.0
 11
12.39039893030955
 21
3.737793470362502
 31
0.0
  0
LINE
  5
183
330
2
100
AcDbEntity
  8
0
100
AcDbLine
 10
12.49362624510211
 20
3.8090815296375
 30
0.0
 11
12.39039893030955
 21
3.809081529637497
 31
0.0
  0
LINE
  5
184
330
2
100
AcDbEntity
  8
0
100
AcDbLine
 10
12.49362624510211
 20
3.886143955742155
 30
0.0
 11
12.39039893030955
 21
3.809081529637497
 31
0.0
  0
LINE
  5
185
330
2
100
AcDbEntity
  8
0
100
AcDbLine
 10
12.39039893030955
 20
3.737793470362502
 30
0.0
 11
12.49362624510211
 21
3.660731044202794
 31
0.0
  0
LINE
  5
186
330
2
100
AcDbEntity
  8
0
100
AcDbLine
 10
12.53962624510211
 20
4.676716313517068
 30
0.0
 11
12.53962624510211
 21
4.495157141470055
 31
0.0
  0
ARC
  5
187
330
2
100
AcDbEntity
  8
0
100
AcDbCircle
 10
12.10212624510211
 20
4.460937500000006
 30
0.0
 40
0.0779999999999994
100
AcDbArc
 50
270.0
 51
90.0
  0
ARC
  5
188
330
2
100
AcDbEntity
  8
0
100
AcDbCircle
 10
12.53962624510211
 20
4.759060924594592
 30
0.0
 40
0.0460000000000029
100
AcDbArc
 50
180.0
 51
270.0000000000044
  0
LINE
  5
189
330
2
100
AcDbEntity
  8
0
100
AcDbLine
 10
12.10212624510211
 20
5.851437500000006
 30
0.0
 11
12.00837624510211
 21
5.851437500000006
 31
0.0
  0
LINE
  5
18A
330
2
100
AcDbEntity
  8
0
100
AcDbLine
 10
12.00837624510211
 20
5.695437500000007
 30
0.0
 11
12.10212624510211
 21
5.695437500000007
 31
0.0
  0
LINE
  5
18B
330
2
100
AcDbEntity
  8
0
100
AcDbLine
 10
12.10212624510211
 20
5.195187500000006
 30
0.0
 11
12.00837624510211
 21
5.195187500000006
 31
0.0
  0
LINE
  5
18C
330
2
100
AcDbEntity
  8
0
100
AcDbLine
 10
12.00837624510211
 20
5.039187500000007
 30
0.0
 11
12.10212624510211
 21
5.039187500000007
 31
0.0
  0
ARC
  5
18D
330
2
100
AcDbEntity
  8
0
100
AcDbCircle
 10
12.00837624510211
 20
5.117187500000006
 30
0.0
 40
0.0779999999999994
100
AcDbArc
 50
90.0
 51
270.0
  0
ARC
  5
18E
330
2
100
AcDbEntity
  8
0
100
AcDbCircle
 10
12.00837624510211
 20
5.773437500000006
 30
0.0
 40
0.0779999999999994
100
AcDbArc
 50
90.0
 51
270.0
  0
ARC
  5
18F
330
2
100
AcDbEntity
  8
0
100
AcDbCircle
 10
12.10212624510211
 20
5.117187500000006
 30
0.0
 40
0.0779999999999994
100
AcDbArc
 50
270.0
 51
90.0
  0
LINE
  5
190
330
2
100
AcDbEntity
  8
0
100
AcDbLine
 10
12.39039893030955
 20
5.237793470362502
 30
0.0
 11
12.49362624510211
 21
5.160731044202797
 31
0.0
  0
LINE
  5
191
330
2
100
AcDbEntity
  8
0
100
AcDbLine
 10
12.49362624510211
 20
5.386143955742155
 30
0.0
 11
12.39039893030955
 21
5.309081529637497
 31
0.0
  0
LINE
  5
192
330
2
100
AcDbEntity
  8
0
100
AcDbLine
 10
12.49362624510211
 20
5.3090815296375
 30
0.0
 11
12.39039893030955
 21
5.309081529637497
 31
0.0
  0
LINE
  5
193
330
2
100
AcDbEntity
  8
0
100
AcDbLine
 10
12.49362624510211
 20
5.237793470362507
 30
0.0
 11
12.39039893030955
 21
5.237793470362502
 31
0.0
  0
LINE
  5
194
330
2
100
AcDbEntity
  8
0
100
AcDbLine
 10
12.39039893030955
 20
5.237793470362502
 30
0.0
 11
12.39039893030955
 21
5.309081529637497
 31
0.0
  0
ARC
  5
195
330
2
100
AcDbEntity
  8
0
100
AcDbCircle
 10
12.10212624510211
 20
5.773437500000006
 30
0.0
 40
0.0779999999999994
100
AcDbArc
 50
270.0
 51
90.0
  0
LINE
  5
196
330
2
100
AcDbEntity
  8
0
100
AcDbLine
 10
12.53962624510211
 20
5.773437499999999
 30
0.0
 11
12.58650124510212
 21
5.773437499999999
 31
0.0
  0
LINE
  5
197
330
2
100
AcDbEntity
  8
0
100
AcDbLine
 10
11.87475602684906
 20
7.398437500000006
 30
0.0
 11
11.71237626336045
 21
7.236057736511399
 31
0.0
  0
LINE
  5
198
330
2
100
AcDbEntity
  8
0
100
AcDbLine
 10
12.10212624510211
 20
7.101437500000006
 30
0.0
 11
12.00837624510211
 21
7.101437500000006
 31
0.0
  0
LINE
  5
199
330
2
100
AcDbEntity
  8
0
100
AcDbLine
 10
12.00837624510211
 20
6.945437500000007
 30
0.0
 11
12.10212624510211
 21
6.945437500000007
 31
0.0
  0
LINE
  5
19A
330
2
100
AcDbEntity
  8
0
100
AcDbLine
 10
12.10212624510211
 20
6.507687500000006
 30
0.0
 11
12.00837624510211
 21
6.507687500000006
 31
0.0
  0
LINE
  5
19B
330
2
100
AcDbEntity
  8
0
100
AcDbLine
 10
12.00837624510211
 20
6.351687500000007
 30
0.0
 11
12.10212624510211
 21
6.351687500000007
 31
0.0
  0
ARC
  5
19C
330
2
100
AcDbEntity
  8
0
100
AcDbCircle
 10
12.00837624510211
 20
6.429687500000006
 30
0.0
 40
0.0779999999999994
100
AcDbArc
 50
90.0
 51
270.0
  0
ARC
  5
19D
330
2
100
AcDbEntity
  8
0
100
AcDbCircle
 10
12.00837624510211
 20
7.023437500000006
 30
0.0
 40
0.0779999999999994
100
AcDbArc
 50
90.0
 51
270.0
  0
LINE
  5
19E
330
2
100
AcDbEntity
  8
0
100
AcDbLine
 10
12.39039893030955
 20
6.737793470362502
 30
0.0
 11
12.49362624510211
 21
6.660731044202795
 31
0.0
  0
ARC
  5
19F
330
2
100
AcDbEntity
  8
0
100
AcDbCircle
 10
12.10212624510211
 20
6.429687500000006
 30
0.0
 40
0.0779999999999994
100
AcDbArc
 50
270.0
 51
90.0
  0
ARC
  5
1A0
330
2
100
AcDbEntity
  8
0
100
AcDbCircle
 10
12.10212624510211
 20
7.023437500000006
 30
0.0
 40
0.0779999999999994
100
AcDbArc
 50
270.0
 51
90.0
  0
ARC
  5
1A1
330
2
100
AcDbEntity
  8
0
100
AcDbCircle
 10
12.53962624510211
 20
7.003599386133046
 30
0.0
 40
0.0460000000000029
100
AcDbArc
 50
89.99999999999557
 51
180.0
  0
LINE
  5
1A2
330
2
100
AcDbEntity
  8
0
100
AcDbLine
 10
12.39039893030955
 20
6.737793470362502
 30
0.0
 11
12.39039893030955
 21
6.809081529637497
 31
0.0
  0
LINE
  5
1A3
330
2
100
AcDbEntity
  8
0
100
AcDbLine
 10
12.49362624510211
 20
6.8090815296375
 30
0.0
 11
12.39039893030955
 21
6.809081529637497
 31
0.0
  0
LINE
  5
1A4
330
2
100
AcDbEntity
  8
0
100
AcDbLine
 10
12.49362624510211
 20
6.737793470362507
 30
0.0
 11
12.39039893030955
 21
6.737793470362502
 31
0.0
  0
LINE
  5
1A5
330
2
100
AcDbEntity
  8
0
100
AcDbLine
 10
12.49362624510211
 20
6.886143955742154
 30
0.0
 11
12.39039893030955
 21
6.809081529637497
 31
0.0
  0
LINE
  5
1A6
330
2
100
AcDbEntity
  8
0
100
AcDbLine
 10
11.87475602684906
 20
7.398437500000006
 30
0.0
 11
12.58650124510211
 21
7.398437500000006
 31
0.0
  0
LINE
  5
1A7
330
2
100
AcDbEntity
  8
0
100
AcDbLine
 10
-11.31061515442799
 20
3.976437500342196
 30
0.0
 11
-11.31061515442799
 21
0.0703124999999973
 31
0.0
  0
LINE
  5
1A8
330
2
100
AcDbEntity
  8
0
100
AcDbLine
 10
-11.26374015442799
 20
3.976437500342196
 30
0.0
 11
-11.26374015442799
 21
0.0468749999999991
 31
0.0
  0
LINE
  5
1A9
330
2
100
AcDbEntity
  8
0
100
AcDbLine
 10
-11.31061515442799
 20
-0.0000000000000009
 30
0.0
 11
-12.06061515442799
 21
-0.0000000000000009
 31
0.0
  0
LINE
  5
1AA
330
2
100
AcDbEntity
  8
0
100
AcDbLine
 10
-11.33405265442799
 20
0.0468749999999991
 30
0.0
 11
-12.06061515442799
 21
0.0468749999999991
 31
0.0
  0
LINE
  5
1AB
330
2
100
AcDbEntity
  8
0
100
AcDbLine
 10
-12.06061515442799
 20
0.0468749999999991
 30
0.0
 11
-12.06061515442799
 21
-0.0000000000000009
 31
0.0
  0
ARC
  5
1AC
330
2
100
AcDbEntity
  8
0
100
AcDbCircle
 10
-11.33405265442799
 20
0.0703124999999973
 30
0.0
 40
0.0234374999999991
100
AcDbArc
 50
270.0
 51
0.000000000000007
  0
ARC
  5
1AD
330
2
100
AcDbEntity
  8
0
100
AcDbCircle
 10
-11.31061515442799
 20
0.0468749999999991
 30
0.0
 40
0.0468749999999982
100
AcDbArc
 50
270.0
 51
0.000000000000007
  0
LINE
  5
1AE
330
2
100
AcDbEntity
  8
0
100
AcDbLine
 10
-11.31061515442799
 20
0.2734374999999991
 30
0.0
 11
-11.26374015442799
 21
0.2734374999999991
 31
0.0
  0
LINE
  5
1AF
330
2
100
AcDbEntity
  8
0
100
AcDbLine
 10
-10.43649015442801
 20
3.023487500000008
 30
0.0
 11
-10.43649017268632
 21
7.236057736511401
 31
0.0
  0
LINE
  5
1B0
330
2
100
AcDbEntity
  8
0
100
AcDbLine
 10
-11.21774015442798
 20
7.003599386133046
 30
0.0
 11
-11.21774015442798
 21
3.116671374153484
 31
0.0
  0
LINE
  5
1B1
330
2
100
AcDbEntity
  8
0
100
AcDbLine
 10
-11.31061515442799
 20
7.398437500000006
 30
0.0
 11
-11.31061515442799
 21
3.976437500342196
 31
0.0
  0
LINE
  5
1B2
330
2
100
AcDbEntity
  8
0
100
AcDbLine
 10
-11.26374015442799
 20
7.398437500000006
 30
0.0
 11
-11.26374015442799
 21
3.976437500342196
 31
0.0
  0
LINE
  5
1B3
330
2
100
AcDbEntity
  8
0
100
AcDbLine
 10
-11.14428894606618
 20
3.02348750000001
 30
0.0
 11
-10.43649015442801
 21
3.023487500000008
 31
0.0
  0
ARC
  5
1B4
330
2
100
AcDbEntity
  8
0
100
AcDbCircle
 10
-11.2163520759967
 20
2.993639463136307
 30
0.0
 40
0.0779999999999994
100
AcDbArc
 50
22.4989895633909
 51
90.0
  0
ARC
  5
1B5
330
2
100
AcDbEntity
  8
0
100
AcDbCircle
 10
-11.26374015442799
 20
3.116671374153484
 30
0.0
 40
0.0460000000000029
100
AcDbArc
 50
269.9999999999956
 51
0.000000000000007
  0
LINE
  5
1B6
330
2
100
AcDbEntity
  8
0
100
AcDbLine
 10
-11.2632270759967
 20
3.071639463136306
 30
0.0
 11
-11.2163520759967
 21
3.071639463136306
 31
0.0
  0
LINE
  5
1B7
330
2
100
AcDbEntity
  8
0
100
AcDbLine
 10
-11.21774015442798
 20
3.737793470362507
 30
0.0
 11
-11.11451283963542
 21
3.737793470362502
 31
0.0
  0
LINE
  5
1B8
330
2
100
AcDbEntity
  8
0
100
AcDbLine
 10
-11.21774015442798
 20
3.8090815296375
 30
0.0
 11
-11.11451283963542
 21
3.809081529637497
 31
0.0
  0
LINE
  5
1B9
330
2
100
AcDbEntity
  8
0
100
AcDbLine
 10
-11.21774015442798
 20
3.886143955742155
 30
0.0
 11
-11.11451283963542
 21
3.809081529637497
 31
0.0
  0
LINE
  5
1BA
330
2
100
AcDbEntity
  8
0
100
AcDbLine
 10
-11.11451283963542
 20
3.737793470362502
 30
0.0
 11
-11.21774015442798
 21
3.660731044202794
 31
0.0
  0
LINE
  5
1BB
330
2
100
AcDbEntity
  8
0
100
AcDbLine
 10
-11.11451283963542
 20
3.737793470362502
 30
0.0
 11
-11.11451283963542
 21
3.809081529637497
 31
0.0
  0
ARC
  5
1BC
330
2
100
AcDbEntity
  8
0
100
AcDbCircle
 10
-10.73249015442799
 20
3.492187500000006
 30
0.0
 40
0.0779999999999994
100
AcDbArc
 50
270.0
 51
90.0
  0
ARC
  5
1BD
330
2
100
AcDbEntity
  8
0
100
AcDbCircle
 10
-10.82624015442799
 20
3.492187500000006
 30
0.0
 40
0.0779999999999994
100
AcDbArc
 50
90.0
 51
270.0
  0
LINE
  5
1BE
330
2
100
AcDbEntity
  8
0
100
AcDbLine
 10
-10.82624015442799
 20
3.570187500000006
 30
0.0
 11
-10.73249015442799
 21
3.570187500000006
 31
0.0
  0
LINE
  5
1BF
330
2
100
AcDbEntity
  8
0
100
AcDbLine
 10
-10.73249015442799
 20
3.414187500000007
 30
0.0
 11
-10.82624015442799
 21
3.414187500000007
 31
0.0
  0
ARC
  5
1C0
330
2
100
AcDbEntity
  8
0
100
AcDbCircle
 10
-11.26374015442799
 20
4.759060924594592
 30
0.0
 40
0.0460000000000029
100
AcDbArc
 50
269.9999999999956
 51
0.000000000000007
  0
LINE
  5
1C1
330
2
100
AcDbEntity
  8
0
100
AcDbLine
 10
-11.26374015442799
 20
4.676716313517068
 30
0.0
 11
-11.26374015442799
 21
4.495157141470055
 31
0.0
  0
ARC
  5
1C2
330
2
100
AcDbEntity
  8
0
100
AcDbCircle
 10
-10.73249015442799
 20
4.148437500000006
 30
0.0
 40
0.0779999999999994
100
AcDbArc
 50
270.0
 51
90.0
  0
ARC
  5
1C3
330
2
100
AcDbEntity
  8
0
100
AcDbCircle
 10
-10.82624015442799
 20
4.148437500000006
 30
0.0
 40
0.0779999999999994
100
AcDbArc
 50
90.0
 51
270.0
  0
LINE
  5
1C4
330
2
100
AcDbEntity
  8
0
100
AcDbLine
 10
-10.73249015442799
 20
4.070437500000007
 30
0.0
 11
-10.82624015442799
 21
4.070437500000007
 31
0.0
  0
LINE
  5
1C5
330
2
100
AcDbEntity
  8
0
100
AcDbLine
 10
-10.82624015442799
 20
4.226437500000006
 30
0.0
 11
-10.73249015442799
 21
4.226437500000006
 31
0.0
  0
LINE
  5
1C6
330
2
100
AcDbEntity
  8
0
100
AcDbLine
 10
-11.21774015442798
 20
5.386143955742155
 30
0.0
 11
-11.11451283963542
 21
5.309081529637497
 31
0.0
  0
LINE
  5
1C7
330
2
100
AcDbEntity
  8
0
100
AcDbLine
 10
-11.21774015442798
 20
5.3090815296375
 30
0.0
 11
-11.11451283963542
 21
5.309081529637497
 31
0.0
  0
LINE
  5
1C8
330
2
100
AcDbEntity
  8
0
100
AcDbLine
 10
-11.21774015442798
 20
5.237793470362507
 30
0.0
 11
-11.11451283963542
 21
5.237793470362502
 31
0.0
  0
LINE
  5
1C9
330
2
100
AcDbEntity
  8
0
100
AcDbLine
 10
-11.11451283963542
 20
5.237793470362502
 30
0.0
 11
-11.21774015442798
 21
5.160731044202797
 31
0.0
  0
ARC
  5
1CA
330
2
100
AcDbEntity
  8
0
100
AcDbCircle
 10
-10.73249015442799
 20
4.804687500000006
 30
0.0
 40
0.0779999999999994
100
AcDbArc
 50
270.0
 51
90.0
  0
ARC
  5
1CB
330
2
100
AcDbEntity
  8
0
100
AcDbCircle
 10
-10.82624015442799
 20
4.804687500000006
 30
0.0
 40
0.0779999999999994
100
AcDbArc
 50
90.0
 51
270.0
  0
LINE
  5
1CC
330
2
100
AcDbEntity
  8
0
100
AcDbLine
 10
-10.73249015442799
 20
4.726687500000007
 30
0.0
 11
-10.82624015442799
 21
4.726687500000007
 31
0.0
  0
LINE
  5
1CD
330
2
100
AcDbEntity
  8
0
100
AcDbLine
 10
-11.11451283963542
 20
5.237793470362502
 30
0.0
 11
-11.11451283963542
 21
5.309081529637497
 31
0.0
  0
LINE
  5
1CE
330
2
100
AcDbEntity
  8
0
100
AcDbLine
 10
-10.82624015442799
 20
4.882687500000006
 30
0.0
 11
-10.73249015442799
 21
4.882687500000006
 31
0.0
  0
LINE
  5
1CF
330
2
100
AcDbEntity
  8
0
100
AcDbLine
 10
-11.26374015442799
 20
5.773437499999999
 30
0.0
 11
-11.31061515442799
 21
5.773437499999999
 31
0.0
  0
ARC
  5
1D0
330
2
100
AcDbEntity
  8
0
100
AcDbCircle
 10
-10.73249015442799
 20
5.460937500000006
 30
0.0
 40
0.0779999999999994
100
AcDbArc
 50
270.0
 51
90.0
  0
ARC
  5
1D1
330
2
100
AcDbEntity
  8
0
100
AcDbCircle
 10
-10.82624015442799
 20
5.460937500000006
 30
0.0
 40
0.0779999999999994
100
AcDbArc
 50
90.0
 51
270.0
  0
LINE
  5
1D2
330
2
100
AcDbEntity
  8
0
100
AcDbLine
 10
-10.73249015442799
 20
5.382937500000007
 30
0.0
 11
-10.82624015442799
 21
5.382937500000007
 31
0.0
  0
LINE
  5
1D3
330
2
100
AcDbEntity
  8
0
100
AcDbLine
 10
-10.82624015442799
 20
5.538937500000006
 30
0.0
 11
-10.73249015442799
 21
5.538937500000006
 31
0.0
  0
LINE
  5
1D4
330
2
100
AcDbEntity
  8
0
100
AcDbLine
 10
-10.59886993617494
 20
7.398437500000006
 30
0.0
 11
-10.43649017268632
 21
7.236057736511399
 31
0.0
  0
LINE
  5
1D5
330
2
100
AcDbEntity
  8
0
100
AcDbLine
 10
-11.11451283963542
 20
6.737793470362502
 30
0.0
 11
-11.21774015442798
 21
6.660731044202795
 31
0.0
  0
ARC
  5
1D6
330
2
100
AcDbEntity
  8
0
100
AcDbCircle
 10
-10.73249015442799
 20
6.117187500000006
 30
0.0
 40
0.0779999999999994
100
AcDbArc
 50
270.0
 51
90.0
  0
ARC
  5
1D7
330
2
100
AcDbEntity
  8
0
100
AcDbCircle
 10
-10.82624015442799
 20
6.117187500000006
 30
0.0
 40
0.0779999999999994
100
AcDbArc
 50
90.0
 51
270.0
  0
LINE
  5
1D8
330
2
100
AcDbEntity
  8
0
100
AcDbLine
 10
-10.73249015442799
 20
6.039187500000007
 30
0.0
 11
-10.82624015442799
 21
6.039187500000007
 31
0.0
  0
LINE
  5
1D9
330
2
100
AcDbEntity
  8
0
100
AcDbLine
 10
-10.82624015442799
 20
6.195187500000006
 30
0.0
 11
-10.73249015442799
 21
6.195187500000006
 31
0.0
  0
LINE
  5
1DA
330
2
100
AcDbEntity
  8
0
100
AcDbLine
 10
-11.21774015442798
 20
6.8090815296375
 30
0.0
 11
-11.11451283963542
 21
6.809081529637497
 31
0.0
  0
LINE
  5
1DB
330
2
100
AcDbEntity
  8
0
100
AcDbLine
 10
-11.21774015442798
 20
6.737793470362507
 30
0.0
 11
-11.11451283963542
 21
6.737793470362502
 31
0.0
  0
LINE
  5
1DC
330
2
100
AcDbEntity
  8
0
100
AcDbLine
 10
-11.21774015442798
 20
6.886143955742154
 30
0.0
 11
-11.11451283963542
 21
6.809081529637497
 31
0.0
  0
ARC
  5
1DD
330
2
100
AcDbEntity
  8
0
100
AcDbCircle
 10
-11.26374015442799
 20
7.003599386133046
 30
0.0
 40
0.0460000000000029
100
AcDbArc
 50
0.000000000000007
 51
90.00000000000443
  0
ARC
  5
1DE
330
2
100
AcDbEntity
  8
0
100
AcDbCircle
 10
-10.73249015442799
 20
6.710937500000006
 30
0.0
 40
0.0779999999999994
100
AcDbArc
 50
270.0
 51
90.0
  0
ARC
  5
1DF
330
2
100
AcDbEntity
  8
0
100
AcDbCircle
 10
-10.82624015442799
 20
6.710937500000006
 30
0.0
 40
0.0779999999999994
100
AcDbArc
 50
90.0
 51
270.0
  0
LINE
  5
1E0
330
2
100
AcDbEntity
  8
0
100
AcDbLine
 10
-11.11451283963542
 20
6.737793470362502
 30
0.0
 11
-11.11451283963542
 21
6.809081529637497
 31
0.0
  0
LINE
  5
1E1
330
2
100
AcDbEntity
  8
0
100
AcDbLine
 10
-10.73249015442799
 20
6.632937500000007
 30
0.0
 11
-10.82624015442799
 21
6.632937500000007
 31
0.0
  0
LINE
  5
1E2
330
2
100
AcDbEntity
  8
0
100
AcDbLine
 10
-10.82624015442799
 20
6.788937500000006
 30
0.0
 11
-10.73249015442799
 21
6.788937500000006
 31
0.0
  0
LINE
  5
1E3
330
2
100
AcDbEntity
  8
0
100
AcDbLine
 10
-10.59886993617494
 20
7.398437500000006
 30
0.0
 11
-11.31061515442799
 21
7.398437500000006
 31
0.0
  0
CIRCLE
  5
1E5
330
2
100
AcDbEntity
  8
0
100
AcDbCircle
 10
-2.625000000000001
 20
0.9609374999999991
 30
0.0
 40
0.0855
  0
CIRCLE
  5
1E6
330
2
100
AcDbEntity
  8
0
100
AcDbCircle
 10
-1.57499999999999
 20
0.5859374999999991
 30
0.0
 40
0.0855
  0
ARC
  5
1E7
330
2
100
AcDbEntity
  8
0
100
AcDbCircle
 10
-1.335499999999997
 20
0.0234374999999973
 30
0.0
 40
0.0854999999999997
100
AcDbArc
 50
344.0902539823935
 51
90.00000000000003
  0
LINE
  5
1E8
330
2
100
AcDbEntity
  8
0
100
AcDbLine
 10
-1.496724896435026
 20
0.0468749999999956
 30
0.0
 11
-1.253275103564976
 21
0.0468749999999956
 31
0.0
  0
ARC
  5
1E9
330
2
100
AcDbEntity
  8
0
100
AcDbCircle
 10
-1.414500000000005
 20
0.0234374999999973
 30
0.0
 40
0.0854999999999997
100
AcDbArc
 50
90.00000000000003
 51
195.9097460176065
  0
LINE
  5
1EA
330
2
100
AcDbEntity
  8
0
100
AcDbLine
 10
-1.414500000000005
 20
0.108937499999997
 30
0.0
 11
-1.335499999999997
 21
0.108937499999997
 31
0.0
  0
CIRCLE
  5
1EB
330
2
100
AcDbEntity
  8
0
100
AcDbCircle
 10
-0.5249999999999924
 20
0.9609374999999991
 30
0.0
 40
0.0855
  0
CIRCLE
  5
1EC
330
2
100
AcDbEntity
  8
0
100
AcDbCircle
 10
0.5250000000000048
 20
0.5859374999999991
 30
0.0
 40
0.0855
  0
ARC
  5
1ED
330
2
100
AcDbEntity
  8
0
100
AcDbCircle
 10
0.039500000000003
 20
0.0234374999999973
 30
0.0
 40
0.0854999999999997
100
AcDbArc
 50
344.0902539823935
 51
90.00000000000003
  0
ARC
  5
1EE
330
2
100
AcDbEntity
  8
0
100
AcDbCircle
 10
-0.0395000000000048
 20
0.0234374999999973
 30
0.0
 40
0.0854999999999997
100
AcDbArc
 50
90.00000000000003
 51
195.9097460176065
  0
LINE
  5
1EF
330
2
100
AcDbEntity
  8
0
100
AcDbLine
 10
-0.1217248964350262
 20
0.0468749999999956
 30
0.0
 11
0.1217248964350244
 21
0.0468749999999956
 31
0.0
  0
LINE
  5
1F0
330
2
100
AcDbEntity
  8
0
100
AcDbLine
 10
-0.0395000000000048
 20
0.108937499999997
 30
0.0
 11
0.039500000000003
 21
0.108937499999997
 31
0.0
  0
ARC
  5
1F1
330
2
100
AcDbEntity
  8
0
100
AcDbCircle
 10
1.335499999999995
 20
0.0234374999999973
 30
0.0
 40
0.0854999999999997
100
AcDbArc
 50
90.00000000000003
 51
195.9097460176065
  0
LINE
  5
1F2
330
2
100
AcDbEntity
  8
0
100
AcDbLine
 10
1.253275103564974
 20
0.0468749999999956
 30
0.0
 11
1.496724896435024
 21
0.0468749999999956
 31
0.0
  0
ARC
  5
1F3
330
2
100
AcDbEntity
  8
0
100
AcDbCircle
 10
1.414500000000003
 20
0.0234374999999973
 30
0.0
 40
0.0854999999999997
100
AcDbArc
 50
344.0902539823935
 51
90.00000000000003
  0
LINE
  5
1F4
330
2
100
AcDbEntity
  8
0
100
AcDbLine
 10
1.335499999999995
 20
0.108937499999997
 30
0.0
 11
1.414500000000003
 21
0.108937499999997
 31
0.0
  0
CIRCLE
  5
1F5
330
2
100
AcDbEntity
  8
0
100
AcDbCircle
 10
1.575000000000002
 20
0.9609374999999991
 30
0.0
 40
0.0855
  0
CIRCLE
  5
1F6
330
2
100
AcDbEntity
  8
0
100
AcDbCircle
 10
2.624999999999999
 20
0.5859374999999991
 30
0.0
 40
0.0855
  0
CIRCLE
  5
1F7
330
2
100
AcDbEntity
  8
0
100
AcDbCircle
 10
-2.625000000000001
 20
2.492187499999999
 30
0.0
 40
0.0855
  0
CIRCLE
  5
1F8
330
2
100
AcDbEntity
  8
0
100
AcDbCircle
 10
-0.5249999999999924
 20
2.492187499999999
 30
0.0
 40
0.0855
  0
CIRCLE
  5
1F9
330
2
100
AcDbEntity
  8
0
100
AcDbCircle
 10
-1.57499999999999
 20
2.117187499999999
 30
0.0
 40
0.0855
  0
CIRCLE
  5
1FA
330
2
100
AcDbEntity
  8
0
100
AcDbCircle
 10
1.575000000000002
 20
2.492187499999999
 30
0.0
 40
0.0855
  0
CIRCLE
  5
1FB
330
2
100
AcDbEntity
  8
0
100
AcDbCircle
 10
0.5250000000000048
 20
2.117187499999999
 30
0.0
 40
0.0855
  0
CIRCLE
  5
1FC
330
2
100
AcDbEntity
  8
0
100
AcDbCircle
 10
2.624999999999999
 20
2.117187499999999
 30
0.0
 40
0.0855
  0
LINE
  5
24A
330
2
100
AcDbEntity
  8
0
100
AcDbLine
 10
2.999999999999999
 20
6.419937469271978
 30
0.0
 11
2.999999999999999
 21
0.2734374999999991
 31
0.0
  0
LINE
  5
24B
330
2
100
AcDbEntity
  8
0
100
AcDbLine
 10
-3.000000000000001
 20
0.2734374999999991
 30
0.0
 11
-3.000000000000578
 21
6.419937469271461
 31
0.0
  0
LINE
  5
24C
330
2
100
AcDbEntity
  8
0
100
AcDbLine
 10
2.726562500000001
 20
0.0
 30
0.0
 11
-2.726562500000001
 21
0.0
 31
0.0
  0
LINE
  5
24D
330
2
100
AcDbEntity
  8
0
100
AcDbLine
 10
-2.726562500000001
 20
0.0
 30
0.0
 11
-3.000000000000001
 21
0.2734374999999991
 31
0.0
  0
LINE
  5
24E
330
2
100
AcDbEntity
  8
0
100
AcDbLine
 10
2.999999999999999
 20
0.2734374999999991
 30
0.0
 11
2.726562500000001
 21
0.0
 31
0.0
  0
LINE
  5
24F
330
2
100
AcDbEntity
  8
0
100
AcDbLine
 10
-0.7180836309533172
 20
2.899889463136307
 30
0.0
 11
-0.1325825214724796
 21
2.899889463136307
 31
0.0
  0
LINE
  5
250
330
2
100
AcDbEntity
  8
0
100
AcDbLine
 10
-0.7803749999999923
 20
3.023487500000008
 30
0.0
 11
-0.7803749999999932
 21
7.398437499999997
 31
0.0
  0
LINE
  5
251
330
2
100
AcDbEntity
  8
0
100
AcDbLine
 10
-0.8428749999999923
 20
3.023487500000008
 30
0.0
 11
-0.8428749999999949
 21
7.210937500009382
 31
0.0
  0
LWPOLYLINE
  5
252
330
2
100
AcDbEntity
  8
0
100
AcDbPolyline
 90
        4
 70
     1
 43
0.0
 10
-1.441501120968554
 20
6.980976413306828
 42
-0.9999999999999997
 10
-1.214748879031448
 20
6.875698586693171
 10
-2.183498879031434
 20
4.789160125154704
 42
-0.9999999999999994
 10
-2.410251120968554
 20
4.894437951768359
  0
LINE
  5
253
330
2
100
AcDbEntity
  8
0
100
AcDbLine
 10
-0.9921023147925476
 20
3.737793470362502
 30
0.0
 11
-0.8428749999999807
 21
3.626390602329724
 31
0.0
  0
LWPOLYLINE
  5
254
330
2
100
AcDbEntity
  8
0
100
AcDbPolyline
 90
        4
 70
     1
 43
0.0
 10
-1.441501120968554
 20
5.338586862865719
 42
-1.0
 10
-1.214748879031448
 20
5.233309036252064
 10
-2.183498879031448
 20
3.146770574713597
 42
-0.999999999999999
 10
-2.410251120968554
 20
3.252048401327255
  0
LINE
  5
255
330
2
100
AcDbEntity
  8
0
100
AcDbLine
 10
-0.7647500000000074
 20
2.884389463136308
 30
0.0
 11
-0.8897500000000074
 21
2.884389463136308
 31
0.0
  0
ARC
  5
256
330
2
100
AcDbEntity
  8
0
100
AcDbCircle
 10
-0.7647500000000109
 20
2.962389463136296
 30
0.0
 40
0.0779999999999887
100
AcDbArc
 50
270.0000000000027
 51
306.747295776884
  0
ARC
  5
257
330
2
100
AcDbEntity
  8
0
100
AcDbCircle
 10
-0.8897500000000074
 20
2.962389463136307
 30
0.0
 40
0.0779999999999994
100
AcDbArc
 50
90.0
 51
270.0
  0
LINE
  5
258
330
2
100
AcDbEntity
  8
0
100
AcDbLine
 10
-0.8428750000000074
 20
3.040389463136306
 30
0.0
 11
-0.8897500000000074
 21
3.040389463136306
 31
0.0
  0
LINE
  5
259
330
2
100
AcDbEntity
  8
0
100
AcDbLine
 10
-0.8428750000000074
 20
3.023487500000008
 30
0.0
 11
-0.7803750000000074
 21
3.023487500000008
 31
0.0
  0
LINE
  5
25A
330
2
100
AcDbEntity
  8
0
100
AcDbLine
 10
-0.9921023147925476
 20
3.737793470362502
 30
0.0
 11
-0.9921023147925476
 21
3.809081529637497
 31
0.0
  0
LINE
  5
25B
330
2
100
AcDbEntity
  8
0
100
AcDbLine
 10
-0.8428749999999807
 20
3.737793470362509
 30
0.0
 11
-0.9921023147925476
 21
3.737793470362502
 31
0.0
  0
LINE
  5
25C
330
2
100
AcDbEntity
  8
0
100
AcDbLine
 10
-0.8428749999999807
 20
3.809081529637502
 30
0.0
 11
-0.9921023147925476
 21
3.809081529637497
 31
0.0
  0
LINE
  5
25D
330
2
100
AcDbEntity
  8
0
100
AcDbLine
 10
-0.8428749999999807
 20
3.920484397590692
 30
0.0
 11
-0.9921023147925476
 21
3.809081529637497
 31
0.0
  0
LINE
  5
25E
330
2
100
AcDbEntity
  8
0
100
AcDbLine
 10
-0.9921023147925476
 20
5.237793470362502
 30
0.0
 11
-0.8428749999999807
 21
5.126390602329724
 31
0.0
  0
LINE
  5
25F
330
2
100
AcDbEntity
  8
0
100
AcDbLine
 10
-0.8428749999999807
 20
5.420484397590692
 30
0.0
 11
-0.9921023147925476
 21
5.309081529637497
 31
0.0
  0
LINE
  5
260
330
2
100
AcDbEntity
  8
0
100
AcDbLine
 10
-0.8428749999999807
 20
5.309081529637502
 30
0.0
 11
-0.9921023147925476
 21
5.309081529637497
 31
0.0
  0
LINE
  5
261
330
2
100
AcDbEntity
  8
0
100
AcDbLine
 10
-0.8428749999999807
 20
5.237793470362509
 30
0.0
 11
-0.9921023147925476
 21
5.237793470362502
 31
0.0
  0
LINE
  5
262
330
2
100
AcDbEntity
  8
0
100
AcDbLine
 10
-0.9921023147925476
 20
5.237793470362502
 30
0.0
 11
-0.9921023147925476
 21
5.309081529637497
 31
0.0
  0
LINE
  5
263
330
2
100
AcDbEntity
  8
0
100
AcDbLine
 10
-2.024747300474138
 20
7.398437499999655
 30
0.0
 11
-3.000000000000578
 21
6.419937469271461
 31
0.0
  0
LINE
  5
264
330
2
100
AcDbEntity
  8
0
100
AcDbLine
 10
-0.7803749999999949
 20
7.210937500009385
 30
0.0
 11
-0.8886281754676304
 21
7.398437500000001
 31
0.0
  0
LINE
  5
265
330
2
100
AcDbEntity
  8
0
100
AcDbLine
 10
-0.8428749999999949
 20
7.210937500009382
 30
0.0
 11
-0.9511281754676304
 21
7.398437499999997
 31
0.0
  0
LINE
  5
266
330
2
100
AcDbEntity
  8
0
100
AcDbLine
 10
-0.9921023147925476
 20
6.737793470362502
 30
0.0
 11
-0.8428749999999807
 21
6.626390602329724
 31
0.0
  0
LINE
  5
267
330
2
100
AcDbEntity
  8
0
100
AcDbLine
 10
-0.9921023147925476
 20
6.737793470362502
 30
0.0
 11
-0.9921023147925476
 21
6.809081529637497
 31
0.0
  0
LINE
  5
268
330
2
100
AcDbEntity
  8
0
100
AcDbLine
 10
-0.8428749999999807
 20
6.809081529637502
 30
0.0
 11
-0.9921023147925476
 21
6.809081529637497
 31
0.0
  0
LINE
  5
269
330
2
100
AcDbEntity
  8
0
100
AcDbLine
 10
-0.8428749999999807
 20
6.737793470362509
 30
0.0
 11
-0.9921023147925476
 21
6.737793470362502
 31
0.0
  0
LINE
  5
26A
330
2
100
AcDbEntity
  8
0
100
AcDbLine
 10
-0.8428749999999807
 20
6.920484397590692
 30
0.0
 11
-0.9921023147925476
 21
6.809081529637497
 31
0.0
  0
LINE
  5
26B
330
2
100
AcDbEntity
  8
0
100
AcDbLine
 10
-2.024747300474138
 20
7.398437499999655
 30
0.0
 11
-0.7803749999999932
 21
7.398437499999997
 31
0.0
  0
LWPOLYLINE
  5
26C
330
2
100
AcDbEntity
  8
0
100
AcDbPolyline
 90
        4
 70
     1
 43
0.0
 10
1.441501120968581
 20
6.980976413306828
 42
0.9999999999999997
 10
1.214748879031474
 20
6.875698586693171
 10
2.18349887903146
 20
4.789160125154704
 42
0.9999999999999994
 10
2.410251120968581
 20
4.894437951768359
  0
LINE
  5
26D
330
2
100
AcDbEntity
  8
0
100
AcDbLine
 10
0.7803750000000056
 20
3.023487500000008
 30
0.0
 11
0.7803750000000056
 21
7.398437499999999
 31
0.0
  0
LINE
  5
26E
330
2
100
AcDbEntity
  8
0
100
AcDbLine
 10
0.8428750000000056
 20
3.023487500000008
 30
0.0
 11
0.8428750000000074
 21
7.210937500009382
 31
0.0
  0
LWPOLYLINE
  5
26F
330
2
100
AcDbEntity
  8
0
100
AcDbPolyline
 90
        4
 70
     1
 43
0.0
 10
1.441501120968581
 20
5.338586862865719
 42
1.0
 10
1.214748879031474
 20
5.233309036252064
 10
2.183498879031474
 20
3.146770574713597
 42
0.999999999999999
 10
2.410251120968581
 20
3.252048401327255
  0
LINE
  5
270
330
2
100
AcDbEntity
  8
0
100
AcDbLine
 10
0.9921023147925743
 20
3.737793470362502
 30
0.0
 11
0.8428750000000074
 21
3.626390602329724
 31
0.0
  0
LINE
  5
271
330
2
100
AcDbEntity
  8
0
100
AcDbLine
 10
0.132582521472477
 20
2.899889463136307
 30
0.0
 11
0.7180836309533438
 21
2.899889463136307
 31
0.0
  0
LINE
  5
272
330
2
100
AcDbEntity
  8
0
100
AcDbLine
 10
-0.0000000000000009
 20
2.76730694166383
 30
0.0
 11
0.132582521472477
 21
2.899889463136307
 31
0.0
  0
LINE
  5
273
330
2
100
AcDbEntity
  8
0
100
AcDbLine
 10
-0.1325825214724787
 20
2.899889463136307
 30
0.0
 11
-0.0000000000000009
 21
2.76730694166383
 31
0.0
  0
LINE
  5
274
330
2
100
AcDbEntity
  8
0
100
AcDbLine
 10
0.8428750000000056
 20
3.040389463136306
 30
0.0
 11
0.8897500000000056
 21
3.040389463136306
 31
0.0
  0
LINE
  5
275
330
2
100
AcDbEntity
  8
0
100
AcDbLine
 10
0.8428750000000056
 20
3.023487500000008
 30
0.0
 11
0.7803750000000056
 21
3.023487500000008
 31
0.0
  0
ARC
  5
276
330
2
100
AcDbEntity
  8
0
100
AcDbCircle
 10
0.8897500000000056
 20
2.962389463136307
 30
0.0
 40
0.0779999999999994
100
AcDbArc
 50
270.0
 51
90.0
  0
LINE
  5
277
330
2
100
AcDbEntity
  8
0
100
AcDbLine
 10
0.7647500000000056
 20
2.884389463136308
 30
0.0
 11
0.8897500000000056
 21
2.884389463136308
 31
0.0
  0
ARC
  5
278
330
2
100
AcDbEntity
  8
0
100
AcDbCircle
 10
0.7647500000000091
 20
2.962389463136296
 30
0.0
 40
0.0779999999999887
100
AcDbArc
 50
233.2527042231161
 51
269.9999999999973
  0
LINE
  5
279
330
2
100
AcDbEntity
  8
0
100
AcDbLine
 10
0.8428750000000074
 20
3.920484397590692
 30
0.0
 11
0.9921023147925743
 21
3.809081529637497
 31
0.0
  0
LINE
  5
27A
330
2
100
AcDbEntity
  8
0
100
AcDbLine
 10
0.8428750000000074
 20
3.809081529637502
 30
0.0
 11
0.9921023147925743
 21
3.809081529637497
 31
0.0
  0
LINE
  5
27B
330
2
100
AcDbEntity
  8
0
100
AcDbLine
 10
0.8428750000000074
 20
3.737793470362509
 30
0.0
 11
0.9921023147925743
 21
3.737793470362502
 31
0.0
  0
LINE
  5
27C
330
2
100
AcDbEntity
  8
0
100
AcDbLine
 10
0.9921023147925743
 20
3.737793470362502
 30
0.0
 11
0.9921023147925743
 21
3.809081529637497
 31
0.0
  0
LINE
  5
27D
330
2
100
AcDbEntity
  8
0
100
AcDbLine
 10
0.9921023147925743
 20
5.237793470362502
 30
0.0
 11
0.8428750000000074
 21
5.126390602329724
 31
0.0
  0
LINE
  5
27E
330
2
100
AcDbEntity
  8
0
100
AcDbLine
 10
0.8428750000000074
 20
5.309081529637502
 30
0.0
 11
0.9921023147925743
 21
5.309081529637497
 31
0.0
  0
LINE
  5
27F
330
2
100
AcDbEntity
  8
0
100
AcDbLine
 10
0.8428750000000074
 20
5.237793470362509
 30
0.0
 11
0.9921023147925743
 21
5.237793470362502
 31
0.0
  0
LINE
  5
280
330
2
100
AcDbEntity
  8
0
100
AcDbLine
 10
0.8428750000000074
 20
5.420484397590692
 30
0.0
 11
0.9921023147925743
 21
5.309081529637497
 31
0.0
  0
LINE
  5
281
330
2
100
AcDbEntity
  8
0
100
AcDbLine
 10
0.9921023147925743
 20
5.237793470362502
 30
0.0
 11
0.9921023147925743
 21
5.309081529637497
 31
0.0
  0
LINE
  5
282
330
2
100
AcDbEntity
  8
0
100
AcDbLine
 10
0.7803750000000056
 20
7.398437499999999
 30
0.0
 11
2.024747300473391
 21
7.398437500000003
 31
0.0
  0
LINE
  5
283
330
2
100
AcDbEntity
  8
0
100
AcDbLine
 10
0.8428750000000074
 20
7.210937500009382
 30
0.0
 11
0.9511281754676428
 21
7.398437499999997
 31
0.0
  0
LINE
  5
284
330
2
100
AcDbEntity
  8
0
100
AcDbLine
 10
0.7803750000000074
 20
7.210937500009385
 30
0.0
 11
0.8886281754676428
 21
7.398437500000001
 31
0.0
  0
LINE
  5
285
330
2
100
AcDbEntity
  8
0
100
AcDbLine
 10
0.9921023147925743
 20
6.737793470362502
 30
0.0
 11
0.8428750000000074
 21
6.626390602329724
 31
0.0
  0
LINE
  5
286
330
2
100
AcDbEntity
  8
0
100
AcDbLine
 10
0.8428750000000074
 20
6.920484397590692
 30
0.0
 11
0.9921023147925743
 21
6.809081529637497
 31
0.0
  0
LINE
  5
287
330
2
100
AcDbEntity
  8
0
100
AcDbLine
 10
0.8428750000000074
 20
6.737793470362509
 30
0.0
 11
0.9921023147925743
 21
6.737793470362502
 31
0.0
  0
LINE
  5
288
330
2
100
AcDbEntity
  8
0
100
AcDbLine
 10
0.8428750000000074
 20
6.809081529637502
 30
0.0
 11
0.9921023147925743
 21
6.809081529637497
 31
0.0
  0
LINE
  5
289
330
2
100
AcDbEntity
  8
0
100
AcDbLine
 10
0.9921023147925743
 20
6.737793470362502
 30
0.0
 11
0.9921023147925743
 21
6.809081529637497
 31
0.0
  0
LINE
  5
28A
330
2
100
AcDbEntity
  8
0
100
AcDbLine
 10
2.024747300473391
 20
7.398437500000003
 30
0.0
 11
2.999999999999999
 21
6.419937469271978
 31
0.0
  0
ENDSEC
  0
SECTION
  2
OBJECTS
  0
DICTIONARY
  5
9
330
0
100
AcDbDictionary
281
     1
  3
ACAD_COLOR
350
143
  3
ACAD_GROUP
350
23
  3
ACAD_LAYOUT
350
D
  3
ACAD_MATERIAL
350
142
  3
ACAD_MLINESTYLE
350
24
  3
ACAD_PLOTSETTINGS
350
25
  3
ACAD_PLOTSTYLENAME
350
8
  3
ACAD_TABLESTYLE
350
144
  3
ACDBHEADERROUNDTRIPXREC
350
29C
  3
AcDbVariableDictionary
350
13E
  0
DICTIONARY
  5
3
330
2
100
AcDbDictionary
280
     1
281
     1
  3
ACAD_SORTENTS
360
14C
  0
DICTIONARY
  5
143
102
{ACAD_REACTORS
330
9
102
}
330
9
100
AcDbDictionary
281
     1
  0
DICTIONARY
  5
23
102
{ACAD_REACTORS
330
9
102
}
330
9
100
AcDbDictionary
281
     1
  0
DICTIONARY
  5
D
102
{ACAD_REACTORS
330
9
102
}
330
9
100
AcDbDictionary
281
     1
  3
Layout1
350
13
  3
Model
350
C
  0
DICTIONARY
  5
142
102
{ACAD_REACTORS
330
9
102
}
330
9
100
AcDbDictionary
281
     1
  0
DICTIONARY
  5
24
102
{ACAD_REACTORS
330
9
102
}
330
9
100
AcDbDictionary
281
     1
  3
STANDARD
350
27
  0
DICTIONARY
  5
25
102
{ACAD_REACTORS
330
9
102
}
330
9
100
AcDbDictionary
281
     1
  0
ACDBDICTIONARYWDFLT
  5
8
102
{ACAD_REACTORS
330
9
102
}
330
9
100
AcDbDictionary
281
     1
  3
Normal
350
7
100
AcDbDictionaryWithDefault
340
7
  0
DICTIONARY
  5
144
102
{ACAD_REACTORS
330
9
102
}
330
9
100
AcDbDictionary
281
     1
  3
Standard
350
145
  0
DICTIONARY
  5
29C
102
{ACAD_REACTORS
330
9
102
}
330
9
100
AcDbDictionary
281
     1
  3
COLORDICT
350
29D
  3
MATERIALDICT
350
29E
  0
DICTIONARY
  5
13E
102
{ACAD_REACTORS
330
9
102
}
330
9
100
AcDbDictionary
281
     1
  3
CTABLESTYLE
350
292
  3
HIDETEXT
350
29B
  0
SORTENTSTABLE
  5
14C
102
{ACAD_REACTORS
330
3
102
}
330
3
100
AcDbSortentsTable
330
2
331
161
  5
1F4
331
1DD
  5
1A0
331
264
  5
264
331
1F3
  5
160
331
194
  5
1D1
331
1D4
  5
197
331
284
  5
284
331
188
  5
1C5
331
1B8
  5
17B
331
1BD
  5
180
331
18F
  5
1CC
331
1C2
  5
185
331
1E9
  5
156
331
1C7
  5
18A
331
1FA
  5
167
331
275
  5
275
331
1A1
  5
1DE
331
25A
  5
25A
331
276
  5
276
331
1C8
  5
18B
331
198
  5
1D5
331
18D
  5
1CA
331
15C
  5
1EF
331
25B
  5
25B
331
16E
  5
1AB
331
27D
  5
27D
331
27E
  5
27E
331
18C
  5
1C9
331
153
  5
1E6
331
1B7
  5
17A
331
1F0
  5
15D
331
1AB
  5
16E
331
16A
  5
1A7
331
267
  5
267
331
1F9
  5
166
331
19A
  5
1D7
331
176
  5
1B3
331
172
  5
1AF
331
1BF
  5
182
331
287
  5
287
331
154
  5
1E7
331
17C
  5
1B9
331
253
  5
253
331
1F6
  5
163
331
17A
  5
1B7
331
171
  5
1AE
331
196
  5
1D3
331
24C
  5
24C
331
272
  5
272
331
16B
  5
1A8
331
1A5
  5
1E2
331
1E2
  5
1A5
331
185
  5
1C2
331
1D6
  5
199
331
1CF
  5
192
331
1ED
  5
15A
331
278
  5
278
331
1DA
  5
19D
331
17B
  5
1B8
331
1E6
  5
153
331
168
  5
1FB
331
282
  5
282
331
1A7
  5
16A
331
158
  5
1EB
331
197
  5
1D4
331
270
  5
270
331
174
  5
1B1
331
1C4
  5
187
331
1A2
  5
1DF
331
18E
  5
1CB
331
15D
  5
1F0
331
177
  5
1B4
331
262
  5
262
331
1E3
  5
1A6
331
182
  5
1BF
331
1EC
  5
159
331
18B
  5
1C8
331
1D2
  5
195
331
155
  5
1E8
331
24D
  5
24D
331
175
  5
1B2
331
195
  5
1D2
331
1E1
  5
1A4
331
1D7
  5
19A
331
289
  5
289
331
28A
  5
28A
331
169
  5
1FC
331
159
  5
1EC
331
1F2
  5
15F
331
1B4
  5
177
331
173
  5
1B0
331
281
  5
281
331
1B1
  5
174
331
178
  5
1B5
331
1AA
  5
16D
331
183
  5
1C0
331
261
  5
261
331
19C
  5
1D9
331
1B9
  5
17C
331
157
  5
1EA
331
1CC
  5
18F
331
15B
  5
1EE
331
17F
  5
1BC
331
260
  5
260
331
1EE
  5
15B
331
1EA
  5
157
331
166
  5
1F9
331
1F7
  5
164
331
273
  5
273
331
26A
  5
26A
331
26F
  5
26F
331
26E
  5
26E
331
26C
  5
26C
331
26B
  5
26B
331
1D0
  5
193
331
1EB
  5
158
331
199
  5
1D6
331
189
  5
1C6
331
1F4
  5
161
331
1DF
  5
1A2
331
1E0
  5
1A3
331
17D
  5
1BA
331
1FB
  5
168
331
285
  5
285
331
1CD
  5
190
331
191
  5
1CE
331
27B
  5
27B
331
193
  5
1D0
331
1BE
  5
181
331
1C6
  5
189
331
1CE
  5
191
331
1BA
  5
17D
331
151
  5
1E4
331
1CA
  5
18D
331
170
  5
1AD
331
1C1
  5
184
331
1A6
  5
1E3
331
1AF
  5
172
331
1CB
  5
18E
331
1A0
  5
1DD
331
1BC
  5
17F
331
162
  5
1F5
331
1D1
  5
194
331
19F
  5
1DC
331
19D
  5
1DA
331
1D5
  5
198
331
256
  5
256
331
1D8
  5
19B
331
1B2
  5
175
331
1E5
  5
152
331
1B3
  5
176
331
1C0
  5
183
331
17E
  5
1BB
331
1AD
  5
170
331
1BB
  5
17E
331
1DE
  5
1A1
331
1AE
  5
171
331
18A
  5
1C7
331
1E7
  5
154
331
24F
  5
24F
331
25D
  5
25D
331
16D
  5
1AA
331
1B0
  5
173
331
152
  5
1E5
331
250
  5
250
331
252
  5
252
331
280
  5
280
331
1F8
  5
165
331
184
  5
1C1
331
26D
  5
26D
331
1FC
  5
169
331
268
  5
268
331
266
  5
266
331
19E
  5
1DB
331
1DB
  5
19E
331
190
  5
1CD
331
27F
  5
27F
331
1B5
  5
178
331
1C5
  5
188
331
271
  5
271
331
179
  5
1B6
331
192
  5
1CF
331
27A
  5
27A
331
1A4
  5
1E1
331
1EF
  5
15C
331
265
  5
265
331
1D9
  5
19C
331
16F
  5
1AC
331
254
  5
254
331
259
  5
259
331
167
  5
1FA
331
269
  5
269
331
165
  5
1F8
331
255
  5
255
331
164
  5
1F7
331
25C
  5
25C
331
187
  5
1C4
331
1F5
  5
162
331
24A
  5
24A
331
258
  5
258
331
257
  5
257
331
25F
  5
25F
331
251
  5
251
331
15F
  5
1F2
331
288
  5
288
331
279
  5
279
331
286
  5
286
331
263
  5
263
331
1E8
  5
155
331
186
  5
1C3
331
1D3
  5
196
331
24E
  5
24E
331
24B
  5
24B
331
274
  5
274
331
15E
  5
1F1
331
25E
  5
25E
331
19B
  5
1D8
331
1A3
  5
1E0
331
181
  5
1BE
331
1F1
  5
15E
331
277
  5
277
331
180
  5
1BD
331
1AC
  5
16F
331
1B6
  5
179
331
156
  5
1E9
331
1C3
  5
186
331
1A9
  5
16C
331
16C
  5
1A9
331
283
  5
283
331
1A8
  5
16B
331
1C9
  5
18C
331
1DC
  5
19F
331
27C
  5
27C
  0
LAYOUT
  5
13
102
{ACAD_REACTORS
330
D
102
}
102
{ACAD_XDICTIONARY
360
29F
102
}
330
D
100
AcDbPlotSettings
  1

  2
HP LaserJet 4
  4

  6

 40
0.0
 41
0.0
 42
0.0
 43
0.0
 44
0.0
 45
0.0
 46
0.0
 47
0.0
 48
0.0
 49
0.0
140
0.0
141
0.0
142
1.0
143
1.0
 70
   688
 72
     0
 73
     0
 74
     5
  7

 75
    16
147
1.0
148
0.0
149
0.0
100
AcDbLayout
  1
Layout1
 70
     0
 71
     1
 10
0.0
 20
0.0
 11
12.0
 21
9.0
 12
0.0
 22
0.0
 32
0.0
 14
1.000000000000000E+20
 24
1.000000000000000E+20
 34
1.000000000000000E+20
 15
-1.000000000000000E+20
 25
-1.000000000000000E+20
 35
-1.000000000000000E+20
146
0.0
 13
0.0
 23
0.0
 33
0.0
 16
1.0
 26
0.0
 36
0.0
 17
0.0
 27
1.0
 37
0.0
 76
     0
330
E
  0
LAYOUT
  5
C
102
{ACAD_REACTORS
330
D
102
}
102
{ACAD_XDICTIONARY
360
2A1
102
}
330
D
100
AcDbPlotSettings
  1

  2
HP LaserJet 4
  4
Letter
  6

 40
7.143749713897705
 41
6.127734661102295
 42
7.14373779296875
 43
7.14373779296875
 44
215.8999938964844
 45
279.3999938964844
 46
0.0
 47
0.0
 48
0.0
 49
0.0
140
0.0
141
0.0
142
1.0
143
1.0
 70
 11952
 72
     0
 73
     1
 74
     0
  7

 75
     0
147
1.0
148
-167.083527895903
149
6.421373101192719
100
AcDbLayout
  1
Model
 70
     1
 71
     0
 10
0.0
 20
0.0
 11
12.0
 21
9.0
 12
0.0
 22
0.0
 32
0.0
 14
0.0
 24
0.0
 34
0.0
 15
0.0
 25
0.0
 35
0.0
146
0.0
 13
0.0
 23
0.0
 33
0.0
 16
1.0
 26
0.0
 36
0.0
 17
0.0
 27
1.0
 37
0.0
 76
     0
330
2
  0
MLINESTYLE
  5
27
102
{ACAD_REACTORS
330
24
102
}
330
24
100
AcDbMlineStyle
  2
STANDARD
 70
     0
  3

 62
   256
 51
90.0
 52
90.0
 71
     2
 49
0.5
 62
   256
  6
BYLAYER
 49
-0.5
 62
   256
  6
BYLAYER
  0
ACDBPLACEHOLDER
  5
7
102
{ACAD_REACTORS
330
8
102
}
330
8
  0
ACAD_PROXY_OBJECT
  5
145
102
{ACAD_REACTORS
330
144
102
}
330
144
100
AcDbProxyObject
 90
      499
 91
      577
 95
   393239
 70
     0
 93
     1841
310
4214DD185B99185C9928B81E85EB51B8AE3F2E07A17AD46E2B8FC02B5E8DC0F42B1CFD028000000C1008070000C3001FDFF8000000C1003FBFF000000182007F7FE00000030400FEFFC00000060801FDFF8000000C1003FBFF00000018200000000000000681FA0B0000001820100E000186003FBFF000000182007F7FE000
310
00030400FEFFC00000060801FDFF8000000C1003FBFF000000182007F7FE000000304000AD7A3703D0AC73F4160000003040201C00030C007F7FE00000030400FEFFC00000060801FDFF8000000C1003FBFF000000182007F7FE00000030400FEFFC000000608000
340
16
340
16
340
16
 94
        0
  0
XRECORD
  5
29D
102
{ACAD_REACTORS
330
29C
102
}
330
29C
100
AcDbXrecord
340
143
  0
XRECORD
  5
29E
102
{ACAD_REACTORS
330
29C
102
}
330
29C
100
AcDbXrecord
340
142
  0
DICTIONARYVAR
  5
292
102
{ACAD_REACTORS
330
13E
102
}
330
13E
100
DictionaryVariables
280
     0
  1
STANDARD
  0
DICTIONARYVAR
  5
29B
102
{ACAD_REACTORS
330
13E
102
}
330
13E
100
DictionaryVariables
280
     0
  1
0
  0
DICTIONARY
  5
29F
330
13
100
AcDbDictionary
280
     1
281
     1
  3
ACAD_XREC_ROUNDTRIP
360
2A0
  0
DICTIONARY
  5
2A1
330
C
100
AcDbDictionary
280
     1
281
     1
  3
ACAD_XREC_ROUNDTRIP
360
2A2
  0
XRECORD
  5
2A0
102
{ACAD_REACTORS
330
29F
102
}
330
29F
100
AcDbXrecord
102
SHADEPLOT
 70
     0
102
SHADEPLOTRESLEVEL
 70
     2
102
SHADEPLOTCUSTOMDPI
 70
   300
  0
XRECORD
  5
2A2
102
{ACAD_REACTORS
330
2A1
102
}
330
2A1
100
AcDbXrecord
102
SHADEPLOT
 70
     0
102
SHADEPLOTRESLEVEL
 70
     2
102
SHADEPLOTCUSTOMDPI
 70
   300
  0
ENDSEC
  0
EOF
