  0
SECTION
  2
HEADER
  9
$ACADVER
  1
AC1015
  9
$ACADMAINTVER
 70
     6
  9
$DWGCODEPAGE
  3
ANSI_1252
  9
$INSBASE
 10
0.0
 20
0.0
 30
0.0
  9
$EXTMIN
 10
-20.57475791851738
 20
-0.0001919352663577
 30
-0.0015258207003583
  9
$EXTMAX
 10
21.80963867629924
 20
33.5624537414232
 30
0.0000000349246037
  9
$LIMMIN
 10
0.0
 20
0.0
  9
$LIMMAX
 10
40.0
 20
52.5
  9
$ORTHOMODE
 70
     1
  9
$REGENMODE
 70
     1
  9
$FILLMODE
 70
     1
  9
$QTEXTMODE
 70
     0
  9
$MIRRTEXT
 70
     0
  9
$LTSCALE
 40
0.75
  9
$ATTMODE
 70
     1
  9
$TEXTSIZE
 40
0.36
  9
$TRACEWID
 40
0.05
  9
$TEXTSTYLE
  7
STANDARD
  9
$CLAYER
  8
0
  9
$CELTYPE
  6
BYLAYER
  9
$CECOLOR
 62
   256
  9
$CELTSCALE
 40
1.0
  9
$DISPSILH
 70
     0
  9
$DIMSCALE
 40
4.0
  9
$DIMASZ
 40
0.125
  9
$DIMEXO
 40
0.062
  9
$DIMDLI
 40
0.375
  9
$DIMRND
 40
0.0
  9
$DIMDLE
 40
0.0
  9
$DIMEXE
 40
0.08
  9
$DIMTP
 40
0.0
  9
$DIMTM
 40
0.0
  9
$DIMTXT
 40
0.09
  9
$DIMCEN
 40
-0.03125
  9
$DIMTSZ
 40
0.0
  9
$DIMTOL
 70
     0
  9
$DIMLIM
 70
     0
  9
$DIMTIH
 70
     1
  9
$DIMTOH
 70
     1
  9
$DIMSE1
 70
     0
  9
$DIMSE2
 70
     0
  9
$DIMTAD
 70
     0
  9
$DIMZIN
 70
     0
  9
$DIMBLK
  1

  9
$DIMASO
 70
     0
  9
$DIMSHO
 70
     0
  9
$DIMPOST
  1

  9
$DIMAPOST
  1

  9
$DIMALT
 70
     0
  9
$DIMALTD
 70
     2
  9
$DIMALTF
 40
25.4
  9
$DIMLFAC
 40
1.0
  9
$DIMTOFL
 70
     0
  9
$DIMTVP
 40
0.0
  9
$DIMTIX
 70
     0
  9
$DIMSOXD
 70
     0
  9
$DIMSAH
 70
     0
  9
$DIMBLK1
  1

  9
$DIMBLK2
  1

  9
$DIMSTYLE
  2
STANDARD
  9
$DIMCLRD
 70
     0
  9
$DIMCLRE
 70
     0
  9
$DIMCLRT
 70
     0
  9
$DIMTFAC
 40
1.0
  9
$DIMGAP
 40
0.09
  9
$DIMJUST
 70
     0
  9
$DIMSD1
 70
     0
  9
$DIMSD2
 70
     0
  9
$DIMTOLJ
 70
     1
  9
$DIMTZIN
 70
     0
  9
$DIMALTZ
 70
     0
  9
$DIMALTTZ
 70
     0
  9
$DIMUPT
 70
     0
  9
$DIMDEC
 70
     5
  9
$DIMTDEC
 70
     5
  9
$DIMALTU
 70
     2
  9
$DIMALTTD
 70
     2
  9
$DIMTXSTY
  7
STANDARD
  9
$DIMAUNIT
 70
     0
  9
$DIMADEC
 70
     0
  9
$DIMALTRND
 40
0.0
  9
$DIMAZIN
 70
     0
  9
$DIMDSEP
 70
    46
  9
$DIMATFIT
 70
     3
  9
$DIMFRAC
 70
     2
  9
$DIMLDRBLK
  1

  9
$DIMLUNIT
 70
     5
  9
$DIMLWD
 70
    -2
  9
$DIMLWE
 70
    -2
  9
$DIMTMOVE
 70
     2
  9
$LUNITS
 70
     2
  9
$LUPREC
 70
     4
  9
$SKETCHINC
 40
0.1
  9
$FILLETRAD
 40
0.0
  9
$AUNITS
 70
     0
  9
$AUPREC
 70
     0
  9
$MENU
  1
qa
  9
$ELEVATION
 40
0.0
  9
$PELEVATION
 40
0.0
  9
$THICKNESS
 40
0.0
  9
$LIMCHECK
 70
     0
  9
$CHAMFERA
 40
0.0
  9
$CHAMFERB
 40
0.0
  9
$CHAMFERC
 40
0.0
  9
$CHAMFERD
 40
0.0
  9
$SKPOLY
 70
     0
  9
$TDCREATE
 40
2449916.968744908
  9
$TDUCREATE
 40
2449917.302078241
  9
$TDUPDATE
 40
2454181.739261296
  9
$TDUUPDATE
 40
2454182.07259463
  9
$TDINDWG
 40
0.0408291088
  9
$TDUSRTIMER
 40
0.0408291088
  9
$USRTIMER
 70
     1
  9
$ANGBASE
 50
0.0
  9
$ANGDIR
 70
     0
  9
$PDMODE
 70
     0
  9
$PDSIZE
 40
0.0
  9
$PLINEWID
 40
0.0
  9
$SPLFRAME
 70
     0
  9
$SPLINETYPE
 70
     6
  9
$SPLINESEGS
 70
     8
  9
$HANDSEED
  5
3A2
  9
$SURFTAB1
 70
     6
  9
$SURFTAB2
 70
     6
  9
$SURFTYPE
 70
     6
  9
$SURFU
 70
     6
  9
$SURFV
 70
     6
  9
$UCSBASE
  2

  9
$UCSNAME
  2

  9
$UCSORG
 10
0.0
 20
0.0
 30
0.0
  9
$UCSXDIR
 10
1.0
 20
0.0
 30
0.0
  9
$UCSYDIR
 10
0.0
 20
1.0
 30
0.0
  9
$UCSORTHOREF
  2

  9
$UCSORTHOVIEW
 70
     0
  9
$UCSORGTOP
 10
0.0
 20
0.0
 30
0.0
  9
$UCSORGBOTTOM
 10
0.0
 20
0.0
 30
0.0
  9
$UCSORGLEFT
 10
0.0
 20
0.0
 30
0.0
  9
$UCSORGRIGHT
 10
0.0
 20
0.0
 30
0.0
  9
$UCSORGFRONT
 10
0.0
 20
0.0
 30
0.0
  9
$UCSORGBACK
 10
0.0
 20
0.0
 30
0.0
  9
$PUCSBASE
  2

  9
$PUCSNAME
  2

  9
$PUCSORG
 10
0.0
 20
0.0
 30
0.0
  9
$PUCSXDIR
 10
1.0
 20
0.0
 30
0.0
  9
$PUCSYDIR
 10
0.0
 20
1.0
 30
0.0
  9
$PUCSORTHOREF
  2

  9
$PUCSORTHOVIEW
 70
     0
  9
$PUCSORGTOP
 10
0.0
 20
0.0
 30
0.0
  9
$PUCSORGBOTTOM
 10
0.0
 20
0.0
 30
0.0
  9
$PUCSORGLEFT
 10
0.0
 20
0.0
 30
0.0
  9
$PUCSORGRIGHT
 10
0.0
 20
0.0
 30
0.0
  9
$PUCSORGFRONT
 10
0.0
 20
0.0
 30
0.0
  9
$PUCSORGBACK
 10
0.0
 20
0.0
 30
0.0
  9
$USERI1
 70
     0
  9
$USERI2
 70
     0
  9
$USERI3
 70
     0
  9
$USERI4
 70
     0
  9
$USERI5
 70
     0
  9
$USERR1
 40
0.0
  9
$USERR2
 40
0.0
  9
$USERR3
 40
0.0
  9
$USERR4
 40
0.0
  9
$USERR5
 40
0.0
  9
$WORLDVIEW
 70
     1
  9
$SHADEDGE
 70
     3
  9
$SHADEDIF
 70
    70
  9
$TILEMODE
 70
     1
  9
$MAXACTVP
 70
    16
  9
$PINSBASE
 10
0.0
 20
0.0
 30
0.0
  9
$PLIMCHECK
 70
     0
  9
$PEXTMIN
 10
1.000000000000000E+20
 20
1.000000000000000E+20
 30
1.000000000000000E+20
  9
$PEXTMAX
 10
-1.000000000000000E+20
 20
-1.000000000000000E+20
 30
-1.000000000000000E+20
  9
$PLIMMIN
 10
0.0
 20
0.0
  9
$PLIMMAX
 10
12.0
 20
9.0
  9
$UNITMODE
 70
     0
  9
$VISRETAIN
 70
     0
  9
$PLINEGEN
 70
     0
  9
$PSLTSCALE
 70
     0
  9
$TREEDEPTH
 70
  3020
  9
$CMLSTYLE
  2
STANDARD
  9
$CMLJUST
 70
     0
  9
$CMLSCALE
 40
1.0
  9
$PROXYGRAPHICS
 70
     1
  9
$MEASUREMENT
 70
     0
  9
$CELWEIGHT
370
    -1
  9
$ENDCAPS
280
     0
  9
$JOINSTYLE
280
     0
  9
$LWDISPLAY
290
     0
  9
$INSUNITS
 70
     0
  9
$HYPERLINKBASE
  1

  9
$STYLESHEET
  1

  9
$XEDIT
290
     1
  9
$CEPSNTYPE
380
     0
  9
$PSTYLEMODE
290
     1
  9
$FINGERPRINTGUID
  2
{6373DD39-55A5-11D5-BE3F-00508B5FCD51}
  9
$VERSIONGUID
  2
{59776C30-E1AE-4F6E-9C72-3693D566FC72}
  9
$EXTNAMES
290
     1
  9
$PSVPSCALE
 40
0.0
  9
$OLESTARTUP
290
     0
  0
ENDSEC
  0
SECTION
  2
CLASSES
  0
CLASS
  1
DICTIONARYVAR
  2
AcDbDictionaryVar
  3
AutoCAD 2000
 90
        0
280
     0
281
     0
  0
CLASS
  1
LWPOLYLINE
  2
AcDbPolyline
  3
AutoCAD 2000
 90
        0
280
     0
281
     1
  0
CLASS
  1
ACDBDICTIONARYWDFLT
  2
AcDbDictionaryWithDefault
  3
AutoCAD 2000
 90
        0
280
     0
281
     0
  0
CLASS
  1
ACDBPLACEHOLDER
  2
AcDbPlaceHolder
  3
ObjectDBX Classes
 90
        0
280
     0
281
     0
  0
CLASS
  1
LAYOUT
  2
AcDbLayout
  3
ObjectDBX Classes
 90
        0
280
     0
281
     0
  0
CLASS
  1
LONG_TRANSACTION
  2
AcDbLongTransaction
  3
ObjectDBX Classes
 90
   -65536
280
     1
281
     0
  0
CLASS
  1
LWPOLYLINE
  2
AcDbPolyline
  3
AutoCAD 2000
 90
        0
280
     0
281
     1
  0
CLASS
  1
HATCH
  2
AcDbHatch
  3
AutoCAD 2000
 90
        0
280
     0
281
     1
  0
CLASS
  1
XRECORD
  2
AcDbXrecord
  3
AutoCAD 2000
 90
        0
280
     0
281
     0
  0
CLASS
  1
LONG_TRANSACTION
  2
AcDbLongTransaction
  3
ObjectDBX Classes
 90
   -65536
280
     1
281
     0
  0
CLASS
  1
LWPOLYLINE
  2
AcDbPolyline
  3
AutoCAD 2000
 90
        0
280
     0
281
     1
  0
CLASS
  1
HATCH
  2
AcDbHatch
  3
AutoCAD 2000
 90
        0
280
     0
281
     1
  0
CLASS
  1
XRECORD
  2
AcDbXrecord
  3
AutoCAD 2000
 90
        0
280
     0
281
     0
  0
CLASS
  1
LONG_TRANSACTION
  2
AcDbLongTransaction
  3
ObjectDBX Classes
 90
   -65536
280
     1
281
     0
  0
CLASS
  1
LWPOLYLINE
  2
AcDbPolyline
  3
AutoCAD 2000
 90
        0
280
     0
281
     1
  0
CLASS
  1
HATCH
  2
AcDbHatch
  3
AutoCAD 2000
 90
        0
280
     0
281
     1
  0
CLASS
  1
XRECORD
  2
AcDbXrecord
  3
AutoCAD 2000
 90
        0
280
     0
281
     0
  0
CLASS
  1
TABLESTYLE
  2
AcDbTableStyle
  3
ObjectDBX Classes
 90
     2047
280
     1
281
     0
  0
CLASS
  1
SORTENTSTABLE
  2
AcDbSortentsTable
  3
AutoCAD 2000
 90
        0
280
     0
281
     0
  0
ENDSEC
  0
SECTION
  2
TABLES
  0
TABLE
  2
VPORT
  5
1D
330
0
100
AcDbSymbolTable
 70
     2
  0
VPORT
  5
394
330
1D
100
AcDbSymbolTableRecord
100
AcDbViewportTableRecord
  2
*Active
 70
     0
 10
0.0
 20
0.0
 11
1.0
 21
1.0
 12
9.712621040741308
 22
26.24990403236682
 13
0.0
 23
0.0
 14
0.063
 24
0.063
 15
0.25
 25
0.25
 16
0.0
 26
0.0
 36
1.0
 17
0.0
 27
0.0
 37
0.0
 40
53.15507998435491
 41
1.814583333333333
 42
50.0
 43
0.0
 44
0.0
 50
0.0
 51
0.0
 71
     0
 72
   100
 73
     1
 74
     0
 75
     0
 76
     0
 77
     0
 78
     0
281
     0
 65
     1
110
0.0
120
0.0
130
0.0
111
1.0
121
0.0
131
0.0
112
0.0
122
1.0
132
0.0
 79
     0
146
0.0
  0
ENDTAB
  0
TABLE
  2
LTYPE
  5
18
330
0
100
AcDbSymbolTable
 70
     2
  0
LTYPE
  5
19
330
18
100
AcDbSymbolTableRecord
100
AcDbLinetypeTableRecord
  2
BYBLOCK
 70
     0
  3

 72
    65
 73
     0
 40
0.0
  0
LTYPE
  5
1A
330
18
100
AcDbSymbolTableRecord
100
AcDbLinetypeTableRecord
  2
BYLAYER
 70
     0
  3

 72
    65
 73
     0
 40
0.0
  0
LTYPE
  5
A
330
18
100
AcDbSymbolTableRecord
100
AcDbLinetypeTableRecord
  2
CONTINUOUS
 70
     0
  3
Solid line
 72
    65
 73
     0
 40
0.0
  0
LTYPE
  5
393
330
18
100
AcDbSymbolTableRecord
100
AcDbLinetypeTableRecord
  2
HIDDEN
 70
     0
  3
Hidden __ __ __ __ __ __ __ __ __ __ __ __ __ _
 72
    65
 73
     2
 40
0.375
 49
0.25
 74
     0
 49
-0.125
 74
     0
  0
ENDTAB
  0
TABLE
  2
LAYER
  5
14
330
0
100
AcDbSymbolTable
 70
     1
  0
LAYER
  5
6
330
14
100
AcDbSymbolTableRecord
100
AcDbLayerTableRecord
  2
0
 70
     0
 62
     7
  6
CONTINUOUS
370
    -3
390
7
  0
ENDTAB
  0
TABLE
  2
STYLE
  5
15
330
0
100
AcDbSymbolTable
 70
     2
  0
STYLE
  5
16
330
15
100
AcDbSymbolTableRecord
100
AcDbTextStyleTableRecord
  2
STANDARD
 70
     0
 40
0.0
 41
1.0
 50
0.0
 71
     0
 42
0.36
  3
TXT
  4

  0
STYLE
  5
392
330
15
100
AcDbSymbolTableRecord
100
AcDbTextStyleTableRecord
  2

 70
     1
 40
0.0
 41
1.0
 50
0.0
 71
     0
 42
0.36
  3
ltypeshp.shx
  4

  0
ENDTAB
  0
TABLE
  2
VIEW
  5
1B
330
0
100
AcDbSymbolTable
 70
     0
  0
ENDTAB
  0
TABLE
  2
UCS
  5
1C
330
0
100
AcDbSymbolTable
 70
     0
  0
ENDTAB
  0
TABLE
  2
APPID
  5
1F
330
0
100
AcDbSymbolTable
 70
     1
  0
APPID
  5
20
330
1F
100
AcDbSymbolTableRecord
100
AcDbRegAppTableRecord
  2
ACAD
 70
     0
  0
ENDTAB
  0
TABLE
  2
DIMSTYLE
  5
21
330
0
100
AcDbSymbolTable
 70
     1
100
AcDbDimStyleTable
  0
DIMSTYLE
105
28
330
21
100
AcDbSymbolTableRecord
100
AcDbDimStyleTableRecord
  2
STANDARD
 70
     0
  3

  4

340
16
  0
ENDTAB
  0
TABLE
  2
BLOCK_RECORD
  5
1
330
0
100
AcDbSymbolTable
 70
     0
  0
BLOCK_RECORD
  5
2
102
{ACAD_XDICTIONARY
360
3
102
}
330
1
100
AcDbSymbolTableRecord
100
AcDbBlockTableRecord
  2
*MODEL_SPACE
340
C
  0
BLOCK_RECORD
  5
E
330
1
100
AcDbSymbolTableRecord
100
AcDbBlockTableRecord
  2
*PAPER_SPACE
340
13
  0
ENDTAB
  0
ENDSEC
  0
SECTION
  2
BLOCKS
  0
BLOCK
  5
5
330
2
100
AcDbEntity
  8
0
100
AcDbBlockBegin
  2
*MODEL_SPACE
 70
     0
 10
0.0
 20
0.0
 30
0.0
  3
*MODEL_SPACE
  1

  4

  0
ENDBLK
  5
B
330
2
100
AcDbEntity
  8
0
100
AcDbBlockEnd
  0
BLOCK
  5
11
330
E
100
AcDbEntity
 67
     1
  8
0
100
AcDbBlockBegin
  2
*PAPER_SPACE
 70
     0
 10
0.0
 20
0.0
 30
0.0
  3
*PAPER_SPACE
  1

  4

  0
ENDBLK
  5
12
330
E
100
AcDbEntity
 67
     1
  8
0
100
AcDbBlockEnd
  0
ENDSEC
  0
SECTION
  2
ENTITIES
  0
LINE
  5
1CD
330
2
100
AcDbEntity
  8
0
100
AcDbLine
 10
-0.1139999999999972
 20
33.53817389697319
 30
0.0
 11
-2.557000000000002
 21
33.53817389697319
 31
0.0
  0
LINE
  5
1CE
330
2
100
AcDbEntity
  8
0
100
AcDbLine
 10
-0.1140000000000114
 20
33.48117389697319
 30
0.0
 11
-2.557000000000002
 21
33.48117389697319
 31
0.0
  0
LINE
  5
1CF
330
2
100
AcDbEntity
  8
0
100
AcDbLine
 10
-2.556999999999995
 20
33.53817389697319
 30
0.0
 11
-2.556999999999995
 21
33.48117389697319
 31
0.0
  0
LINE
  5
1D0
330
2
100
AcDbEntity
  8
0
100
AcDbLine
 10
4.181999999999999
 20
33.48117389697319
 30
0.0
 11
1.739000000000001
 21
33.48117389697319
 31
0.0
  0
LINE
  5
1D1
330
2
100
AcDbEntity
  8
0
100
AcDbLine
 10
4.181999999999999
 20
33.53817389697318
 30
0.0
 11
1.739000000000008
 21
33.53817389697319
 31
0.0
  0
ARC
  5
1D2
330
2
100
AcDbEntity
  8
0
100
AcDbCircle
 10
0.0
 20
30.98117389697319
 30
0.0
 40
0.0855
100
AcDbArc
 50
0.0000000000023981
 51
90.0
  0
LINE
  5
1D3
330
2
100
AcDbEntity
  8
0
100
AcDbLine
 10
0.0
 20
31.06667389697319
 30
0.0
 11
0.0
 21
30.98117389697319
 31
0.0
  0
LINE
  5
1D4
330
2
100
AcDbEntity
  8
0
100
AcDbLine
 10
-0.0570000000000022
 20
30.98117389697319
 30
0.0
 11
-0.0570000000000093
 21
33.42417389697319
 31
0.0
  0
LINE
  5
1D5
330
2
100
AcDbEntity
  8
0
100
AcDbLine
 10
1.625000000000004
 20
31.06667389697319
 30
0.0
 11
1.625000000000004
 21
30.98117389697319
 31
0.0
  0
ARC
  5
1D6
330
2
100
AcDbEntity
  8
0
100
AcDbCircle
 10
1.625000000000004
 20
30.98117389697319
 30
0.0
 40
0.0855
100
AcDbArc
 50
90.0
 51
180.0000000000024
  0
LINE
  5
1D7
330
2
100
AcDbEntity
  8
0
100
AcDbLine
 10
1.682000000000006
 20
30.98117389697319
 30
0.0
 11
1.682000000000006
 21
33.42417389697319
 31
0.0
  0
LINE
  5
1D8
330
2
100
AcDbEntity
  8
0
100
AcDbLine
 10
1.5395
 20
30.98117389697319
 30
0.0
 11
0.0855000000000032
 21
30.98117389697319
 31
0.0
  0
LINE
  5
1D9
330
2
100
AcDbEntity
  8
0
100
AcDbLine
 10
0.0
 20
30.98117389697319
 30
0.0
 11
-0.0570000000000022
 21
30.98117389697319
 31
0.0
  0
LINE
  5
1DA
330
2
100
AcDbEntity
  8
0
100
AcDbLine
 10
1.681999999999999
 20
30.98117389697319
 30
0.0
 11
1.625000000000004
 21
30.98117389697319
 31
0.0
  0
LINE
  5
1DB
330
2
100
AcDbEntity
  8
0
100
AcDbLine
 10
1.539499999999347
 20
33.48117389697318
 30
0.0
 11
0.0855000000000032
 21
33.48117389697318
 31
0.0
  0
LINE
  5
1DC
330
2
100
AcDbEntity
  8
0
100
AcDbLine
 10
0.0
 20
33.39567389697335
 30
0.0
 11
0.0
 21
31.06667389697255
 31
0.0
  0
LINE
  5
1DD
330
2
100
AcDbEntity
  8
0
100
AcDbLine
 10
0.0
 20
31.0666738969732
 30
0.0
 11
-0.0570000000000022
 21
31.0666738969732
 31
0.0
  0
ARC
  5
1DE
330
2
100
AcDbEntity
  8
0
100
AcDbCircle
 10
-0.1140000000000114
 20
33.42417389697319
 30
0.0
 40
0.057
100
AcDbArc
 50
0.0
 51
89.99999999999993
  0
ARC
  5
1DF
330
2
100
AcDbEntity
  8
0
100
AcDbCircle
 10
-0.1139999999999972
 20
33.42417389697319
 30
0.0
 40
0.114
100
AcDbArc
 50
0.0
 51
90.0
  0
LINE
  5
1E0
330
2
100
AcDbEntity
  8
0
100
AcDbLine
 10
0.0
 20
33.39567389697319
 30
0.0
 11
-0.0570000000000022
 21
33.39567389697319
 31
0.0
  0
ARC
  5
1E1
330
2
100
AcDbEntity
  8
0
100
AcDbCircle
 10
0.0
 20
33.48117389697319
 30
0.0
 40
0.0855
100
AcDbArc
 50
270.0
 51
359.9999999999952
  0
LINE
  5
1E2
330
2
100
AcDbEntity
  8
0
100
AcDbLine
 10
0.0
 20
33.42417389697319
 30
0.0
 11
0.0
 21
33.39567389697318
 31
0.0
  0
LINE
  5
1E3
330
2
100
AcDbEntity
  8
0
100
AcDbLine
 10
1.625000000000004
 20
33.39567389697376
 30
0.0
 11
1.625000000000011
 21
31.06667389697319
 31
0.0
  0
LINE
  5
1E4
330
2
100
AcDbEntity
  8
0
100
AcDbLine
 10
1.682000000000006
 20
31.0666738969732
 30
0.0
 11
1.625000000000004
 21
31.06667389697319
 31
0.0
  0
ARC
  5
1E5
330
2
100
AcDbEntity
  8
0
100
AcDbCircle
 10
1.739000000000001
 20
33.42417389697319
 30
0.0
 40
0.057
100
AcDbArc
 50
90.0
 51
180.0
  0
LINE
  5
1E6
330
2
100
AcDbEntity
  8
0
100
AcDbLine
 10
1.682000000000006
 20
33.39567389697319
 30
0.0
 11
1.625000000000004
 21
33.39567389697318
 31
0.0
  0
ARC
  5
1E7
330
2
100
AcDbEntity
  8
0
100
AcDbCircle
 10
1.739000000000008
 20
33.42417389697319
 30
0.0
 40
0.114
100
AcDbArc
 50
89.99999999999993
 51
180.0
  0
ARC
  5
1E8
330
2
100
AcDbEntity
  8
0
100
AcDbCircle
 10
1.625000000000004
 20
33.48117389697319
 30
0.0
 40
0.0855
100
AcDbArc
 50
180.0000000000048
 51
269.9999999999976
  0
LINE
  5
1E9
330
2
100
AcDbEntity
  8
0
100
AcDbLine
 10
1.625000000000004
 20
33.42417389697319
 30
0.0
 11
1.625
 21
33.39567389697319
 31
0.0
  0
LINE
  5
1EA
330
2
100
AcDbEntity
  8
0
100
AcDbLine
 10
4.182000000000006
 20
33.53817389697318
 30
0.0
 11
4.182000000000006
 21
33.48117389697319
 31
0.0
  0
LINE
  5
1EB
330
2
100
AcDbEntity
  8
0
100
AcDbLine
 10
21.80869888367849
 20
3.437500000000014
 30
0.0
 11
21.8086988836785
 21
19.93749375810235
 31
0.0
  0
LINE
  5
1EC
330
2
100
AcDbEntity
  8
0
100
AcDbLine
 10
21.7516988836785
 20
3.437500000000014
 30
0.0
 11
21.75169888367852
 21
19.93749375810235
 31
0.0
  0
CIRCLE
  5
1ED
330
2
100
AcDbEntity
  8
0
100
AcDbCircle
 10
19.8766988836785
 20
2.375
 30
0.0
 40
0.0855
  0
LINE
  5
1EE
330
2
100
AcDbEntity
  8
0
100
AcDbLine
 10
21.7516988836785
 20
3.437500000000014
 30
0.0
 11
21.7516988836785
 21
0.0000000000000142
 31
0.0
  0
LINE
  5
1EF
330
2
100
AcDbEntity
  8
0
100
AcDbLine
 10
19.2516988836785
 20
0.0000000000000142
 30
0.0
 11
19.2516988836785
 21
3.4375
 31
0.0
  0
LINE
  5
1F0
330
2
100
AcDbEntity
  8
0
100
AcDbLine
 10
21.7516988836785
 20
0.0
 30
0.0
 11
19.2516988836785
 21
0.0000000000000142
 31
0.0
  0
CIRCLE
  5
1F1
330
2
100
AcDbEntity
  8
0
100
AcDbCircle
 10
19.7516988836785
 20
0.875
 30
0.0
 40
0.0855
  0
CIRCLE
  5
1F2
330
2
100
AcDbEntity
  8
0
100
AcDbCircle
 10
21.2516988836785
 20
0.375
 30
0.0
 40
0.0855
  0
CIRCLE
  5
1F3
330
2
100
AcDbEntity
  8
0
100
AcDbCircle
 10
20.5016988836785
 20
1.375
 30
0.0
 40
0.0855
  0
CIRCLE
  5
1F4
330
2
100
AcDbEntity
  8
0
100
AcDbCircle
 10
21.1266988836785
 20
1.875
 30
0.0
 40
0.0855
  0
LINE
  5
1F5
330
2
100
AcDbEntity
  8
0
100
AcDbLine
 10
19.36867666211902
 20
3.758893804843282
 30
0.0
 11
21.63472110523799
 21
6.45946041090847
 31
0.0
  0
ARC
  5
1F6
330
2
100
AcDbEntity
  8
0
100
AcDbCircle
 10
19.7516988836785
 20
3.437500000000014
 30
0.0
 40
0.5
100
AcDbArc
 50
140.0
 51
180.0000000000001
  0
CIRCLE
  5
1F7
330
2
100
AcDbEntity
  8
0
100
AcDbCircle
 10
20.5016988836785
 20
2.875
 30
0.0
 40
0.0855
  0
LINE
  5
1F8
330
2
100
AcDbEntity
  8
0
100
AcDbLine
 10
21.7516988836785
 20
3.437500000000014
 30
0.0
 11
21.80869888367849
 21
3.437500000000014
 31
0.0
  0
ARC
  5
1F9
330
2
100
AcDbEntity
  8
0
100
AcDbCircle
 10
21.2516988836785
 20
6.780854215751738
 30
0.0
 40
0.5
100
AcDbArc
 50
320.0
 51
359.9999999999999
  0
LINE
  5
1FA
330
2
100
AcDbEntity
  8
0
100
AcDbLine
 10
21.1009988836785
 20
18.24999375810234
 30
0.0
 11
21.1009988836785
 21
19.00835377290621
 31
0.0
  0
LINE
  5
1FB
330
2
100
AcDbEntity
  8
0
100
AcDbLine
 10
21.0273988836785
 20
18.24999375810234
 30
0.0
 11
21.02739888367849
 21
19.00835377290621
 31
0.0
  0
LINE
  5
1FC
330
2
100
AcDbEntity
  8
0
100
AcDbLine
 10
20.4023988836785
 20
18.68749375810234
 30
0.0
 11
20.4023988836785
 21
20.06249375810235
 31
0.0
  0
LINE
  5
1FD
330
2
100
AcDbEntity
  8
0
100
AcDbLine
 10
20.4759988836785
 20
18.68749375810234
 30
0.0
 11
20.4759988836785
 21
20.06249375810235
 31
0.0
  0
LINE
  5
1FE
330
2
100
AcDbEntity
  8
0
100
AcDbLine
 10
21.1579988836785
 20
18.24999375810234
 30
0.0
 11
21.1579988836785
 21
19.00835377290621
 31
0.0
  0
LINE
  5
1FF
330
2
100
AcDbEntity
  8
0
100
AcDbLine
 10
20.9703988836785
 20
18.24999375810234
 30
0.0
 11
20.9703988836785
 21
19.00835377290621
 31
0.0
  0
LINE
  5
200
330
2
100
AcDbEntity
  8
0
100
AcDbLine
 10
20.5329988836785
 20
18.68749375810234
 30
0.0
 11
20.5329988836785
 21
20.06249375810235
 31
0.0
  0
LINE
  5
201
330
2
100
AcDbEntity
  8
0
100
AcDbLine
 10
20.3453988836785
 20
18.68749375810234
 30
0.0
 11
20.3453988836785
 21
20.06249375810235
 31
0.0
  0
LINE
  5
202
330
2
100
AcDbEntity
  8
0
100
AcDbLine
 10
19.36867666211902
 20
19.61609995325908
 30
0.0
 11
21.634721105238
 21
16.91553334719389
 31
0.0
  0
ARC
  5
203
330
2
100
AcDbEntity
  8
0
100
AcDbCircle
 10
21.2516988836785
 20
16.59413954235062
 30
0.0
 40
0.5
100
AcDbArc
 50
359.9999999999999
 51
39.99999999999994
  0
ARC
  5
204
330
2
100
AcDbEntity
  8
0
100
AcDbCircle
 10
20.4391988836785
 20
18.68749375810234
 30
0.0
 40
0.0368
100
AcDbArc
 50
180.0
 51
0.0
  0
ARC
  5
205
330
2
100
AcDbEntity
  8
0
100
AcDbCircle
 10
20.4391988836785
 20
18.68749375810234
 30
0.0
 40
0.0938
100
AcDbArc
 50
180.0
 51
0.0
  0
ARC
  5
206
330
2
100
AcDbEntity
  8
0
100
AcDbCircle
 10
21.0641988836785
 20
18.24999375810234
 30
0.0
 40
0.0368
100
AcDbArc
 50
180.0
 51
0.0
  0
ARC
  5
207
330
2
100
AcDbEntity
  8
0
100
AcDbCircle
 10
21.0641988836785
 20
18.24999375810234
 30
0.0
 40
0.0938
100
AcDbArc
 50
180.0
 51
0.0
  0
LINE
  5
208
330
2
100
AcDbEntity
  8
0
  6
HIDDEN
100
AcDbLine
 10
21.66619888367765
 20
20.31249375810235
 30
0.0
 11
19.33719888367887
 21
20.31249375810235
 31
0.0
  0
LINE
  5
209
330
2
100
AcDbEntity
  8
0
100
AcDbLine
 10
21.7516988836785
 20
20.36949375810234
 30
0.0
 11
19.25169888367852
 21
20.36949375810234
 31
0.0
  0
ARC
  5
20A
330
2
100
AcDbEntity
  8
0
100
AcDbCircle
 10
19.7516988836785
 20
19.93749375810235
 30
0.0
 40
0.5
100
AcDbArc
 50
180.0000000000001
 51
220.0
  0
LINE
  5
20B
330
2
100
AcDbEntity
  8
0
100
AcDbLine
 10
19.33719888367851
 20
20.31249375810235
 30
0.0
 11
19.25169888367852
 21
20.31249375810235
 31
0.0
  0
ARC
  5
20C
330
2
100
AcDbEntity
  8
0
100
AcDbCircle
 10
19.2516988836785
 20
20.31249375810235
 30
0.0
 40
0.0855
100
AcDbArc
 50
270.0
 51
41.81031489577726
  0
LINE
  5
20D
330
2
100
AcDbEntity
  8
0
100
AcDbLine
 10
19.2516988836785
 20
20.36949375810236
 30
0.0
 11
19.2516988836785
 21
20.31249375810235
 31
0.0
  0
LINE
  5
20E
330
2
100
AcDbEntity
  8
0
100
AcDbLine
 10
19.2516988836785
 20
20.22699375810236
 30
0.0
 11
19.2516988836785
 21
19.93749375810235
 31
0.0
  0
CIRCLE
  5
20F
330
2
100
AcDbEntity
  8
0
100
AcDbCircle
 10
21.2516988836785
 20
19.62500000000002
 30
0.0
 40
0.0855
  0
LINE
  5
210
330
2
100
AcDbEntity
  8
0
100
AcDbLine
 10
20.9759988836785
 20
19.32536786593323
 30
0.0
 11
20.9759988836785
 21
20.06249375810235
 31
0.0
  0
LINE
  5
211
330
2
100
AcDbEntity
  8
0
100
AcDbLine
 10
20.90239888367849
 20
19.32536786593323
 30
0.0
 11
20.9023988836785
 21
20.06249375810235
 31
0.0
  0
LINE
  5
212
330
2
100
AcDbEntity
  8
0
100
AcDbLine
 10
21.0329988836785
 20
19.32536786593323
 30
0.0
 11
21.0329988836785
 21
20.06249375810235
 31
0.0
  0
LINE
  5
213
330
2
100
AcDbEntity
  8
0
100
AcDbLine
 10
20.8453988836785
 20
19.32536786593323
 30
0.0
 11
20.8453988836785
 21
20.06249375810235
 31
0.0
  0
CIRCLE
  5
214
330
2
100
AcDbEntity
  8
0
100
AcDbCircle
 10
20.7516988836785
 20
18.875
 30
0.0
 40
0.0855
  0
ARC
  5
215
330
2
100
AcDbEntity
  8
0
100
AcDbCircle
 10
20.8765988836785
 20
19.00835377290621
 30
0.0
 40
0.2244
100
AcDbArc
 50
0.0
 51
29.99999999999988
  0
LINE
  5
216
330
2
100
AcDbEntity
  8
0
100
AcDbLine
 10
20.99618885532819
 20
19.25001786593322
 30
0.0
 11
21.07093498428772
 21
19.1205537729062
 31
0.0
  0
ARC
  5
217
330
2
100
AcDbEntity
  8
0
100
AcDbCircle
 10
21.1266988836785
 20
19.32536786593323
 30
0.0
 40
0.1507
100
AcDbArc
 50
180.0
 51
209.9999999999996
  0
ARC
  5
218
330
2
100
AcDbEntity
  8
0
100
AcDbCircle
 10
20.8765988836785
 20
19.00835377290621
 30
0.0
 40
0.1508
100
AcDbArc
 50
0.0
 51
29.99999999999988
  0
LINE
  5
219
330
2
100
AcDbEntity
  8
0
100
AcDbLine
 10
20.93244938560964
 20
19.21321786593322
 30
0.0
 11
21.00719551456919
 21
19.0837537729062
 31
0.0
  0
ARC
  5
21A
330
2
100
AcDbEntity
  8
0
100
AcDbCircle
 10
21.1266988836785
 20
19.32536786593323
 30
0.0
 40
0.2243
100
AcDbArc
 50
180.0
 51
209.9999999999996
  0
ARC
  5
21B
330
2
100
AcDbEntity
  8
0
100
AcDbCircle
 10
20.8765988836785
 20
19.00835377290621
 30
0.0
 40
0.2814
100
AcDbArc
 50
0.0
 51
29.99999999999988
  0
LINE
  5
21C
330
2
100
AcDbEntity
  8
0
100
AcDbLine
 10
20.88308593759393
 20
19.18471786593323
 30
0.0
 11
20.95783206655348
 21
19.0552537729062
 31
0.0
  0
ARC
  5
21D
330
2
100
AcDbEntity
  8
0
100
AcDbCircle
 10
21.1266988836785
 20
19.32536786593323
 30
0.0
 40
0.0937
100
AcDbArc
 50
180.0
 51
209.9999999999996
  0
ARC
  5
21E
330
2
100
AcDbEntity
  8
0
100
AcDbCircle
 10
21.1266988836785
 20
19.32536786593323
 30
0.0
 40
0.2813
100
AcDbArc
 50
180.0
 51
209.9999999999996
  0
ARC
  5
21F
330
2
100
AcDbEntity
  8
0
100
AcDbCircle
 10
20.8765988836785
 20
19.00835377290621
 30
0.0
 40
0.0938
100
AcDbArc
 50
0.0
 51
29.99999999999988
  0
LINE
  5
220
330
2
100
AcDbEntity
  8
0
100
AcDbLine
 10
21.0455523033439
 20
19.27851786593323
 30
0.0
 11
21.12029843230344
 21
19.1490537729062
 31
0.0
  0
ARC
  5
221
330
2
100
AcDbEntity
  8
0
100
AcDbCircle
 10
20.4391988836785
 20
20.06249375810235
 30
0.0
 40
0.0368
100
AcDbArc
 50
0.0
 51
180.0
  0
ARC
  5
222
330
2
100
AcDbEntity
  8
0
100
AcDbCircle
 10
20.4391988836785
 20
20.06249375810235
 30
0.0
 40
0.0938
100
AcDbArc
 50
0.0
 51
180.0
  0
ARC
  5
223
330
2
100
AcDbEntity
  8
0
100
AcDbCircle
 10
20.9391988836785
 20
20.06249375810235
 30
0.0
 40
0.0368
100
AcDbArc
 50
0.0
 51
180.0
  0
ARC
  5
224
330
2
100
AcDbEntity
  8
0
100
AcDbCircle
 10
20.9391988836785
 20
20.06249375810235
 30
0.0
 40
0.0938
100
AcDbArc
 50
0.0
 51
180.0
  0
LINE
  5
225
330
2
100
AcDbEntity
  8
0
100
AcDbLine
 10
21.7516988836785
 20
19.93749375810235
 30
0.0
 11
21.8086988836785
 21
19.93749375810235
 31
0.0
  0
LINE
  5
226
330
2
100
AcDbEntity
  8
0
100
AcDbLine
 10
21.7516988836785
 20
20.36949375810236
 30
0.0
 11
21.7516988836785
 21
20.31249375810235
 31
0.0
  0
ARC
  5
227
330
2
100
AcDbEntity
  8
0
100
AcDbCircle
 10
21.7516988836785
 20
20.31249375810235
 30
0.0
 40
0.0855
100
AcDbArc
 50
138.1896851042228
 51
270.0
  0
LINE
  5
228
330
2
100
AcDbEntity
  8
0
100
AcDbLine
 10
21.7516988836785
 20
20.22699375810236
 30
0.0
 11
21.7516988836785
 21
19.93749375810235
 31
0.0
  0
LINE
  5
229
330
2
100
AcDbEntity
  8
0
100
AcDbLine
 10
21.75169888367852
 20
20.31249375810234
 30
0.0
 11
21.6661988836785
 21
20.31249375810234
 31
0.0
  0
LINE
  5
22B
330
2
100
AcDbEntity
  8
0
100
AcDbLine
 10
-2.556999999999995
 20
16.59413954235062
 30
0.0
 11
-2.557000000000002
 21
6.780854215751738
 31
0.0
  0
LINE
  5
22C
330
2
100
AcDbEntity
  8
0
100
AcDbLine
 10
4.181999999999999
 20
16.59413954235062
 30
0.0
 11
4.181999999999999
 21
6.780854215751738
 31
0.0
  0
LINE
  5
22D
330
2
100
AcDbEntity
  8
0
100
AcDbLine
 10
1.681999999999992
 20
6.780854215751738
 30
0.0
 11
1.681999999999999
 21
20.25549375810235
 31
0.0
  0
LINE
  5
22E
330
2
100
AcDbEntity
  8
0
100
AcDbLine
 10
-0.0570000000000022
 20
6.780854215751738
 30
0.0
 11
-0.0570000000000022
 21
20.25549375810235
 31
0.0
  0
LINE
  5
22F
330
2
100
AcDbEntity
  8
0
100
AcDbLine
 10
-0.1739777784405163
 20
3.758893804843282
 30
0.0
 11
-2.440022221559488
 21
6.45946041090847
 31
0.0
  0
ARC
  5
230
330
2
100
AcDbEntity
  8
0
100
AcDbCircle
 10
-2.338377154116813
 20
7.133318002876102
 30
0.0
 40
0.0313
100
AcDbArc
 50
150.0000000423437
 51
269.9999999999982
  0
ARC
  5
231
330
2
100
AcDbEntity
  8
0
100
AcDbCircle
 10
-2.057000000000002
 20
6.780854215751738
 30
0.0
 40
0.5
100
AcDbArc
 50
180.0
 51
220.0
  0
LINE
  5
232
330
2
100
AcDbEntity
  8
0
100
AcDbLine
 10
-2.217393405368341
 20
7.311568002876108
 30
0.0
 11
-2.123516251091317
 21
7.148968002876096
 31
0.0
  0
ARC
  5
233
330
2
100
AcDbEntity
  8
0
100
AcDbCircle
 10
-2.15062284622978
 20
7.133318002876102
 30
0.0
 40
0.0313
100
AcDbArc
 50
269.9999999999992
 51
29.99999999999997
  0
ARC
  5
234
330
2
100
AcDbEntity
  8
0
100
AcDbCircle
 10
-2.244500000506804
 20
7.2959180028761
 30
0.0
 40
0.0313
100
AcDbArc
 50
29.99999999999917
 51
150.0
  0
LINE
  5
235
330
2
100
AcDbEntity
  8
0
100
AcDbLine
 10
-2.338377154116813
 20
7.1020180028761
 30
0.0
 11
-2.15062284622978
 21
7.1020180028761
 31
0.0
  0
LINE
  5
236
330
2
100
AcDbEntity
  8
0
100
AcDbLine
 10
-2.271606595645253
 20
7.311568002876108
 30
0.0
 11
-2.365483749266829
 21
7.148968002856073
 31
0.0
  0
CIRCLE
  5
237
330
2
100
AcDbEntity
  8
0
100
AcDbCircle
 10
-1.213250000000002
 20
8.187518002876093
 30
0.0
 40
0.25
  0
LINE
  5
238
330
2
100
AcDbEntity
  8
0
100
AcDbLine
 10
-2.213377154116813
 20
8.602018002876097
 30
0.0
 11
-2.02562284622978
 21
8.602018002876097
 31
0.0
  0
ARC
  5
239
330
2
100
AcDbEntity
  8
0
100
AcDbCircle
 10
-2.119500000506804
 20
8.795918002876096
 30
0.0
 40
0.0313
100
AcDbArc
 50
29.99999999999917
 51
150.0
  0
LINE
  5
23A
330
2
100
AcDbEntity
  8
0
100
AcDbLine
 10
-2.146606595645253
 20
8.811568002876104
 30
0.0
 11
-2.240483749266829
 21
8.648968002856069
 31
0.0
  0
ARC
  5
23B
330
2
100
AcDbEntity
  8
0
100
AcDbCircle
 10
-2.213377154116813
 20
8.633318002876099
 30
0.0
 40
0.0313
100
AcDbArc
 50
150.0000000423437
 51
269.9999999999982
  0
ARC
  5
23C
330
2
100
AcDbEntity
  8
0
100
AcDbCircle
 10
-2.338377154116813
 20
9.883318002876099
 30
0.0
 40
0.0313
100
AcDbArc
 50
150.0000000423437
 51
269.9999999999982
  0
LINE
  5
23D
330
2
100
AcDbEntity
  8
0
100
AcDbLine
 10
-2.217393405368341
 20
10.0615680028761
 30
0.0
 11
-2.123516251091317
 21
9.898968002876092
 31
0.0
  0
ARC
  5
23E
330
2
100
AcDbEntity
  8
0
100
AcDbCircle
 10
-2.244500000506804
 20
10.0459180028761
 30
0.0
 40
0.0313
100
AcDbArc
 50
29.99999999999917
 51
150.0
  0
ARC
  5
23F
330
2
100
AcDbEntity
  8
0
100
AcDbCircle
 10
-2.15062284622978
 20
9.883318002876099
 30
0.0
 40
0.0313
100
AcDbArc
 50
269.9999999999992
 51
29.99999999999997
  0
LINE
  5
240
330
2
100
AcDbEntity
  8
0
100
AcDbLine
 10
-2.271606595645253
 20
10.0615680028761
 30
0.0
 11
-2.365483749266829
 21
9.898968002856069
 31
0.0
  0
LINE
  5
241
330
2
100
AcDbEntity
  8
0
100
AcDbLine
 10
-2.338377154116813
 20
9.852018002876097
 30
0.0
 11
-2.15062284622978
 21
9.852018002876097
 31
0.0
  0
ARC
  5
242
330
2
100
AcDbEntity
  8
0
100
AcDbCircle
 10
-2.02562284622978
 20
8.633318002876099
 30
0.0
 40
0.0313
100
AcDbArc
 50
269.9999999999992
 51
29.99999999999997
  0
LINE
  5
243
330
2
100
AcDbEntity
  8
0
100
AcDbLine
 10
-2.092393405368341
 20
8.811568002876104
 30
0.0
 11
-1.998516251091317
 21
8.648968002876092
 31
0.0
  0
ARC
  5
244
330
2
100
AcDbEntity
  8
0
100
AcDbCircle
 10
-1.11937284622978
 20
9.633318002876099
 30
0.0
 40
0.0313
100
AcDbArc
 50
269.9999999999992
 51
29.99999999999997
  0
LINE
  5
245
330
2
100
AcDbEntity
  8
0
100
AcDbLine
 10
-1.307127154116813
 20
9.602018002876097
 30
0.0
 11
-1.11937284622978
 21
9.602018002876097
 31
0.0
  0
ARC
  5
246
330
2
100
AcDbEntity
  8
0
100
AcDbCircle
 10
-1.213250000506804
 20
9.795918002876096
 30
0.0
 40
0.0313
100
AcDbArc
 50
29.99999999999917
 51
150.0
  0
LINE
  5
247
330
2
100
AcDbEntity
  8
0
100
AcDbLine
 10
-1.186143405368341
 20
9.811568002876104
 30
0.0
 11
-1.092266251091317
 21
9.648968002876092
 31
0.0
  0
ARC
  5
248
330
2
100
AcDbEntity
  8
0
100
AcDbCircle
 10
-1.307127154116813
 20
9.633318002876099
 30
0.0
 40
0.0313
100
AcDbArc
 50
150.0000000423437
 51
269.9999999999982
  0
LINE
  5
249
330
2
100
AcDbEntity
  8
0
100
AcDbLine
 10
-1.240356595645253
 20
9.811568002876104
 30
0.0
 11
-1.334233749266829
 21
9.648968002856069
 31
0.0
  0
LINE
  5
24A
330
2
100
AcDbEntity
  8
0
100
AcDbLine
 10
1.681999999999999
 20
6.780854215751738
 30
0.0
 11
1.681999999999999
 21
0.0000000000000142
 31
0.0
  0
LINE
  5
24B
330
2
100
AcDbEntity
  8
0
100
AcDbLine
 10
1.625000000000004
 20
0.0000000000000142
 30
0.0
 11
1.625000000000004
 21
6.780854215751738
 31
0.0
  0
LINE
  5
24C
330
2
100
AcDbEntity
  8
0
100
AcDbLine
 10
0.0
 20
0.0000000000000142
 30
0.0
 11
0.0
 21
6.780854215751724
 31
0.0
  0
LINE
  5
24D
330
2
100
AcDbEntity
  8
0
100
AcDbLine
 10
-0.0570000000000022
 20
6.780854215751738
 30
0.0
 11
-0.0570000000000022
 21
0.0000000000000142
 31
0.0
  0
LINE
  5
24E
330
2
100
AcDbEntity
  8
0
100
AcDbLine
 10
-0.0570000000000022
 20
0.0000000000000142
 30
0.0
 11
0.0
 21
0.0
 31
0.0
  0
LINE
  5
24F
330
2
100
AcDbEntity
  8
0
100
AcDbLine
 10
1.625000000000004
 20
0.0
 30
0.0
 11
1.681999999999999
 21
0.0
 31
0.0
  0
ARC
  5
250
330
2
100
AcDbEntity
  8
0
100
AcDbCircle
 10
3.775622846229769
 20
7.258330486671433
 30
0.0
 40
0.0313
100
AcDbArc
 50
150.0
 51
270.0000000000007
  0
LINE
  5
251
330
2
100
AcDbEntity
  8
0
100
AcDbLine
 10
3.838377154116802
 20
8.727030486671428
 30
0.0
 11
3.650622846229769
 21
8.727030486671428
 31
0.0
  0
LINE
  5
252
330
2
100
AcDbEntity
  8
0
100
AcDbLine
 10
3.842393405368338
 20
10.18658048667144
 30
0.0
 11
3.748516251091314
 21
10.02398048667144
 31
0.0
  0
ARC
  5
253
330
2
100
AcDbEntity
  8
0
100
AcDbCircle
 10
3.775622846229769
 20
10.00833048667144
 30
0.0
 40
0.0313
100
AcDbArc
 50
150.0
 51
270.0000000000007
  0
ARC
  5
254
330
2
100
AcDbEntity
  8
0
100
AcDbCircle
 10
3.744500000506793
 20
8.920930486671427
 30
0.0
 40
0.0313
100
AcDbArc
 50
29.99999999999997
 51
150.0000000000007
  0
LINE
  5
255
330
2
100
AcDbEntity
  8
0
100
AcDbLine
 10
3.842393405368338
 20
7.436580486671439
 30
0.0
 11
3.748516251091314
 21
7.273980486671427
 31
0.0
  0
LINE
  5
256
330
2
100
AcDbEntity
  8
0
100
AcDbLine
 10
1.798977778440513
 20
3.758893804843282
 30
0.0
 11
4.065022221559484
 21
6.45946041090847
 31
0.0
  0
ARC
  5
257
330
2
100
AcDbEntity
  8
0
100
AcDbCircle
 10
-0.5570000000000022
 20
3.437500000000014
 30
0.0
 40
0.5
100
AcDbArc
 50
0.0
 51
40.00000000000002
  0
ARC
  5
258
330
2
100
AcDbEntity
  8
0
100
AcDbCircle
 10
2.181999999999999
 20
3.437500000000014
 30
0.0
 40
0.5
100
AcDbArc
 50
140.0000000000001
 51
180.0
  0
LINE
  5
259
330
2
100
AcDbEntity
  8
0
100
AcDbLine
 10
-0.0569999999999027
 20
6.780854215751738
 30
0.0
 11
0.0
 21
6.780854215751724
 31
0.0
  0
ARC
  5
25A
330
2
100
AcDbEntity
  8
0
100
AcDbCircle
 10
-0.3695000005068039
 20
7.795918002876096
 30
0.0
 40
0.0313
100
AcDbArc
 50
29.99999999999917
 51
150.0
  0
LINE
  5
25B
330
2
100
AcDbEntity
  8
0
100
AcDbLine
 10
-0.463377154116813
 20
7.6020180028761
 30
0.0
 11
-0.2756228462297798
 21
7.6020180028761
 31
0.0
  0
LINE
  5
25C
330
2
100
AcDbEntity
  8
0
100
AcDbLine
 10
-0.3966065956452525
 20
7.811568002876104
 30
0.0
 11
-0.4904837492668293
 21
7.648968002856073
 31
0.0
  0
ARC
  5
25D
330
2
100
AcDbEntity
  8
0
100
AcDbCircle
 10
-0.463377154116813
 20
7.633318002876102
 30
0.0
 40
0.0313
100
AcDbArc
 50
150.0000000423437
 51
269.9999999999982
  0
ARC
  5
25E
330
2
100
AcDbEntity
  8
0
100
AcDbCircle
 10
-0.2756228462297798
 20
7.633318002876102
 30
0.0
 40
0.0313
100
AcDbArc
 50
269.9999999999992
 51
29.99999999999997
  0
LINE
  5
25F
330
2
100
AcDbEntity
  8
0
100
AcDbLine
 10
-0.3423934053683411
 20
7.811568002876104
 30
0.0
 11
-0.248516251091317
 21
7.648968002876096
 31
0.0
  0
LINE
  5
260
330
2
100
AcDbEntity
  8
0
100
AcDbLine
 10
-0.5216065956452525
 20
9.311568002876104
 30
0.0
 11
-0.6154837492668293
 21
9.148968002856069
 31
0.0
  0
LINE
  5
261
330
2
100
AcDbEntity
  8
0
100
AcDbLine
 10
-0.4673934053683411
 20
9.311568002876104
 30
0.0
 11
-0.373516251091317
 21
9.148968002876092
 31
0.0
  0
ARC
  5
262
330
2
100
AcDbEntity
  8
0
100
AcDbCircle
 10
-0.4945000005068039
 20
9.295918002876096
 30
0.0
 40
0.0313
100
AcDbArc
 50
29.99999999999917
 51
150.0
  0
LINE
  5
263
330
2
100
AcDbEntity
  8
0
100
AcDbLine
 10
-0.588377154116813
 20
9.102018002876097
 30
0.0
 11
-0.4006228462297798
 21
9.102018002876097
 31
0.0
  0
ARC
  5
264
330
2
100
AcDbEntity
  8
0
100
AcDbCircle
 10
-0.588377154116813
 20
9.133318002876099
 30
0.0
 40
0.0313
100
AcDbArc
 50
150.0000000423437
 51
269.9999999999982
  0
ARC
  5
265
330
2
100
AcDbEntity
  8
0
100
AcDbCircle
 10
-0.4006228462297798
 20
9.133318002876099
 30
0.0
 40
0.0313
100
AcDbArc
 50
269.9999999999992
 51
29.99999999999997
  0
CIRCLE
  5
266
330
2
100
AcDbEntity
  8
0
100
AcDbCircle
 10
2.838249999999999
 20
8.312530486671424
 30
0.0
 40
0.25
  0
LINE
  5
267
330
2
100
AcDbEntity
  8
0
100
AcDbLine
 10
1.625000000000004
 20
6.780854215751738
 30
0.0
 11
1.681999999999992
 21
6.780854215751738
 31
0.0
  0
ARC
  5
268
330
2
100
AcDbEntity
  8
0
100
AcDbCircle
 10
1.994500000506793
 20
7.920930486671427
 30
0.0
 40
0.0313
100
AcDbArc
 50
29.99999999999997
 51
150.0000000000007
  0
LINE
  5
269
330
2
100
AcDbEntity
  8
0
100
AcDbLine
 10
2.088377154116802
 20
7.727030486671431
 30
0.0
 11
1.900622846229769
 21
7.727030486671431
 31
0.0
  0
ARC
  5
26A
330
2
100
AcDbEntity
  8
0
100
AcDbCircle
 10
1.900622846229769
 20
7.758330486671433
 30
0.0
 40
0.0313
100
AcDbArc
 50
150.0
 51
270.0000000000007
  0
LINE
  5
26B
330
2
100
AcDbEntity
  8
0
100
AcDbLine
 10
1.967393405368338
 20
7.936580486671435
 30
0.0
 11
1.873516251091314
 21
7.773980486671423
 31
0.0
  0
ARC
  5
26C
330
2
100
AcDbEntity
  8
0
100
AcDbCircle
 10
2.088377154116802
 20
7.758330486671433
 30
0.0
 40
0.0313
100
AcDbArc
 50
270.0000000000018
 51
29.99999995765633
  0
LINE
  5
26D
330
2
100
AcDbEntity
  8
0
100
AcDbLine
 10
2.021606595645249
 20
7.936580486671435
 30
0.0
 11
2.115483749266819
 21
7.7739804866514
 31
0.0
  0
ARC
  5
26E
330
2
100
AcDbEntity
  8
0
100
AcDbCircle
 10
2.025622846229769
 20
9.258330486671436
 30
0.0
 40
0.0313
100
AcDbArc
 50
150.0
 51
270.0000000000007
  0
LINE
  5
26F
330
2
100
AcDbEntity
  8
0
100
AcDbLine
 10
2.092393405368338
 20
9.436580486671442
 30
0.0
 11
1.998516251091314
 21
9.27398048667143
 31
0.0
  0
LINE
  5
270
330
2
100
AcDbEntity
  8
0
100
AcDbLine
 10
2.146606595645249
 20
9.436580486671442
 30
0.0
 11
2.240483749266819
 21
9.273980486651407
 31
0.0
  0
ARC
  5
271
330
2
100
AcDbEntity
  8
0
100
AcDbCircle
 10
2.213377154116802
 20
9.258330486671436
 30
0.0
 40
0.0313
100
AcDbArc
 50
270.0000000000018
 51
29.99999995765633
  0
ARC
  5
272
330
2
100
AcDbEntity
  8
0
100
AcDbCircle
 10
2.119500000506793
 20
9.420930486671434
 30
0.0
 40
0.0313
100
AcDbArc
 50
29.99999999999997
 51
150.0000000000007
  0
LINE
  5
273
330
2
100
AcDbEntity
  8
0
100
AcDbLine
 10
2.213377154116802
 20
9.227030486671435
 30
0.0
 11
2.025622846229769
 21
9.227030486671435
 31
0.0
  0
ARC
  5
274
330
2
100
AcDbEntity
  8
0
100
AcDbCircle
 10
3.650622846229769
 20
8.758330486671429
 30
0.0
 40
0.0313
100
AcDbArc
 50
150.0
 51
270.0000000000007
  0
LINE
  5
275
330
2
100
AcDbEntity
  8
0
100
AcDbLine
 10
3.717393405368338
 20
8.936580486671435
 30
0.0
 11
3.623516251091314
 21
8.773980486671423
 31
0.0
  0
LINE
  5
276
330
2
100
AcDbEntity
  8
0
100
AcDbLine
 10
2.932127154116802
 20
9.727030486671435
 30
0.0
 11
2.744372846229769
 21
9.727030486671435
 31
0.0
  0
ARC
  5
277
330
2
100
AcDbEntity
  8
0
100
AcDbCircle
 10
2.838250000506793
 20
9.920930486671434
 30
0.0
 40
0.0313
100
AcDbArc
 50
29.99999999999997
 51
150.0000000000007
  0
LINE
  5
278
330
2
100
AcDbEntity
  8
0
100
AcDbLine
 10
2.865356595645249
 20
9.936580486671442
 30
0.0
 11
2.959233749266819
 21
9.773980486651407
 31
0.0
  0
LINE
  5
279
330
2
100
AcDbEntity
  8
0
100
AcDbLine
 10
2.811143405368338
 20
9.936580486671442
 30
0.0
 11
2.717266251091314
 21
9.77398048667143
 31
0.0
  0
ARC
  5
27A
330
2
100
AcDbEntity
  8
0
100
AcDbCircle
 10
2.932127154116802
 20
9.758330486671436
 30
0.0
 40
0.0313
100
AcDbArc
 50
270.0000000000018
 51
29.99999995765633
  0
ARC
  5
27B
330
2
100
AcDbEntity
  8
0
100
AcDbCircle
 10
2.744372846229769
 20
9.758330486671436
 30
0.0
 40
0.0313
100
AcDbArc
 50
150.0
 51
270.0000000000007
  0
LINE
  5
27C
330
2
100
AcDbEntity
  8
0
100
AcDbLine
 10
3.896606595645249
 20
7.436580486671439
 30
0.0
 11
3.990483749266819
 21
7.273980486651404
 31
0.0
  0
ARC
  5
27D
330
2
100
AcDbEntity
  8
0
100
AcDbCircle
 10
3.963377154116802
 20
7.258330486671433
 30
0.0
 40
0.0313
100
AcDbArc
 50
270.0000000000018
 51
29.99999995765633
  0
LINE
  5
27E
330
2
100
AcDbEntity
  8
0
100
AcDbLine
 10
3.963377154116802
 20
7.227030486671431
 30
0.0
 11
3.775622846229769
 21
7.227030486671431
 31
0.0
  0
ARC
  5
27F
330
2
100
AcDbEntity
  8
0
100
AcDbCircle
 10
3.681999999999999
 20
6.780854215751738
 30
0.0
 40
0.5
100
AcDbArc
 50
320.0
 51
0.0
  0
ARC
  5
280
330
2
100
AcDbEntity
  8
0
100
AcDbCircle
 10
3.869500000506793
 20
7.420930486671431
 30
0.0
 40
0.0313
100
AcDbArc
 50
29.99999999999997
 51
150.0000000000007
  0
ARC
  5
281
330
2
100
AcDbEntity
  8
0
100
AcDbCircle
 10
3.838377154116802
 20
8.758330486671429
 30
0.0
 40
0.0313
100
AcDbArc
 50
270.0000000000018
 51
29.99999995765633
  0
LINE
  5
282
330
2
100
AcDbEntity
  8
0
100
AcDbLine
 10
3.771606595645249
 20
8.936580486671435
 30
0.0
 11
3.865483749266819
 21
8.7739804866514
 31
0.0
  0
LINE
  5
283
330
2
100
AcDbEntity
  8
0
100
AcDbLine
 10
3.896606595645249
 20
10.18658048667144
 30
0.0
 11
3.990483749266819
 21
10.02398048665141
 31
0.0
  0
ARC
  5
284
330
2
100
AcDbEntity
  8
0
100
AcDbCircle
 10
3.869500000506793
 20
10.17093048667145
 30
0.0
 40
0.0313
100
AcDbArc
 50
29.99999999999997
 51
150.0000000000007
  0
ARC
  5
285
330
2
100
AcDbEntity
  8
0
100
AcDbCircle
 10
3.963377154116802
 20
10.00833048667145
 30
0.0
 40
0.0313
100
AcDbArc
 50
270.0000000000018
 51
29.99999995765633
  0
LINE
  5
286
330
2
100
AcDbEntity
  8
0
100
AcDbLine
 10
3.963377154116802
 20
9.977030486671449
 30
0.0
 11
3.775622846229769
 21
9.977030486671435
 31
0.0
  0
LINE
  5
287
330
2
100
AcDbEntity
  8
0
100
AcDbLine
 10
-0.1739777784405163
 20
19.61609995325908
 30
0.0
 11
-2.440022221559502
 21
16.91553334719389
 31
0.0
  0
ARC
  5
288
330
2
100
AcDbEntity
  8
0
100
AcDbCircle
 10
-2.02562284622978
 20
14.6333180028761
 30
0.0
 40
0.0313
100
AcDbArc
 50
269.9999999999992
 51
29.99999999999997
  0
ARC
  5
289
330
2
100
AcDbEntity
  8
0
100
AcDbCircle
 10
-2.213377154116813
 20
14.6333180028761
 30
0.0
 40
0.0313
100
AcDbArc
 50
150.0000000423437
 51
269.9999999999982
  0
ARC
  5
28A
330
2
100
AcDbEntity
  8
0
100
AcDbCircle
 10
-2.119500000506804
 20
11.7959180028761
 30
0.0
 40
0.0313
100
AcDbArc
 50
29.99999999999917
 51
150.0
  0
LINE
  5
28B
330
2
100
AcDbEntity
  8
0
100
AcDbLine
 10
-2.213377154116813
 20
11.6020180028761
 30
0.0
 11
-2.02562284622978
 21
11.6020180028761
 31
0.0
  0
LINE
  5
28C
330
2
100
AcDbEntity
  8
0
100
AcDbLine
 10
-2.146606595645253
 20
11.8115680028761
 30
0.0
 11
-2.240483749266829
 21
11.64896800285607
 31
0.0
  0
ARC
  5
28D
330
2
100
AcDbEntity
  8
0
100
AcDbCircle
 10
-2.213377154116813
 20
11.6333180028761
 30
0.0
 40
0.0313
100
AcDbArc
 50
150.0000000423437
 51
269.9999999999982
  0
ARC
  5
28E
330
2
100
AcDbEntity
  8
0
100
AcDbCircle
 10
-1.213250000506804
 20
11.2959180028761
 30
0.0
 40
0.0313
100
AcDbArc
 50
29.99999999999917
 51
150.0
  0
LINE
  5
28F
330
2
100
AcDbEntity
  8
0
100
AcDbLine
 10
-1.186143405368341
 20
11.3115680028761
 30
0.0
 11
-1.092266251091317
 21
11.14896800287609
 31
0.0
  0
ARC
  5
290
330
2
100
AcDbEntity
  8
0
100
AcDbCircle
 10
-1.11937284622978
 20
11.1333180028761
 30
0.0
 40
0.0313
100
AcDbArc
 50
269.9999999999992
 51
29.99999999999997
  0
LINE
  5
291
330
2
100
AcDbEntity
  8
0
100
AcDbLine
 10
-1.307127154116813
 20
11.1020180028761
 30
0.0
 11
-1.11937284622978
 21
11.1020180028761
 31
0.0
  0
ARC
  5
292
330
2
100
AcDbEntity
  8
0
100
AcDbCircle
 10
-1.307127154116813
 20
11.1333180028761
 30
0.0
 40
0.0313
100
AcDbArc
 50
150.0000000423437
 51
269.9999999999982
  0
LINE
  5
293
330
2
100
AcDbEntity
  8
0
100
AcDbLine
 10
-1.240356595645253
 20
11.3115680028761
 30
0.0
 11
-1.334233749266829
 21
11.14896800285607
 31
0.0
  0
LINE
  5
294
330
2
100
AcDbEntity
  8
0
100
AcDbLine
 10
-2.092393405368341
 20
11.8115680028761
 30
0.0
 11
-1.998516251091317
 21
11.64896800287609
 31
0.0
  0
ARC
  5
295
330
2
100
AcDbEntity
  8
0
100
AcDbCircle
 10
-2.02562284622978
 20
11.6333180028761
 30
0.0
 40
0.0313
100
AcDbArc
 50
269.9999999999992
 51
29.99999999999997
  0
LINE
  5
296
330
2
100
AcDbEntity
  8
0
100
AcDbLine
 10
-2.213377154116813
 20
14.6020180028761
 30
0.0
 11
-2.02562284622978
 21
14.6020180028761
 31
0.0
  0
ARC
  5
297
330
2
100
AcDbEntity
  8
0
100
AcDbCircle
 10
-2.338377154116813
 20
12.8833180028761
 30
0.0
 40
0.0313
100
AcDbArc
 50
150.0000000423437
 51
269.9999999999982
  0
ARC
  5
298
330
2
100
AcDbEntity
  8
0
100
AcDbCircle
 10
-2.15062284622978
 20
12.8833180028761
 30
0.0
 40
0.0313
100
AcDbArc
 50
269.9999999999992
 51
29.99999999999997
  0
ARC
  5
299
330
2
100
AcDbEntity
  8
0
100
AcDbCircle
 10
-2.244500000506804
 20
13.0459180028761
 30
0.0
 40
0.0313
100
AcDbArc
 50
29.99999999999917
 51
150.0
  0
LINE
  5
29A
330
2
100
AcDbEntity
  8
0
100
AcDbLine
 10
-2.217393405368341
 20
13.0615680028761
 30
0.0
 11
-2.123516251091317
 21
12.89896800287609
 31
0.0
  0
LINE
  5
29B
330
2
100
AcDbEntity
  8
0
100
AcDbLine
 10
-2.338377154116813
 20
12.8520180028761
 30
0.0
 11
-2.15062284622978
 21
12.8520180028761
 31
0.0
  0
LINE
  5
29C
330
2
100
AcDbEntity
  8
0
100
AcDbLine
 10
-2.271606595645253
 20
13.0615680028761
 30
0.0
 11
-2.365483749266829
 21
12.89896800285607
 31
0.0
  0
ARC
  5
29D
330
2
100
AcDbEntity
  8
0
100
AcDbCircle
 10
-1.213250000506804
 20
12.7959180028761
 30
0.0
 40
0.0313
100
AcDbArc
 50
29.99999999999917
 51
150.0
  0
LINE
  5
29E
330
2
100
AcDbEntity
  8
0
100
AcDbLine
 10
-1.186143405368341
 20
12.8115680028761
 30
0.0
 11
-1.092266251091317
 21
12.64896800287609
 31
0.0
  0
ARC
  5
29F
330
2
100
AcDbEntity
  8
0
100
AcDbCircle
 10
-1.11937284622978
 20
12.6333180028761
 30
0.0
 40
0.0313
100
AcDbArc
 50
269.9999999999992
 51
29.99999999999997
  0
LINE
  5
2A0
330
2
100
AcDbEntity
  8
0
100
AcDbLine
 10
-1.307127154116813
 20
12.6020180028761
 30
0.0
 11
-1.11937284622978
 21
12.6020180028761
 31
0.0
  0
ARC
  5
2A1
330
2
100
AcDbEntity
  8
0
100
AcDbCircle
 10
-1.307127154116813
 20
12.6333180028761
 30
0.0
 40
0.0313
100
AcDbArc
 50
150.0000000423437
 51
269.9999999999982
  0
LINE
  5
2A2
330
2
100
AcDbEntity
  8
0
100
AcDbLine
 10
-1.240356595645253
 20
12.8115680028761
 30
0.0
 11
-1.334233749266829
 21
12.64896800285607
 31
0.0
  0
ARC
  5
2A3
330
2
100
AcDbEntity
  8
0
100
AcDbCircle
 10
-1.11937284622978
 20
14.1333180028761
 30
0.0
 40
0.0313
100
AcDbArc
 50
269.9999999999992
 51
29.99999999999997
  0
ARC
  5
2A4
330
2
100
AcDbEntity
  8
0
100
AcDbCircle
 10
-1.213250000506804
 20
14.29591800287611
 30
0.0
 40
0.0313
100
AcDbArc
 50
29.99999999999917
 51
150.0
  0
LINE
  5
2A5
330
2
100
AcDbEntity
  8
0
100
AcDbLine
 10
-1.186143405368341
 20
14.3115680028761
 30
0.0
 11
-1.092266251091317
 21
14.14896800287609
 31
0.0
  0
LINE
  5
2A6
330
2
100
AcDbEntity
  8
0
100
AcDbLine
 10
-1.307127154116813
 20
14.1020180028761
 30
0.0
 11
-1.11937284622978
 21
14.1020180028761
 31
0.0
  0
ARC
  5
2A7
330
2
100
AcDbEntity
  8
0
100
AcDbCircle
 10
-1.307127154116813
 20
14.1333180028761
 30
0.0
 40
0.0313
100
AcDbArc
 50
150.0000000423437
 51
269.9999999999982
  0
LINE
  5
2A8
330
2
100
AcDbEntity
  8
0
100
AcDbLine
 10
-1.240356595645253
 20
14.3115680028761
 30
0.0
 11
-1.334233749266829
 21
14.14896800285607
 31
0.0
  0
ARC
  5
2A9
330
2
100
AcDbEntity
  8
0
100
AcDbCircle
 10
-2.057000000000002
 20
16.59413954235062
 30
0.0
 40
0.5
100
AcDbArc
 50
140.0000000000001
 51
180.0
  0
ARC
  5
2AA
330
2
100
AcDbEntity
  8
0
100
AcDbCircle
 10
-2.119500000506804
 20
14.79591800287611
 30
0.0
 40
0.0313
100
AcDbArc
 50
29.99999999999917
 51
150.0
  0
LINE
  5
2AB
330
2
100
AcDbEntity
  8
0
100
AcDbLine
 10
-2.146606595645253
 20
14.8115680028761
 30
0.0
 11
-2.240483749266829
 21
14.64896800285607
 31
0.0
  0
ARC
  5
2AC
330
2
100
AcDbEntity
  8
0
100
AcDbCircle
 10
-2.338377154116813
 20
15.88331800287611
 30
0.0
 40
0.0313
100
AcDbArc
 50
150.0000000423437
 51
269.9999999999982
  0
ARC
  5
2AD
330
2
100
AcDbEntity
  8
0
100
AcDbCircle
 10
-2.15062284622978
 20
15.88331800287611
 30
0.0
 40
0.0313
100
AcDbArc
 50
269.9999999999992
 51
29.99999999999997
  0
ARC
  5
2AE
330
2
100
AcDbEntity
  8
0
100
AcDbCircle
 10
-2.244500000506804
 20
16.0459180028761
 30
0.0
 40
0.0313
100
AcDbArc
 50
29.99999999999917
 51
150.0
  0
LINE
  5
2AF
330
2
100
AcDbEntity
  8
0
100
AcDbLine
 10
-2.217393405368341
 20
16.06156800287611
 30
0.0
 11
-2.123516251091317
 21
15.8989680028761
 31
0.0
  0
LINE
  5
2B0
330
2
100
AcDbEntity
  8
0
100
AcDbLine
 10
-2.338377154116813
 20
15.8520180028761
 30
0.0
 11
-2.15062284622978
 21
15.8520180028761
 31
0.0
  0
LINE
  5
2B1
330
2
100
AcDbEntity
  8
0
100
AcDbLine
 10
-2.271606595645253
 20
16.06156800287611
 30
0.0
 11
-2.365483749266829
 21
15.89896800285608
 31
0.0
  0
ARC
  5
2B2
330
2
100
AcDbEntity
  8
0
100
AcDbCircle
 10
-1.11937284622978
 20
15.6333180028761
 30
0.0
 40
0.0313
100
AcDbArc
 50
269.9999999999992
 51
29.99999999999997
  0
ARC
  5
2B3
330
2
100
AcDbEntity
  8
0
100
AcDbCircle
 10
-1.307127154116813
 20
15.6333180028761
 30
0.0
 40
0.0313
100
AcDbArc
 50
150.0000000423437
 51
269.9999999999982
  0
LINE
  5
2B4
330
2
100
AcDbEntity
  8
0
100
AcDbLine
 10
-2.092393405368341
 20
14.8115680028761
 30
0.0
 11
-1.998516251091317
 21
14.64896800287611
 31
0.0
  0
LINE
  5
2B5
330
2
100
AcDbEntity
  8
0
100
AcDbLine
 10
-1.307127154116813
 20
15.6020180028761
 30
0.0
 11
-1.11937284622978
 21
15.6020180028761
 31
0.0
  0
LINE
  5
2B6
330
2
100
AcDbEntity
  8
0
100
AcDbLine
 10
-1.186143405368341
 20
15.81156800287611
 30
0.0
 11
-1.092266251091317
 21
15.6489680028761
 31
0.0
  0
ARC
  5
2B7
330
2
100
AcDbEntity
  8
0
100
AcDbCircle
 10
-1.213250000506804
 20
15.7959180028761
 30
0.0
 40
0.0313
100
AcDbArc
 50
29.99999999999917
 51
150.0
  0
LINE
  5
2B8
330
2
100
AcDbEntity
  8
0
100
AcDbLine
 10
-1.240356595645253
 20
15.81156800287611
 30
0.0
 11
-1.334233749266829
 21
15.64896800285607
 31
0.0
  0
LINE
  5
2B9
330
2
100
AcDbEntity
  8
0
100
AcDbLine
 10
-0.1140000000000008
 20
18.02569375810234
 30
0.0
 11
-0.1140000000000008
 21
20.09929375810235
 31
0.0
  0
LINE
  5
2BA
330
2
100
AcDbEntity
  8
0
100
AcDbLine
 10
1.739000000000001
 20
18.21319375810234
 30
0.0
 11
1.739000000000001
 21
20.09929375810235
 31
0.0
  0
LINE
  5
2BB
330
2
100
AcDbEntity
  8
0
100
AcDbLine
 10
1.798977778440513
 20
19.61609995325908
 30
0.0
 11
4.065022221559492
 21
16.91553334719389
 31
0.0
  0
LINE
  5
2BC
330
2
100
AcDbEntity
  8
0
100
AcDbLine
 10
1.625000000000004
 20
16.59413954235062
 30
0.0
 11
1.625000000000011
 21
20.25549375810235
 31
0.0
  0
LINE
  5
2BD
330
2
100
AcDbEntity
  8
0
100
AcDbLine
 10
0.0
 20
16.59413954235062
 30
0.0
 11
0.0
 21
20.25549375810234
 31
0.0
  0
ARC
  5
2BE
330
2
100
AcDbEntity
  8
0
100
AcDbCircle
 10
3.744500000506793
 20
11.92093048667143
 30
0.0
 40
0.0313
100
AcDbArc
 50
29.99999999999997
 51
150.0000000000007
  0
LINE
  5
2BF
330
2
100
AcDbEntity
  8
0
100
AcDbLine
 10
3.838377154116802
 20
11.72703048667144
 30
0.0
 11
3.650622846229769
 21
11.72703048667144
 31
0.0
  0
ARC
  5
2C0
330
2
100
AcDbEntity
  8
0
100
AcDbCircle
 10
3.775622846229769
 20
13.00833048667144
 30
0.0
 40
0.0313
100
AcDbArc
 50
150.0
 51
270.0000000000007
  0
LINE
  5
2C1
330
2
100
AcDbEntity
  8
0
100
AcDbLine
 10
3.842393405368338
 20
13.18658048667144
 30
0.0
 11
3.748516251091314
 21
13.02398048667143
 31
0.0
  0
ARC
  5
2C2
330
2
100
AcDbEntity
  8
0
100
AcDbCircle
 10
3.744500000506793
 20
14.92093048667143
 30
0.0
 40
0.0313
100
AcDbArc
 50
29.99999999999997
 51
150.0000000000007
  0
LINE
  5
2C3
330
2
100
AcDbEntity
  8
0
100
AcDbLine
 10
3.838377154116802
 20
14.72703048667144
 30
0.0
 11
3.650622846229769
 21
14.72703048667144
 31
0.0
  0
ARC
  5
2C4
330
2
100
AcDbEntity
  8
0
100
AcDbCircle
 10
3.775622846229769
 20
16.00833048667144
 30
0.0
 40
0.0313
100
AcDbArc
 50
150.0
 51
270.0000000000007
  0
LINE
  5
2C5
330
2
100
AcDbEntity
  8
0
100
AcDbLine
 10
3.842393405368338
 20
16.18658048667144
 30
0.0
 11
3.748516251091314
 21
16.02398048667143
 31
0.0
  0
ARC
  5
2C6
330
2
100
AcDbEntity
  8
0
100
AcDbCircle
 10
-0.3695000005068039
 20
10.7959180028761
 30
0.0
 40
0.0313
100
AcDbArc
 50
29.99999999999917
 51
150.0
  0
LINE
  5
2C7
330
2
100
AcDbEntity
  8
0
100
AcDbLine
 10
-0.463377154116813
 20
10.6020180028761
 30
0.0
 11
-0.2756228462297798
 21
10.6020180028761
 31
0.0
  0
ARC
  5
2C8
330
2
100
AcDbEntity
  8
0
100
AcDbCircle
 10
-0.463377154116813
 20
10.6333180028761
 30
0.0
 40
0.0313
100
AcDbArc
 50
150.0000000423437
 51
269.9999999999982
  0
LINE
  5
2C9
330
2
100
AcDbEntity
  8
0
100
AcDbLine
 10
-0.3966065956452525
 20
10.8115680028761
 30
0.0
 11
-0.4904837492668293
 21
10.64896800285607
 31
0.0
  0
ARC
  5
2CA
330
2
100
AcDbEntity
  8
0
100
AcDbCircle
 10
-0.2756228462297798
 20
10.6333180028761
 30
0.0
 40
0.0313
100
AcDbArc
 50
269.9999999999992
 51
29.99999999999997
  0
LINE
  5
2CB
330
2
100
AcDbEntity
  8
0
100
AcDbLine
 10
-0.3423934053683411
 20
10.8115680028761
 30
0.0
 11
-0.248516251091317
 21
10.64896800287609
 31
0.0
  0
LINE
  5
2CC
330
2
100
AcDbEntity
  8
0
100
AcDbLine
 10
-0.588377154116813
 20
12.1020180028761
 30
0.0
 11
-0.4006228462297798
 21
12.1020180028761
 31
0.0
  0
ARC
  5
2CD
330
2
100
AcDbEntity
  8
0
100
AcDbCircle
 10
-0.4945000005068039
 20
12.2959180028761
 30
0.0
 40
0.0313
100
AcDbArc
 50
29.99999999999917
 51
150.0
  0
LINE
  5
2CE
330
2
100
AcDbEntity
  8
0
100
AcDbLine
 10
-0.5216065956452525
 20
12.3115680028761
 30
0.0
 11
-0.6154837492668293
 21
12.14896800285607
 31
0.0
  0
LINE
  5
2CF
330
2
100
AcDbEntity
  8
0
100
AcDbLine
 10
-0.4673934053683411
 20
12.3115680028761
 30
0.0
 11
-0.373516251091317
 21
12.14896800287609
 31
0.0
  0
ARC
  5
2D0
330
2
100
AcDbEntity
  8
0
100
AcDbCircle
 10
-0.588377154116813
 20
12.1333180028761
 30
0.0
 40
0.0313
100
AcDbArc
 50
150.0000000423437
 51
269.9999999999982
  0
ARC
  5
2D1
330
2
100
AcDbEntity
  8
0
100
AcDbCircle
 10
-0.4006228462297798
 20
12.1333180028761
 30
0.0
 40
0.0313
100
AcDbArc
 50
269.9999999999992
 51
29.99999999999997
  0
LINE
  5
2D2
330
2
100
AcDbEntity
  8
0
100
AcDbLine
 10
-0.463377154116813
 20
13.6020180028761
 30
0.0
 11
-0.2756228462297798
 21
13.6020180028761
 31
0.0
  0
ARC
  5
2D3
330
2
100
AcDbEntity
  8
0
100
AcDbCircle
 10
-0.3695000005068039
 20
13.7959180028761
 30
0.0
 40
0.0313
100
AcDbArc
 50
29.99999999999917
 51
150.0
  0
ARC
  5
2D4
330
2
100
AcDbEntity
  8
0
100
AcDbCircle
 10
-0.463377154116813
 20
13.6333180028761
 30
0.0
 40
0.0313
100
AcDbArc
 50
150.0000000423437
 51
269.9999999999982
  0
LINE
  5
2D5
330
2
100
AcDbEntity
  8
0
100
AcDbLine
 10
-0.3966065956452525
 20
13.8115680028761
 30
0.0
 11
-0.4904837492668293
 21
13.64896800285607
 31
0.0
  0
ARC
  5
2D6
330
2
100
AcDbEntity
  8
0
100
AcDbCircle
 10
-0.2756228462297798
 20
13.6333180028761
 30
0.0
 40
0.0313
100
AcDbArc
 50
269.9999999999992
 51
29.99999999999997
  0
LINE
  5
2D7
330
2
100
AcDbEntity
  8
0
100
AcDbLine
 10
-0.3423934053683411
 20
13.8115680028761
 30
0.0
 11
-0.248516251091317
 21
13.64896800287609
 31
0.0
  0
ARC
  5
2D8
330
2
100
AcDbEntity
  8
0
100
AcDbCircle
 10
1.994500000506793
 20
10.92093048667143
 30
0.0
 40
0.0313
100
AcDbArc
 50
29.99999999999997
 51
150.0000000000007
  0
LINE
  5
2D9
330
2
100
AcDbEntity
  8
0
100
AcDbLine
 10
2.088377154116802
 20
10.72703048667144
 30
0.0
 11
1.900622846229762
 21
10.72703048667144
 31
0.0
  0
LINE
  5
2DA
330
2
100
AcDbEntity
  8
0
100
AcDbLine
 10
1.967393405368338
 20
10.93658048667144
 30
0.0
 11
1.873516251091314
 21
10.77398048667143
 31
0.0
  0
ARC
  5
2DB
330
2
100
AcDbEntity
  8
0
100
AcDbCircle
 10
1.900622846229762
 20
10.75833048667144
 30
0.0
 40
0.0313
100
AcDbArc
 50
150.0
 51
270.0000000000007
  0
LINE
  5
2DC
330
2
100
AcDbEntity
  8
0
100
AcDbLine
 10
2.021606595645242
 20
10.93658048667144
 30
0.0
 11
2.115483749266819
 21
10.77398048665141
 31
0.0
  0
ARC
  5
2DD
330
2
100
AcDbEntity
  8
0
100
AcDbCircle
 10
2.088377154116802
 20
10.75833048667144
 30
0.0
 40
0.0313
100
AcDbArc
 50
270.0000000000018
 51
29.99999995765633
  0
ARC
  5
2DE
330
2
100
AcDbEntity
  8
0
100
AcDbCircle
 10
2.025622846229769
 20
12.25833048667144
 30
0.0
 40
0.0313
100
AcDbArc
 50
150.0
 51
270.0000000000007
  0
LINE
  5
2DF
330
2
100
AcDbEntity
  8
0
100
AcDbLine
 10
2.092393405368338
 20
12.43658048667144
 30
0.0
 11
1.998516251091314
 21
12.27398048667143
 31
0.0
  0
ARC
  5
2E0
330
2
100
AcDbEntity
  8
0
100
AcDbCircle
 10
2.213377154116802
 20
12.25833048667144
 30
0.0
 40
0.0313
100
AcDbArc
 50
270.0000000000018
 51
29.99999995765633
  0
LINE
  5
2E1
330
2
100
AcDbEntity
  8
0
100
AcDbLine
 10
2.146606595645249
 20
12.43658048667144
 30
0.0
 11
2.240483749266819
 21
12.27398048665141
 31
0.0
  0
ARC
  5
2E2
330
2
100
AcDbEntity
  8
0
100
AcDbCircle
 10
2.119500000506793
 20
12.42093048667143
 30
0.0
 40
0.0313
100
AcDbArc
 50
29.99999999999997
 51
150.0000000000007
  0
LINE
  5
2E3
330
2
100
AcDbEntity
  8
0
100
AcDbLine
 10
2.213377154116802
 20
12.22703048667144
 30
0.0
 11
2.025622846229769
 21
12.22703048667144
 31
0.0
  0
LINE
  5
2E4
330
2
100
AcDbEntity
  8
0
100
AcDbLine
 10
2.932127154116802
 20
11.22703048667144
 30
0.0
 11
2.744372846229769
 21
11.22703048667144
 31
0.0
  0
ARC
  5
2E5
330
2
100
AcDbEntity
  8
0
100
AcDbCircle
 10
2.932127154116802
 20
11.25833048667144
 30
0.0
 40
0.0313
100
AcDbArc
 50
270.0000000000018
 51
29.99999995765633
  0
ARC
  5
2E6
330
2
100
AcDbEntity
  8
0
100
AcDbCircle
 10
2.744372846229769
 20
11.25833048667144
 30
0.0
 40
0.0313
100
AcDbArc
 50
150.0
 51
270.0000000000007
  0
ARC
  5
2E7
330
2
100
AcDbEntity
  8
0
100
AcDbCircle
 10
2.838250000506793
 20
11.42093048667143
 30
0.0
 40
0.0313
100
AcDbArc
 50
29.99999999999997
 51
150.0000000000007
  0
LINE
  5
2E8
330
2
100
AcDbEntity
  8
0
100
AcDbLine
 10
2.865356595645249
 20
11.43658048667144
 30
0.0
 11
2.959233749266819
 21
11.27398048665141
 31
0.0
  0
LINE
  5
2E9
330
2
100
AcDbEntity
  8
0
100
AcDbLine
 10
2.811143405368338
 20
11.43658048667144
 30
0.0
 11
2.717266251091314
 21
11.27398048667143
 31
0.0
  0
ARC
  5
2EA
330
2
100
AcDbEntity
  8
0
100
AcDbCircle
 10
3.650622846229769
 20
11.75833048667144
 30
0.0
 40
0.0313
100
AcDbArc
 50
150.0
 51
270.0000000000007
  0
LINE
  5
2EB
330
2
100
AcDbEntity
  8
0
100
AcDbLine
 10
3.717393405368338
 20
11.93658048667144
 30
0.0
 11
3.623516251091314
 21
11.77398048667143
 31
0.0
  0
LINE
  5
2EC
330
2
100
AcDbEntity
  8
0
100
AcDbLine
 10
2.088377154116802
 20
13.72703048667144
 30
0.0
 11
1.900622846229769
 21
13.72703048667144
 31
0.0
  0
ARC
  5
2ED
330
2
100
AcDbEntity
  8
0
100
AcDbCircle
 10
1.994500000506793
 20
13.92093048667143
 30
0.0
 40
0.0313
100
AcDbArc
 50
29.99999999999997
 51
150.0000000000007
  0
LINE
  5
2EE
330
2
100
AcDbEntity
  8
0
100
AcDbLine
 10
1.967393405368338
 20
13.93658048667144
 30
0.0
 11
1.873516251091314
 21
13.77398048667143
 31
0.0
  0
ARC
  5
2EF
330
2
100
AcDbEntity
  8
0
100
AcDbCircle
 10
1.900622846229769
 20
13.75833048667144
 30
0.0
 40
0.0313
100
AcDbArc
 50
150.0
 51
270.0000000000007
  0
LINE
  5
2F0
330
2
100
AcDbEntity
  8
0
100
AcDbLine
 10
2.021606595645249
 20
13.93658048667144
 30
0.0
 11
2.115483749266819
 21
13.77398048665141
 31
0.0
  0
ARC
  5
2F1
330
2
100
AcDbEntity
  8
0
100
AcDbCircle
 10
2.088377154116802
 20
13.75833048667144
 30
0.0
 40
0.0313
100
AcDbArc
 50
270.0000000000018
 51
29.99999995765633
  0
LINE
  5
2F2
330
2
100
AcDbEntity
  8
0
100
AcDbLine
 10
2.932127154116802
 20
12.72703048667144
 30
0.0
 11
2.744372846229769
 21
12.72703048667144
 31
0.0
  0
ARC
  5
2F3
330
2
100
AcDbEntity
  8
0
100
AcDbCircle
 10
2.932127154116802
 20
12.75833048667144
 30
0.0
 40
0.0313
100
AcDbArc
 50
270.0000000000018
 51
29.99999995765633
  0
ARC
  5
2F4
330
2
100
AcDbEntity
  8
0
100
AcDbCircle
 10
2.744372846229769
 20
12.75833048667144
 30
0.0
 40
0.0313
100
AcDbArc
 50
150.0
 51
270.0000000000007
  0
LINE
  5
2F5
330
2
100
AcDbEntity
  8
0
100
AcDbLine
 10
2.865356595645249
 20
12.93658048667144
 30
0.0
 11
2.959233749266819
 21
12.77398048665141
 31
0.0
  0
LINE
  5
2F6
330
2
100
AcDbEntity
  8
0
100
AcDbLine
 10
2.811143405368338
 20
12.93658048667144
 30
0.0
 11
2.717266251091314
 21
12.77398048667143
 31
0.0
  0
ARC
  5
2F7
330
2
100
AcDbEntity
  8
0
100
AcDbCircle
 10
2.838250000506793
 20
12.92093048667143
 30
0.0
 40
0.0313
100
AcDbArc
 50
29.99999999999997
 51
150.0000000000007
  0
LINE
  5
2F8
330
2
100
AcDbEntity
  8
0
100
AcDbLine
 10
2.932127154116802
 20
14.22703048667144
 30
0.0
 11
2.744372846229769
 21
14.22703048667144
 31
0.0
  0
LINE
  5
2F9
330
2
100
AcDbEntity
  8
0
100
AcDbLine
 10
2.865356595645249
 20
14.43658048667144
 30
0.0
 11
2.959233749266819
 21
14.27398048665141
 31
0.0
  0
ARC
  5
2FA
330
2
100
AcDbEntity
  8
0
100
AcDbCircle
 10
2.932127154116802
 20
14.25833048667144
 30
0.0
 40
0.0313
100
AcDbArc
 50
270.0000000000018
 51
29.99999995765633
  0
LINE
  5
2FB
330
2
100
AcDbEntity
  8
0
100
AcDbLine
 10
2.811143405368338
 20
14.43658048667144
 30
0.0
 11
2.717266251091314
 21
14.27398048667143
 31
0.0
  0
ARC
  5
2FC
330
2
100
AcDbEntity
  8
0
100
AcDbCircle
 10
2.744372846229769
 20
14.25833048667144
 30
0.0
 40
0.0313
100
AcDbArc
 50
150.0
 51
270.0000000000007
  0
ARC
  5
2FD
330
2
100
AcDbEntity
  8
0
100
AcDbCircle
 10
2.838250000506793
 20
14.42093048667143
 30
0.0
 40
0.0313
100
AcDbArc
 50
29.99999999999997
 51
150.0000000000007
  0
ARC
  5
2FE
330
2
100
AcDbEntity
  8
0
100
AcDbCircle
 10
-0.588377154116813
 20
15.1333180028761
 30
0.0
 40
0.0313
100
AcDbArc
 50
150.0000000423437
 51
269.9999999999982
  0
ARC
  5
2FF
330
2
100
AcDbEntity
  8
0
100
AcDbCircle
 10
-0.4006228462297798
 20
15.1333180028761
 30
0.0
 40
0.0313
100
AcDbArc
 50
269.9999999999992
 51
29.99999999999997
  0
ARC
  5
300
330
2
100
AcDbEntity
  8
0
100
AcDbCircle
 10
-0.4945000005068039
 20
15.2959180028761
 30
0.0
 40
0.0313
100
AcDbArc
 50
29.99999999999917
 51
150.0
  0
LINE
  5
301
330
2
100
AcDbEntity
  8
0
100
AcDbLine
 10
-0.5216065956452525
 20
15.3115680028761
 30
0.0
 11
-0.6154837492668293
 21
15.14896800285607
 31
0.0
  0
LINE
  5
302
330
2
100
AcDbEntity
  8
0
100
AcDbLine
 10
-0.4673934053683411
 20
15.3115680028761
 30
0.0
 11
-0.373516251091317
 21
15.14896800287611
 31
0.0
  0
LINE
  5
303
330
2
100
AcDbEntity
  8
0
100
AcDbLine
 10
-0.588377154116813
 20
15.1020180028761
 30
0.0
 11
-0.4006228462297798
 21
15.1020180028761
 31
0.0
  0
LINE
  5
304
330
2
100
AcDbEntity
  8
0
100
AcDbLine
 10
-0.0570000000000022
 20
16.59413954235062
 30
0.0
 11
0.0
 21
16.59413954235062
 31
0.0
  0
ARC
  5
305
330
2
100
AcDbEntity
  8
0
100
AcDbCircle
 10
-0.0570000000000022
 20
18.02569375810234
 30
0.0
 40
0.0569999999999986
100
AcDbArc
 50
180.0
 51
270.0
  0
ARC
  5
306
330
2
100
AcDbEntity
  8
0
100
AcDbCircle
 10
-0.0570000000000022
 20
18.65069375810234
 30
0.0
 40
0.0569999999999986
100
AcDbArc
 50
180.0
 51
270.0
  0
ARC
  5
307
330
2
100
AcDbEntity
  8
0
100
AcDbCircle
 10
2.025622846229769
 20
15.25833048667143
 30
0.0
 40
0.0313
100
AcDbArc
 50
150.0
 51
270.0000000000007
  0
ARC
  5
308
330
2
100
AcDbEntity
  8
0
100
AcDbCircle
 10
2.213377154116802
 20
15.25833048667143
 30
0.0
 40
0.0313
100
AcDbArc
 50
270.0000000000018
 51
29.99999995765633
  0
LINE
  5
309
330
2
100
AcDbEntity
  8
0
100
AcDbLine
 10
2.213377154116802
 20
15.22703048667143
 30
0.0
 11
2.025622846229769
 21
15.22703048667143
 31
0.0
  0
ARC
  5
30A
330
2
100
AcDbEntity
  8
0
100
AcDbCircle
 10
2.119500000506793
 20
15.42093048667143
 30
0.0
 40
0.0313
100
AcDbArc
 50
29.99999999999997
 51
150.0000000000007
  0
LINE
  5
30B
330
2
100
AcDbEntity
  8
0
100
AcDbLine
 10
2.146606595645249
 20
15.43658048667144
 30
0.0
 11
2.240483749266819
 21
15.2739804866514
 31
0.0
  0
LINE
  5
30C
330
2
100
AcDbEntity
  8
0
100
AcDbLine
 10
2.092393405368338
 20
15.43658048667144
 30
0.0
 11
1.998516251091314
 21
15.27398048667142
 31
0.0
  0
LINE
  5
30D
330
2
100
AcDbEntity
  8
0
100
AcDbLine
 10
1.625000000000004
 20
16.59413954235062
 30
0.0
 11
1.682000000000006
 21
16.59413954235062
 31
0.0
  0
ARC
  5
30E
330
2
100
AcDbEntity
  8
0
100
AcDbCircle
 10
3.650622846229769
 20
14.75833048667144
 30
0.0
 40
0.0313
100
AcDbArc
 50
150.0
 51
270.0000000000007
  0
LINE
  5
30F
330
2
100
AcDbEntity
  8
0
100
AcDbLine
 10
3.717393405368338
 20
14.93658048667144
 30
0.0
 11
3.623516251091314
 21
14.77398048667143
 31
0.0
  0
ARC
  5
310
330
2
100
AcDbEntity
  8
0
100
AcDbCircle
 10
2.932127154116802
 20
15.75833048667144
 30
0.0
 40
0.0313
100
AcDbArc
 50
270.0000000000018
 51
29.99999995765633
  0
ARC
  5
311
330
2
100
AcDbEntity
  8
0
100
AcDbCircle
 10
2.744372846229769
 20
15.75833048667144
 30
0.0
 40
0.0313
100
AcDbArc
 50
150.0
 51
270.0000000000007
  0
ARC
  5
312
330
2
100
AcDbEntity
  8
0
100
AcDbCircle
 10
2.838250000506793
 20
15.92093048667143
 30
0.0
 40
0.0313
100
AcDbArc
 50
29.99999999999997
 51
150.0000000000007
  0
LINE
  5
313
330
2
100
AcDbEntity
  8
0
100
AcDbLine
 10
2.932127154116802
 20
15.72703048667144
 30
0.0
 11
2.744372846229769
 21
15.72703048667144
 31
0.0
  0
LINE
  5
314
330
2
100
AcDbEntity
  8
0
100
AcDbLine
 10
2.865356595645249
 20
15.93658048667144
 30
0.0
 11
2.959233749266819
 21
15.77398048665141
 31
0.0
  0
LINE
  5
315
330
2
100
AcDbEntity
  8
0
100
AcDbLine
 10
2.811143405368338
 20
15.93658048667144
 30
0.0
 11
2.717266251091314
 21
15.77398048667143
 31
0.0
  0
ARC
  5
316
330
2
100
AcDbEntity
  8
0
100
AcDbCircle
 10
1.681999999999999
 20
18.21319375810234
 30
0.0
 40
0.0569999999999986
100
AcDbArc
 50
270.0
 51
0.0
  0
ARC
  5
317
330
2
100
AcDbEntity
  8
0
100
AcDbCircle
 10
1.681999999999999
 20
18.65069375810234
 30
0.0
 40
0.0569999999999986
100
AcDbArc
 50
270.0
 51
0.0
  0
ARC
  5
318
330
2
100
AcDbEntity
  8
0
100
AcDbCircle
 10
3.838377154116802
 20
11.75833048667144
 30
0.0
 40
0.0313
100
AcDbArc
 50
270.0000000000018
 51
29.99999995765633
  0
LINE
  5
319
330
2
100
AcDbEntity
  8
0
100
AcDbLine
 10
3.771606595645249
 20
11.93658048667144
 30
0.0
 11
3.865483749266819
 21
11.77398048665141
 31
0.0
  0
LINE
  5
31A
330
2
100
AcDbEntity
  8
0
100
AcDbLine
 10
3.896606595645249
 20
13.18658048667144
 30
0.0
 11
3.990483749266819
 21
13.02398048665141
 31
0.0
  0
ARC
  5
31B
330
2
100
AcDbEntity
  8
0
100
AcDbCircle
 10
3.869500000506793
 20
13.17093048667143
 30
0.0
 40
0.0313
100
AcDbArc
 50
29.99999999999997
 51
150.0000000000007
  0
ARC
  5
31C
330
2
100
AcDbEntity
  8
0
100
AcDbCircle
 10
3.963377154116802
 20
13.00833048667144
 30
0.0
 40
0.0313
100
AcDbArc
 50
270.0000000000018
 51
29.99999995765633
  0
LINE
  5
31D
330
2
100
AcDbEntity
  8
0
100
AcDbLine
 10
3.963377154116802
 20
12.97703048667144
 30
0.0
 11
3.775622846229769
 21
12.97703048667144
 31
0.0
  0
ARC
  5
31E
330
2
100
AcDbEntity
  8
0
100
AcDbCircle
 10
3.681999999999999
 20
16.59413954235062
 30
0.0
 40
0.5
100
AcDbArc
 50
0.0
 51
40.00000000000002
  0
LINE
  5
31F
330
2
100
AcDbEntity
  8
0
100
AcDbLine
 10
3.771606595645249
 20
14.93658048667144
 30
0.0
 11
3.865483749266819
 21
14.77398048665141
 31
0.0
  0
ARC
  5
320
330
2
100
AcDbEntity
  8
0
100
AcDbCircle
 10
3.838377154116802
 20
14.75833048667144
 30
0.0
 40
0.0313
100
AcDbArc
 50
270.0000000000018
 51
29.99999995765633
  0
ARC
  5
321
330
2
100
AcDbEntity
  8
0
100
AcDbCircle
 10
3.963377154116802
 20
16.00833048667144
 30
0.0
 40
0.0313
100
AcDbArc
 50
270.0000000000018
 51
29.99999995765633
  0
LINE
  5
322
330
2
100
AcDbEntity
  8
0
100
AcDbLine
 10
3.963377154116802
 20
15.97703048667144
 30
0.0
 11
3.775622846229769
 21
15.97703048667144
 31
0.0
  0
ARC
  5
323
330
2
100
AcDbEntity
  8
0
100
AcDbCircle
 10
3.869500000506793
 20
16.17093048667143
 30
0.0
 40
0.0313
100
AcDbArc
 50
29.99999999999997
 51
150.0000000000007
  0
LINE
  5
324
330
2
100
AcDbEntity
  8
0
100
AcDbLine
 10
3.896606595645249
 20
16.18658048667144
 30
0.0
 11
3.990483749266819
 21
16.02398048665141
 31
0.0
  0
LINE
  5
325
330
2
100
AcDbEntity
  8
0
100
AcDbLine
 10
0.0569999999999951
 20
20.36949375810236
 30
0.0
 11
1.568000000000001
 21
20.36949375810236
 31
0.0
  0
LINE
  5
326
330
2
100
AcDbEntity
  8
0
100
AcDbLine
 10
0.0570000000000022
 20
20.31249375810234
 30
0.0
 11
1.568000000000009
 21
20.31249375810234
 31
0.0
  0
ARC
  5
327
330
2
100
AcDbEntity
  8
0
100
AcDbCircle
 10
-0.5570000000000022
 20
19.93749375810235
 30
0.0
 40
0.5
100
AcDbArc
 50
320.0000000000001
 51
0.0
  0
ARC
  5
328
330
2
100
AcDbEntity
  8
0
100
AcDbCircle
 10
-0.0570000000000022
 20
20.09929375810235
 30
0.0
 40
0.0569999999999986
100
AcDbArc
 50
90.0
 51
180.0
  0
LINE
  5
329
330
2
100
AcDbEntity
  8
0
100
AcDbLine
 10
0.0855000000000032
 20
20.31249375810234
 30
0.0
 11
0.0855000000000032
 21
20.36949375810236
 31
0.0
  0
LINE
  5
32A
330
2
100
AcDbEntity
  8
0
100
AcDbLine
 10
-0.0570000000000022
 20
20.22699375810236
 30
0.0
 11
0.0
 21
20.22699375810236
 31
0.0
  0
ARC
  5
32B
330
2
100
AcDbEntity
  8
0
100
AcDbCircle
 10
0.0569999999999951
 20
20.25549375810235
 30
0.0
 40
0.114
100
AcDbArc
 50
90.0
 51
180.0
  0
ARC
  5
32C
330
2
100
AcDbEntity
  8
0
100
AcDbCircle
 10
0.0570000000000022
 20
20.25549375810234
 30
0.0
 40
0.057
100
AcDbArc
 50
90.00000000000006
 51
180.0
  0
LINE
  5
32D
330
2
100
AcDbEntity
  8
0
100
AcDbLine
 10
-0.0570000000000022
 20
20.22699375810236
 30
0.0
 11
-0.0570000000000022
 21
19.93749375810235
 31
0.0
  0
ARC
  5
32E
330
2
100
AcDbEntity
  8
0
100
AcDbCircle
 10
2.181999999999999
 20
19.93749375810235
 30
0.0
 40
0.5
100
AcDbArc
 50
180.0
 51
220.0000000000002
  0
ARC
  5
32F
330
2
100
AcDbEntity
  8
0
100
AcDbCircle
 10
1.681999999999999
 20
20.09929375810235
 30
0.0
 40
0.0569999999999986
100
AcDbArc
 50
0.0
 51
90.0
  0
LINE
  5
330
330
2
100
AcDbEntity
  8
0
100
AcDbLine
 10
1.539500000000007
 20
20.31249375810234
 30
0.0
 11
1.539500000000007
 21
20.36949375810236
 31
0.0
  0
LINE
  5
331
330
2
100
AcDbEntity
  8
0
100
AcDbLine
 10
1.625000000000011
 20
20.22699375810236
 30
0.0
 11
1.682000000000006
 21
20.22699375810236
 31
0.0
  0
ARC
  5
332
330
2
100
AcDbEntity
  8
0
100
AcDbCircle
 10
1.568000000000001
 20
20.25549375810235
 30
0.0
 40
0.114
100
AcDbArc
 50
359.9999999999999
 51
90.0
  0
ARC
  5
333
330
2
100
AcDbEntity
  8
0
100
AcDbCircle
 10
1.568000000000009
 20
20.25549375810235
 30
0.0
 40
0.057
100
AcDbArc
 50
0.0
 51
90.00000000000006
  0
LINE
  5
334
330
2
100
AcDbEntity
  8
0
100
AcDbLine
 10
1.681999999999999
 20
19.93749375810235
 30
0.0
 11
1.681999999999999
 21
20.22699375810236
 31
0.0
  0
LINE
  5
335
330
2
100
AcDbEntity
  8
0
100
AcDbLine
 10
-20.57370897321803
 20
3.437500000000014
 30
0.0
 11
-20.57370897321805
 21
19.93749375810235
 31
0.0
  0
LINE
  5
336
330
2
100
AcDbEntity
  8
0
100
AcDbLine
 10
-20.51670897321804
 20
3.437500000000014
 30
0.0
 11
-20.51670897321806
 21
19.93749375810235
 31
0.0
  0
CIRCLE
  5
337
330
2
100
AcDbEntity
  8
0
100
AcDbCircle
 10
-18.64170897321804
 20
2.5
 30
0.0
 40
0.0855
  0
LINE
  5
338
330
2
100
AcDbEntity
  8
0
100
AcDbLine
 10
-20.51670897321804
 20
3.437500000000014
 30
0.0
 11
-20.51670897321804
 21
0.0000000000000142
 31
0.0
  0
LINE
  5
339
330
2
100
AcDbEntity
  8
0
100
AcDbLine
 10
-18.01670897321804
 20
0.0000000000000142
 30
0.0
 11
-18.01670897321804
 21
3.4375
 31
0.0
  0
LINE
  5
33A
330
2
100
AcDbEntity
  8
0
100
AcDbLine
 10
-20.51670897321804
 20
0.0
 30
0.0
 11
-18.01670897321804
 21
0.0000000000000142
 31
0.0
  0
CIRCLE
  5
33B
330
2
100
AcDbEntity
  8
0
100
AcDbCircle
 10
-18.51670897321804
 20
1.0
 30
0.0
 40
0.0855
  0
CIRCLE
  5
33C
330
2
100
AcDbEntity
  8
0
100
AcDbCircle
 10
-20.01670897321804
 20
0.5
 30
0.0
 40
0.0855
  0
CIRCLE
  5
33D
330
2
100
AcDbEntity
  8
0
100
AcDbCircle
 10
-19.26670897321804
 20
1.5
 30
0.0
 40
0.0855
  0
CIRCLE
  5
33E
330
2
100
AcDbEntity
  8
0
100
AcDbCircle
 10
-19.89170897321804
 20
2.0
 30
0.0
 40
0.0855
  0
LINE
  5
33F
330
2
100
AcDbEntity
  8
0
100
AcDbLine
 10
-18.13368675165856
 20
3.758893804843282
 30
0.0
 11
-20.39973119477753
 21
6.45946041090847
 31
0.0
  0
ARC
  5
340
330
2
100
AcDbEntity
  8
0
100
AcDbCircle
 10
-18.51670897321804
 20
3.437500000000014
 30
0.0
 40
0.5
100
AcDbArc
 50
359.9999999999999
 51
39.99999999999998
  0
CIRCLE
  5
341
330
2
100
AcDbEntity
  8
0
100
AcDbCircle
 10
-19.26670897321804
 20
3.0
 30
0.0
 40
0.0855
  0
LINE
  5
342
330
2
100
AcDbEntity
  8
0
100
AcDbLine
 10
-20.51670897321804
 20
3.437500000000014
 30
0.0
 11
-20.57370897321803
 21
3.437500000000014
 31
0.0
  0
ARC
  5
343
330
2
100
AcDbEntity
  8
0
100
AcDbCircle
 10
-20.01670897321804
 20
6.780854215751738
 30
0.0
 40
0.5
100
AcDbArc
 50
180.0000000000001
 51
220.0
  0
LINE
  5
344
330
2
100
AcDbEntity
  8
0
100
AcDbLine
 10
-19.86600897321804
 20
18.24999375810234
 30
0.0
 11
-19.86600897321804
 21
19.00835377290621
 31
0.0
  0
LINE
  5
345
330
2
100
AcDbEntity
  8
0
100
AcDbLine
 10
-19.79240897321805
 20
18.24999375810234
 30
0.0
 11
-19.79240897321803
 21
19.00835377290621
 31
0.0
  0
LINE
  5
346
330
2
100
AcDbEntity
  8
0
100
AcDbLine
 10
-19.16740897321805
 20
18.68749375810234
 30
0.0
 11
-19.16740897321805
 21
20.06249375810235
 31
0.0
  0
LINE
  5
347
330
2
100
AcDbEntity
  8
0
100
AcDbLine
 10
-19.24100897321804
 20
18.68749375810234
 30
0.0
 11
-19.24100897321804
 21
20.06249375810235
 31
0.0
  0
LINE
  5
348
330
2
100
AcDbEntity
  8
0
100
AcDbLine
 10
-19.92300897321805
 20
18.24999375810234
 30
0.0
 11
-19.92300897321805
 21
19.00835377290621
 31
0.0
  0
LINE
  5
349
330
2
100
AcDbEntity
  8
0
100
AcDbLine
 10
-19.73540897321804
 20
18.24999375810234
 30
0.0
 11
-19.73540897321804
 21
19.00835377290621
 31
0.0
  0
LINE
  5
34A
330
2
100
AcDbEntity
  8
0
100
AcDbLine
 10
-19.29800897321805
 20
18.68749375810234
 30
0.0
 11
-19.29800897321805
 21
20.06249375810235
 31
0.0
  0
LINE
  5
34B
330
2
100
AcDbEntity
  8
0
100
AcDbLine
 10
-19.11040897321804
 20
18.68749375810234
 30
0.0
 11
-19.11040897321804
 21
20.06249375810235
 31
0.0
  0
LINE
  5
34C
330
2
100
AcDbEntity
  8
0
100
AcDbLine
 10
-18.13368675165856
 20
19.61609995325908
 30
0.0
 11
-20.39973119477754
 21
16.91553334719389
 31
0.0
  0
ARC
  5
34D
330
2
100
AcDbEntity
  8
0
100
AcDbCircle
 10
-20.01670897321804
 20
16.59413954235062
 30
0.0
 40
0.5
100
AcDbArc
 50
140.0000000000001
 51
180.0000000000001
  0
ARC
  5
34E
330
2
100
AcDbEntity
  8
0
100
AcDbCircle
 10
-19.20420897321804
 20
18.68749375810234
 30
0.0
 40
0.0368
100
AcDbArc
 50
180.0
 51
0.000000000000007
  0
ARC
  5
34F
330
2
100
AcDbEntity
  8
0
100
AcDbCircle
 10
-19.20420897321804
 20
18.68749375810234
 30
0.0
 40
0.0938
100
AcDbArc
 50
180.0
 51
0.000000000000007
  0
ARC
  5
350
330
2
100
AcDbEntity
  8
0
100
AcDbCircle
 10
-19.82920897321804
 20
18.24999375810234
 30
0.0
 40
0.0368
100
AcDbArc
 50
180.0
 51
0.000000000000007
  0
ARC
  5
351
330
2
100
AcDbEntity
  8
0
100
AcDbCircle
 10
-19.82920897321804
 20
18.24999375810234
 30
0.0
 40
0.0938
100
AcDbArc
 50
180.0
 51
0.000000000000007
  0
LINE
  5
352
330
2
100
AcDbEntity
  8
0
  6
HIDDEN
100
AcDbLine
 10
-20.4312089732172
 20
20.31249375810235
 30
0.0
 11
-18.10220897321841
 21
20.31249375810235
 31
0.0
  0
LINE
  5
353
330
2
100
AcDbEntity
  8
0
100
AcDbLine
 10
-20.51670897321804
 20
20.36949375810234
 30
0.0
 11
-18.01670897321806
 21
20.36949375810234
 31
0.0
  0
ARC
  5
354
330
2
100
AcDbEntity
  8
0
100
AcDbCircle
 10
-18.51670897321804
 20
19.93749375810235
 30
0.0
 40
0.5
100
AcDbArc
 50
320.0000000000001
 51
359.9999999999999
  0
LINE
  5
355
330
2
100
AcDbEntity
  8
0
100
AcDbLine
 10
-18.10220897321806
 20
20.31249375810235
 30
0.0
 11
-18.01670897321806
 21
20.31249375810235
 31
0.0
  0
ARC
  5
356
330
2
100
AcDbEntity
  8
0
100
AcDbCircle
 10
-18.01670897321804
 20
20.31249375810235
 30
0.0
 40
0.0855
100
AcDbArc
 50
138.1896851042228
 51
270.0
  0
LINE
  5
357
330
2
100
AcDbEntity
  8
0
100
AcDbLine
 10
-18.01670897321804
 20
20.36949375810236
 30
0.0
 11
-18.01670897321804
 21
20.31249375810235
 31
0.0
  0
LINE
  5
358
330
2
100
AcDbEntity
  8
0
100
AcDbLine
 10
-18.01670897321804
 20
20.22699375810236
 30
0.0
 11
-18.01670897321804
 21
19.93749375810235
 31
0.0
  0
CIRCLE
  5
359
330
2
100
AcDbEntity
  8
0
100
AcDbCircle
 10
-20.01670897321804
 20
19.31249375810235
 30
0.0
 40
0.0855
  0
LINE
  5
35A
330
2
100
AcDbEntity
  8
0
100
AcDbLine
 10
-19.74100897321804
 20
19.32536786593323
 30
0.0
 11
-19.74100897321804
 21
20.06249375810235
 31
0.0
  0
LINE
  5
35B
330
2
100
AcDbEntity
  8
0
100
AcDbLine
 10
-19.66740897321803
 20
19.32536786593323
 30
0.0
 11
-19.66740897321805
 21
20.06249375810235
 31
0.0
  0
LINE
  5
35C
330
2
100
AcDbEntity
  8
0
100
AcDbLine
 10
-19.79800897321805
 20
19.32536786593323
 30
0.0
 11
-19.79800897321805
 21
20.06249375810235
 31
0.0
  0
LINE
  5
35D
330
2
100
AcDbEntity
  8
0
100
AcDbLine
 10
-19.61040897321804
 20
19.32536786593323
 30
0.0
 11
-19.61040897321804
 21
20.06249375810235
 31
0.0
  0
CIRCLE
  5
35E
330
2
100
AcDbEntity
  8
0
100
AcDbCircle
 10
-19.51670897321804
 20
18.56249375810234
 30
0.0
 40
0.0855
  0
ARC
  5
35F
330
2
100
AcDbEntity
  8
0
100
AcDbCircle
 10
-19.64160897321804
 20
19.00835377290621
 30
0.0
 40
0.2244
100
AcDbArc
 50
150.0000000000002
 51
180.0
  0
LINE
  5
360
330
2
100
AcDbEntity
  8
0
100
AcDbLine
 10
-19.76119894486773
 20
19.25001786593322
 30
0.0
 11
-19.83594507382726
 21
19.1205537729062
 31
0.0
  0
ARC
  5
361
330
2
100
AcDbEntity
  8
0
100
AcDbCircle
 10
-19.89170897321804
 20
19.32536786593323
 30
0.0
 40
0.1507
100
AcDbArc
 50
330.0000000000004
 51
0.000000000000007
  0
ARC
  5
362
330
2
100
AcDbEntity
  8
0
100
AcDbCircle
 10
-19.64160897321804
 20
19.00835377290621
 30
0.0
 40
0.1508
100
AcDbArc
 50
150.0000000000002
 51
180.0
  0
LINE
  5
363
330
2
100
AcDbEntity
  8
0
100
AcDbLine
 10
-19.69745947514919
 20
19.21321786593322
 30
0.0
 11
-19.77220560410873
 21
19.0837537729062
 31
0.0
  0
ARC
  5
364
330
2
100
AcDbEntity
  8
0
100
AcDbCircle
 10
-19.89170897321804
 20
19.32536786593323
 30
0.0
 40
0.2243
100
AcDbArc
 50
330.0000000000004
 51
0.000000000000007
  0
ARC
  5
365
330
2
100
AcDbEntity
  8
0
100
AcDbCircle
 10
-19.64160897321804
 20
19.00835377290621
 30
0.0
 40
0.2814
100
AcDbArc
 50
150.0000000000002
 51
180.0
  0
LINE
  5
366
330
2
100
AcDbEntity
  8
0
100
AcDbLine
 10
-19.64809602713348
 20
19.18471786593323
 30
0.0
 11
-19.72284215609302
 21
19.0552537729062
 31
0.0
  0
ARC
  5
367
330
2
100
AcDbEntity
  8
0
100
AcDbCircle
 10
-19.89170897321804
 20
19.32536786593323
 30
0.0
 40
0.0937
100
AcDbArc
 50
330.0000000000004
 51
0.000000000000007
  0
ARC
  5
368
330
2
100
AcDbEntity
  8
0
100
AcDbCircle
 10
-19.89170897321804
 20
19.32536786593323
 30
0.0
 40
0.2813
100
AcDbArc
 50
330.0000000000004
 51
0.000000000000007
  0
ARC
  5
369
330
2
100
AcDbEntity
  8
0
100
AcDbCircle
 10
-19.64160897321804
 20
19.00835377290621
 30
0.0
 40
0.0938
100
AcDbArc
 50
150.0000000000002
 51
180.0
  0
LINE
  5
36A
330
2
100
AcDbEntity
  8
0
100
AcDbLine
 10
-19.81056239288344
 20
19.27851786593323
 30
0.0
 11
-19.88530852184299
 21
19.1490537729062
 31
0.0
  0
ARC
  5
36B
330
2
100
AcDbEntity
  8
0
100
AcDbCircle
 10
-19.20420897321804
 20
20.06249375810235
 30
0.0
 40
0.0368
100
AcDbArc
 50
0.000000000000007
 51
180.0
  0
ARC
  5
36C
330
2
100
AcDbEntity
  8
0
100
AcDbCircle
 10
-19.20420897321804
 20
20.06249375810235
 30
0.0
 40
0.0938
100
AcDbArc
 50
0.000000000000007
 51
180.0
  0
ARC
  5
36D
330
2
100
AcDbEntity
  8
0
100
AcDbCircle
 10
-19.70420897321804
 20
20.06249375810235
 30
0.0
 40
0.0368
100
AcDbArc
 50
0.000000000000007
 51
180.0
  0
ARC
  5
36E
330
2
100
AcDbEntity
  8
0
100
AcDbCircle
 10
-19.70420897321804
 20
20.06249375810235
 30
0.0
 40
0.0938
100
AcDbArc
 50
0.000000000000007
 51
180.0
  0
LINE
  5
36F
330
2
100
AcDbEntity
  8
0
100
AcDbLine
 10
-20.51670897321804
 20
19.93749375810235
 30
0.0
 11
-20.57370897321805
 21
19.93749375810235
 31
0.0
  0
LINE
  5
370
330
2
100
AcDbEntity
  8
0
100
AcDbLine
 10
-20.51670897321804
 20
20.36949375810236
 30
0.0
 11
-20.51670897321804
 21
20.31249375810235
 31
0.0
  0
ARC
  5
371
330
2
100
AcDbEntity
  8
0
100
AcDbCircle
 10
-20.51670897321804
 20
20.31249375810235
 30
0.0
 40
0.0855
100
AcDbArc
 50
270.0
 51
41.81031489577727
  0
LINE
  5
372
330
2
100
AcDbEntity
  8
0
100
AcDbLine
 10
-20.51670897321804
 20
20.22699375810236
 30
0.0
 11
-20.51670897321804
 21
19.93749375810235
 31
0.0
  0
LINE
  5
373
330
2
100
AcDbEntity
  8
0
100
AcDbLine
 10
-20.51670897321806
 20
20.31249375810234
 30
0.0
 11
-20.43120897321805
 21
20.31249375810234
 31
0.0
  0
ENDSEC
  0
SECTION
  2
OBJECTS
  0
DICTIONARY
  5
9
330
0
100
AcDbDictionary
281
     1
  3
ACAD_COLOR
350
1BF
  3
ACAD_GROUP
350
23
  3
ACAD_LAYOUT
350
D
  3
ACAD_MATERIAL
350
1BE
  3
ACAD_MLINESTYLE
350
24
  3
ACAD_PLOTSETTINGS
350
25
  3
ACAD_PLOTSTYLENAME
350
8
  3
ACAD_TABLESTYLE
350
1C0
  3
ACDBHEADERROUNDTRIPXREC
350
39B
  3
AcDbVariableDictionary
350
1BA
  0
DICTIONARY
  5
3
330
2
100
AcDbDictionary
280
     1
281
     1
  3
ACAD_SORTENTS
360
1C8
  0
DICTIONARY
  5
1BF
102
{ACAD_REACTORS
330
9
102
}
330
9
100
AcDbDictionary
281
     1
  0
DICTIONARY
  5
23
102
{ACAD_REACTORS
330
9
102
}
330
9
100
AcDbDictionary
281
     1
  0
DICTIONARY
  5
D
102
{ACAD_REACTORS
330
9
102
}
330
9
100
AcDbDictionary
281
     1
  3
Layout1
350
13
  3
Model
350
C
  0
DICTIONARY
  5
1BE
102
{ACAD_REACTORS
330
9
102
}
330
9
100
AcDbDictionary
281
     1
  0
DICTIONARY
  5
24
102
{ACAD_REACTORS
330
9
102
}
330
9
100
AcDbDictionary
281
     1
  3
STANDARD
350
27
  0
DICTIONARY
  5
25
102
{ACAD_REACTORS
330
9
102
}
330
9
100
AcDbDictionary
281
     1
  0
ACDBDICTIONARYWDFLT
  5
8
102
{ACAD_REACTORS
330
9
102
}
330
9
100
AcDbDictionary
281
     1
  3
Normal
350
7
100
AcDbDictionaryWithDefault
340
7
  0
DICTIONARY
  5
1C0
102
{ACAD_REACTORS
330
9
102
}
330
9
100
AcDbDictionary
281
     1
  3
Standard
350
1C1
  0
DICTIONARY
  5
39B
102
{ACAD_REACTORS
330
9
102
}
330
9
100
AcDbDictionary
281
     1
  3
COLORDICT
350
39C
  3
MATERIALDICT
350
39D
  0
DICTIONARY
  5
1BA
102
{ACAD_REACTORS
330
9
102
}
330
9
100
AcDbDictionary
281
     1
  3
CTABLESTYLE
350
37B
  3
HIDETEXT
350
39A
  0
SORTENTSTABLE
  5
1C8
102
{ACAD_REACTORS
330
3
102
}
330
3
100
AcDbSortentsTable
330
2
331
2EC
  5
28E
331
207
  5
333
331
328
  5
2CA
331
22C
  5
1CE
331
26B
  5
20D
331
356
  5
2F9
331
357
  5
2FA
331
358
  5
2FB
331
302
  5
2A4
331
252
  5
1F4
331
2B6
  5
258
331
210
  5
33C
331
2AE
  5
250
331
2AB
  5
24D
331
291
  5
233
331
1FC
  5
328
331
1D1
  5
35A
331
1F6
  5
322
331
265
  5
207
331
234
  5
1D6
331
1E6
  5
36F
331
254
  5
1F6
331
2F8
  5
29A
331
306
  5
2A8
331
245
  5
1E7
331
2C0
  5
262
331
1E4
  5
36D
331
1E1
  5
36A
331
24E
  5
1F0
331
258
  5
1FA
331
26F
  5
211
331
286
  5
228
331
2C1
  5
263
331
2EB
  5
28D
331
326
  5
2C8
331
327
  5
2C9
331
309
  5
2AB
331
34A
  5
2ED
331
34B
  5
2EE
331
363
  5
306
331
364
  5
307
331
365
  5
308
331
366
  5
309
331
348
  5
2EB
331
349
  5
2EC
331
31A
  5
2BC
331
2D2
  5
274
331
2C5
  5
267
331
2C9
  5
26B
331
36F
  5
312
331
370
  5
313
331
371
  5
314
331
372
  5
315
331
373
  5
316
331
2A9
  5
24B
331
295
  5
237
331
346
  5
2E9
331
347
  5
2EA
331
294
  5
236
331
2DA
  5
27C
331
313
  5
2B5
331
314
  5
2B6
331
30A
  5
2AC
331
1E8
  5
371
331
340
  5
2E3
331
341
  5
2E4
331
2F3
  5
295
331
2B7
  5
259
331
2E0
  5
282
331
359
  5
2FC
331
35A
  5
2FD
331
35B
  5
2FE
331
2B5
  5
257
331
259
  5
1FB
331
274
  5
216
331
1F3
  5
31F
331
31E
  5
2C0
331
1FF
  5
32B
331
26A
  5
20C
331
200
  5
32C
331
2CB
  5
26D
331
227
  5
353
331
26D
  5
20F
331
23B
  5
1DD
331
321
  5
2C3
331
21F
  5
34B
331
279
  5
21B
331
2CA
  5
26C
331
338
  5
2DB
331
339
  5
2DC
331
278
  5
21A
331
285
  5
227
331
277
  5
219
331
299
  5
23B
331
223
  5
34F
331
304
  5
2A6
331
28C
  5
22E
331
24C
  5
1EE
331
26E
  5
210
331
1FA
  5
326
331
21A
  5
346
331
29D
  5
23F
331
360
  5
303
331
361
  5
304
331
362
  5
305
331
281
  5
223
331
25A
  5
1FC
331
2DF
  5
281
331
34C
  5
2EF
331
34D
  5
2F0
331
301
  5
2A3
331
2BF
  5
261
331
33E
  5
2E1
331
33F
  5
2E2
331
2A1
  5
243
331
282
  5
224
331
283
  5
225
331
273
  5
215
331
270
  5
212
331
1FD
  5
329
331
342
  5
2E5
331
343
  5
2E6
331
21D
  5
349
331
305
  5
2A7
331
263
  5
205
331
316
  5
2B8
331
229
  5
355
331
228
  5
354
331
1DD
  5
366
331
250
  5
1F2
331
1D5
  5
35E
331
241
  5
1E3
331
204
  5
330
331
20E
  5
33A
331
215
  5
341
331
2D5
  5
277
331
231
  5
1D3
331
2BC
  5
25E
331
20A
  5
336
331
2FB
  5
29D
331
202
  5
32E
331
1F2
  5
31E
331
2B1
  5
253
331
23F
  5
1E1
331
1D4
  5
35D
331
24F
  5
1F1
331
2E8
  5
28A
331
2E7
  5
289
331
260
  5
202
331
1E7
  5
370
331
244
  5
1E6
331
2E2
  5
284
331
1D9
  5
362
331
1F1
  5
31D
331
2D8
  5
27A
331
272
  5
214
331
288
  5
22A
331
257
  5
1F9
331
2C4
  5
266
331
2EF
  5
291
331
344
  5
2E7
331
345
  5
2E8
331
2FD
  5
29F
331
2D3
  5
275
331
2C6
  5
268
331
2A4
  5
246
331
21B
  5
347
331
1DE
  5
367
331
203
  5
32F
331
2D4
  5
276
331
334
  5
2D6
331
335
  5
2D8
331
230
  5
1D2
331
212
  5
33E
331
22E
  5
1D0
331
29C
  5
23E
331
1CF
  5
358
331
1CD
  5
356
331
25F
  5
201
331
251
  5
1F3
331
32F
  5
2D1
331
330
  5
2D2
331
1DF
  5
368
331
20D
  5
339
331
2ED
  5
28F
331
319
  5
2BB
331
2D0
  5
272
331
32C
  5
2CE
331
32D
  5
2CF
331
2E6
  5
288
331
29F
  5
241
331
29E
  5
240
331
2E5
  5
287
331
1F8
  5
324
331
1E0
  5
369
331
22D
  5
1CF
331
25C
  5
1FE
331
2B2
  5
254
331
307
  5
2A9
331
308
  5
2AA
331
1F4
  5
320
331
235
  5
1D7
331
2B0
  5
252
331
315
  5
2B7
331
25E
  5
200
331
23C
  5
1DE
331
1D0
  5
359
331
24A
  5
1EC
331
2FE
  5
2A0
331
27B
  5
21D
331
27C
  5
21E
331
2C8
  5
26A
331
2A8
  5
24A
331
28F
  5
231
331
296
  5
238
331
32E
  5
2D0
331
214
  5
340
331
2FC
  5
29E
331
2F0
  5
292
331
2AC
  5
24E
331
290
  5
232
331
24D
  5
1EF
331
25B
  5
1FD
331
2F1
  5
293
331
27D
  5
21F
331
205
  5
331
331
1D2
  5
35B
331
2D6
  5
278
331
1DA
  5
363
331
33A
  5
2DD
331
33B
  5
2DE
331
2AD
  5
24F
331
1D3
  5
35C
331
2A6
  5
248
331
28E
  5
230
331
256
  5
1F8
331
2B9
  5
25B
331
220
  5
34C
331
253
  5
1F5
331
1E5
  5
36E
331
271
  5
213
331
216
  5
342
331
2D9
  5
27B
331
1EC
  5
318
331
2F2
  5
294
331
22F
  5
1D1
331
268
  5
20A
331
1EA
  5
373
331
2DB
  5
27D
331
240
  5
1E2
331
317
  5
2B9
331
318
  5
2BA
331
237
  5
1D9
331
219
  5
345
331
246
  5
1E8
331
261
  5
203
331
213
  5
33F
331
247
  5
1E9
331
249
  5
1EB
331
20F
  5
33B
331
2C7
  5
269
331
20C
  5
338
331
1EB
  5
317
331
2C3
  5
265
331
201
  5
32D
331
34E
  5
2F1
331
34F
  5
2F2
331
2A7
  5
249
331
293
  5
235
331
2E9
  5
28B
331
27F
  5
221
331
222
  5
34E
331
1F0
  5
31C
331
350
  5
2F3
331
351
  5
2F4
331
352
  5
2F5
331
224
  5
350
331
264
  5
206
331
275
  5
217
331
239
  5
1DB
331
206
  5
332
331
2BE
  5
260
331
238
  5
1DA
331
287
  5
229
331
1D8
  5
361
331
2DE
  5
280
331
217
  5
343
331
2F4
  5
296
331
226
  5
352
331
30D
  5
2AF
331
1E2
  5
36B
331
21E
  5
34A
331
266
  5
208
331
2D1
  5
273
331
1EF
  5
31B
331
280
  5
222
331
236
  5
1D8
331
27A
  5
21C
331
2E3
  5
285
331
2A5
  5
247
331
21C
  5
348
331
2B3
  5
255
331
233
  5
1D5
331
32B
  5
2CD
331
2DC
  5
27E
331
2EE
  5
290
331
1FB
  5
327
331
1DB
  5
364
331
297
  5
239
331
248
  5
1EA
331
209
  5
335
331
2F9
  5
29B
331
1F7
  5
323
331
2B4
  5
256
331
276
  5
218
331
29B
  5
23D
331
29A
  5
23C
331
30F
  5
2B1
331
310
  5
2B2
331
22B
  5
1CD
331
284
  5
226
331
30E
  5
2B0
331
1FE
  5
32A
331
1EE
  5
31A
331
2C2
  5
264
331
2EA
  5
28C
331
2F6
  5
298
331
2CD
  5
26F
331
25D
  5
1FF
331
2CF
  5
271
331
255
  5
1F7
331
2FF
  5
2A1
331
269
  5
20B
331
1D7
  5
360
331
2BA
  5
25C
331
242
  5
1E4
331
26C
  5
20E
331
1F9
  5
325
331
331
  5
2D3
331
332
  5
2D4
331
20B
  5
337
331
267
  5
209
331
2F5
  5
297
331
30B
  5
2AD
331
30C
  5
2AE
331
28D
  5
22F
331
35C
  5
2FF
331
35D
  5
300
331
35E
  5
301
331
35F
  5
302
331
36B
  5
30E
331
36C
  5
30F
331
36D
  5
310
331
36E
  5
311
331
2D7
  5
279
331
2E4
  5
286
331
322
  5
2C4
331
311
  5
2B3
331
353
  5
2F6
331
354
  5
2F7
331
355
  5
2F8
331
2CC
  5
26E
331
298
  5
23A
331
300
  5
2A2
331
2A0
  5
242
331
2BB
  5
25D
331
2A3
  5
245
331
218
  5
344
331
225
  5
351
331
211
  5
33D
331
2CE
  5
270
331
221
  5
34D
331
28B
  5
22D
331
28A
  5
22C
331
289
  5
22B
331
2FA
  5
29C
331
329
  5
2CB
331
32A
  5
2CC
331
2E1
  5
283
331
367
  5
30A
331
368
  5
30B
331
369
  5
30C
331
36A
  5
30D
331
31F
  5
2C1
331
320
  5
2C2
331
312
  5
2B4
331
31D
  5
2BF
331
2DD
  5
27F
331
323
  5
2C5
331
324
  5
2C6
331
2A2
  5
244
331
1DC
  5
365
331
24B
  5
1ED
331
2F7
  5
299
331
243
  5
1E5
331
33C
  5
2DF
331
33D
  5
2E0
331
262
  5
204
331
232
  5
1D4
331
2BD
  5
25F
331
27E
  5
220
331
325
  5
2C7
331
303
  5
2A5
331
23A
  5
1DC
331
1CE
  5
357
331
2AA
  5
24C
331
292
  5
234
331
1F5
  5
321
331
31B
  5
2BD
331
31C
  5
2BE
331
1E9
  5
372
331
23D
  5
1DF
331
336
  5
2D9
331
337
  5
2DA
331
1ED
  5
319
331
333
  5
2D5
331
2AF
  5
251
331
23E
  5
1E0
331
1E3
  5
36C
331
208
  5
334
331
2B8
  5
25A
331
1D6
  5
35F
  0
LAYOUT
  5
13
102
{ACAD_REACTORS
330
D
102
}
102
{ACAD_XDICTIONARY
360
39E
102
}
330
D
100
AcDbPlotSettings
  1

  2
HP LaserJet 2100 Series PS
  4

  6

 40
0.0
 41
0.0
 42
0.0
 43
0.0
 44
0.0
 45
0.0
 46
0.0
 47
0.0
 48
0.0
 49
0.0
140
0.0
141
0.0
142
1.0
143
1.0
 70
   688
 72
     0
 73
     0
 74
     5
  7

 75
    16
147
1.0
148
0.0
149
0.0
100
AcDbLayout
  1
Layout1
 70
     0
 71
     1
 10
0.0
 20
0.0
 11
12.0
 21
9.0
 12
0.0
 22
0.0
 32
0.0
 14
1.000000000000000E+20
 24
1.000000000000000E+20
 34
1.000000000000000E+20
 15
-1.000000000000000E+20
 25
-1.000000000000000E+20
 35
-1.000000000000000E+20
146
0.0
 13
0.0
 23
0.0
 33
0.0
 16
1.0
 26
0.0
 36
0.0
 17
0.0
 27
1.0
 37
0.0
 76
     0
330
E
  0
LAYOUT
  5
C
102
{ACAD_REACTORS
330
D
102
}
102
{ACAD_XDICTIONARY
360
3A0
102
}
330
D
100
AcDbPlotSettings
  1

  2
HP LaserJet 4.pc3
  4
Letter
  6

 40
7.143749713897705
 41
6.127734661102295
 42
7.14373779296875
 43
7.14373779296875
 44
215.8999938964844
 45
279.3999938964844
 46
0.0
 47
0.0
 48
0.0
 49
0.0
140
0.0
141
0.0
142
1.0
143
5.039369919029583
 70
 11952
 72
     0
 73
     2
 74
     2
  7

 75
     0
147
0.198437506288994
148
0.0
149
0.0
100
AcDbLayout
  1
Model
 70
     1
 71
     0
 10
0.0
 20
0.0
 11
12.0
 21
9.0
 12
0.0
 22
0.0
 32
0.0
 14
0.0
 24
0.0
 34
0.0
 15
0.0
 25
0.0
 35
0.0
146
0.0
 13
0.0
 23
0.0
 33
0.0
 16
1.0
 26
0.0
 36
0.0
 17
0.0
 27
1.0
 37
0.0
 76
     0
330
2
  0
MLINESTYLE
  5
27
102
{ACAD_REACTORS
330
24
102
}
330
24
100
AcDbMlineStyle
  2
STANDARD
 70
     0
  3

 62
   256
 51
90.0
 52
90.0
 71
     2
 49
0.5
 62
   256
  6
BYLAYER
 49
-0.5
 62
   256
  6
BYLAYER
  0
ACDBPLACEHOLDER
  5
7
102
{ACAD_REACTORS
330
8
102
}
330
8
  0
ACAD_PROXY_OBJECT
  5
1C1
102
{ACAD_REACTORS
330
1C0
102
}
330
1C0
100
AcDbProxyObject
 90
      499
 91
      517
 95
   983063
 70
     0
 93
     1841
310
4214DD185B99185C9928B81E85EB51B8AE3F2E07A17AD46E2B8FC02B5E8DC0F42B1CFD028000000C1008070000C3001FDFF8000000C1003FBFF000000182007F7FE00000030400FEFFC00000060801FDFF8000000C1003FBFF00000018200000000000000681FA0B0000001820100E000186003FBFF000000182007F7FE000
310
00030400FEFFC00000060801FDFF8000000C1003FBFF000000182007F7FE000000304000AD7A3703D0AC73F4160000003040201C00030C007F7FE00000030400FEFFC00000060801FDFF8000000C1003FBFF000000182007F7FE00000030400FEFFC000000608000
340
16
340
16
340
16
 94
        0
  0
XRECORD
  5
39C
102
{ACAD_REACTORS
330
39B
102
}
330
39B
100
AcDbXrecord
340
1BF
  0
XRECORD
  5
39D
102
{ACAD_REACTORS
330
39B
102
}
330
39B
100
AcDbXrecord
340
1BE
  0
DICTIONARYVAR
  5
37B
102
{ACAD_REACTORS
330
1BA
102
}
330
1BA
100
DictionaryVariables
280
     0
  1
STANDARD
  0
DICTIONARYVAR
  5
39A
102
{ACAD_REACTORS
330
1BA
102
}
330
1BA
100
DictionaryVariables
280
     0
  1
0
  0
DICTIONARY
  5
39E
330
13
100
AcDbDictionary
280
     1
281
     1
  3
ACAD_XREC_ROUNDTRIP
360
39F
  0
DICTIONARY
  5
3A0
330
C
100
AcDbDictionary
280
     1
281
     1
  3
ACAD_XREC_ROUNDTRIP
360
3A1
  0
XRECORD
  5
39F
102
{ACAD_REACTORS
330
39E
102
}
330
39E
100
AcDbXrecord
102
SHADEPLOT
 70
     0
102
SHADEPLOTRESLEVEL
 70
     2
102
SHADEPLOTCUSTOMDPI
 70
   300
  0
XRECORD
  5
3A1
102
{ACAD_REACTORS
330
3A0
102
}
330
3A0
100
AcDbXrecord
102
SHADEPLOT
 70
     0
102
SHADEPLOTRESLEVEL
 70
     2
102
SHADEPLOTCUSTOMDPI
 70
   300
  0
ENDSEC
  0
EOF
