  0
SECTION
  2
HEADER
  9
$ACADVER
  1
AC1015
  9
$ACADMAINTVER
 70
     6
  9
$DWGCODEPAGE
  3
ANSI_1252
  9
$INSBASE
 10
0.0
 20
0.0
 30
0.0
  9
$EXTMIN
 10
-1.57812500000002
 20
0.0
 30
0.0
  9
$EXTMAX
 10
5.041562236975862
 20
10.02209338589367
 30
0.0
  9
$LIMMIN
 10
0.0
 20
0.0
  9
$LIMMAX
 10
16.0
 20
21.0
  9
$ORTHOMODE
 70
     0
  9
$REGENMODE
 70
     1
  9
$FILLMODE
 70
     1
  9
$QTEXTMODE
 70
     0
  9
$MIRRTEXT
 70
     0
  9
$LTSCALE
 40
1.0
  9
$ATTMODE
 70
     1
  9
$TEXTSIZE
 40
0.18
  9
$TRACEWID
 40
0.05
  9
$TEXTSTYLE
  7
STANDARD
  9
$CLAYER
  8
0
  9
$CELTYPE
  6
BYLAYER
  9
$CECOLOR
 62
   256
  9
$CELTSCALE
 40
1.0
  9
$DISPSILH
 70
     0
  9
$DIMSCALE
 40
2.0
  9
$DIMASZ
 40
0.125
  9
$DIMEXO
 40
0.062
  9
$DIMDLI
 40
0.0
  9
$DIMRND
 40
0.0
  9
$DIMDLE
 40
0.0
  9
$DIMEXE
 40
0.08
  9
$DIMTP
 40
0.0
  9
$DIMTM
 40
0.0
  9
$DIMTXT
 40
0.09
  9
$DIMCEN
 40
-0.06
  9
$DIMTSZ
 40
0.0
  9
$DIMTOL
 70
     0
  9
$DIMLIM
 70
     0
  9
$DIMTIH
 70
     1
  9
$DIMTOH
 70
     1
  9
$DIMSE1
 70
     0
  9
$DIMSE2
 70
     0
  9
$DIMTAD
 70
     0
  9
$DIMZIN
 70
     0
  9
$DIMBLK
  1

  9
$DIMASO
 70
     0
  9
$DIMSHO
 70
     0
  9
$DIMPOST
  1

  9
$DIMAPOST
  1

  9
$DIMALT
 70
     0
  9
$DIMALTD
 70
     2
  9
$DIMALTF
 40
25.4
  9
$DIMLFAC
 40
1.0
  9
$DIMTOFL
 70
     0
  9
$DIMTVP
 40
0.0
  9
$DIMTIX
 70
     0
  9
$DIMSOXD
 70
     0
  9
$DIMSAH
 70
     0
  9
$DIMBLK1
  1

  9
$DIMBLK2
  1

  9
$DIMSTYLE
  2
STANDARD
  9
$DIMCLRD
 70
     0
  9
$DIMCLRE
 70
     0
  9
$DIMCLRT
 70
     0
  9
$DIMTFAC
 40
1.0
  9
$DIMGAP
 40
0.09375
  9
$DIMJUST
 70
     0
  9
$DIMSD1
 70
     0
  9
$DIMSD2
 70
     0
  9
$DIMTOLJ
 70
     1
  9
$DIMTZIN
 70
     0
  9
$DIMALTZ
 70
     0
  9
$DIMALTTZ
 70
     0
  9
$DIMUPT
 70
     0
  9
$DIMDEC
 70
     5
  9
$DIMTDEC
 70
     5
  9
$DIMALTU
 70
     5
  9
$DIMALTTD
 70
     2
  9
$DIMTXSTY
  7
STANDARD
  9
$DIMAUNIT
 70
     0
  9
$DIMADEC
 70
     0
  9
$DIMALTRND
 40
0.0
  9
$DIMAZIN
 70
     0
  9
$DIMDSEP
 70
    46
  9
$DIMATFIT
 70
     3
  9
$DIMFRAC
 70
     2
  9
$DIMLDRBLK
  1

  9
$DIMLUNIT
 70
     5
  9
$DIMLWD
 70
    -2
  9
$DIMLWE
 70
    -2
  9
$DIMTMOVE
 70
     2
  9
$LUNITS
 70
     5
  9
$LUPREC
 70
     5
  9
$SKETCHINC
 40
0.1
  9
$FILLETRAD
 40
0.0625
  9
$AUNITS
 70
     0
  9
$AUPREC
 70
     0
  9
$MENU
  1
QA
  9
$ELEVATION
 40
0.0
  9
$PELEVATION
 40
0.0
  9
$THICKNESS
 40
0.0
  9
$LIMCHECK
 70
     0
  9
$CHAMFERA
 40
0.25
  9
$CHAMFERB
 40
0.25
  9
$CHAMFERC
 40
0.0
  9
$CHAMFERD
 40
0.0
  9
$SKPOLY
 70
     0
  9
$TDCREATE
 40
2452080.854204051
  9
$TDUCREATE
 40
2452081.187537384
  9
$TDUPDATE
 40
2454181.768249479
  9
$TDUUPDATE
 40
2454182.101582813
  9
$TDINDWG
 40
0.4121798264
  9
$TDUSRTIMER
 40
0.4121792477
  9
$USRTIMER
 70
     1
  9
$ANGBASE
 50
0.0
  9
$ANGDIR
 70
     0
  9
$PDMODE
 70
     0
  9
$PDSIZE
 40
0.0
  9
$PLINEWID
 40
0.0
  9
$SPLFRAME
 70
     0
  9
$SPLINETYPE
 70
     6
  9
$SPLINESEGS
 70
     8
  9
$HANDSEED
  5
26F8
  9
$SURFTAB1
 70
     6
  9
$SURFTAB2
 70
     6
  9
$SURFTYPE
 70
     6
  9
$SURFU
 70
     6
  9
$SURFV
 70
     6
  9
$UCSBASE
  2

  9
$UCSNAME
  2

  9
$UCSORG
 10
0.0
 20
0.0
 30
0.0
  9
$UCSXDIR
 10
1.0
 20
0.0
 30
0.0
  9
$UCSYDIR
 10
0.0
 20
1.0
 30
0.0
  9
$UCSORTHOREF
  2

  9
$UCSORTHOVIEW
 70
     0
  9
$UCSORGTOP
 10
0.0
 20
0.0
 30
0.0
  9
$UCSORGBOTTOM
 10
0.0
 20
0.0
 30
0.0
  9
$UCSORGLEFT
 10
0.0
 20
0.0
 30
0.0
  9
$UCSORGRIGHT
 10
0.0
 20
0.0
 30
0.0
  9
$UCSORGFRONT
 10
0.0
 20
0.0
 30
0.0
  9
$UCSORGBACK
 10
0.0
 20
0.0
 30
0.0
  9
$PUCSBASE
  2

  9
$PUCSNAME
  2

  9
$PUCSORG
 10
0.0
 20
0.0
 30
0.0
  9
$PUCSXDIR
 10
1.0
 20
0.0
 30
0.0
  9
$PUCSYDIR
 10
0.0
 20
1.0
 30
0.0
  9
$PUCSORTHOREF
  2

  9
$PUCSORTHOVIEW
 70
     0
  9
$PUCSORGTOP
 10
0.0
 20
0.0
 30
0.0
  9
$PUCSORGBOTTOM
 10
0.0
 20
0.0
 30
0.0
  9
$PUCSORGLEFT
 10
0.0
 20
0.0
 30
0.0
  9
$PUCSORGRIGHT
 10
0.0
 20
0.0
 30
0.0
  9
$PUCSORGFRONT
 10
0.0
 20
0.0
 30
0.0
  9
$PUCSORGBACK
 10
0.0
 20
0.0
 30
0.0
  9
$USERI1
 70
     0
  9
$USERI2
 70
     0
  9
$USERI3
 70
     0
  9
$USERI4
 70
     0
  9
$USERI5
 70
     0
  9
$USERR1
 40
0.0
  9
$USERR2
 40
0.0
  9
$USERR3
 40
0.0
  9
$USERR4
 40
0.0
  9
$USERR5
 40
0.0
  9
$WORLDVIEW
 70
     1
  9
$SHADEDGE
 70
     3
  9
$SHADEDIF
 70
    70
  9
$TILEMODE
 70
     1
  9
$MAXACTVP
 70
    16
  9
$PINSBASE
 10
0.0
 20
0.0
 30
0.0
  9
$PLIMCHECK
 70
     0
  9
$PEXTMIN
 10
1.057335079500113
 20
0.8072817979566906
 30
-0.0000000349181948
  9
$PEXTMAX
 10
9.518486014756849
 20
7.268272518691802
 30
0.0000000814935746
  9
$PLIMMIN
 10
-0.2112501249538632
 20
-0.2112499935420479
  9
$PLIMMAX
 10
10.78874963475025
 20
8.288749766162061
  9
$UNITMODE
 70
     0
  9
$VISRETAIN
 70
     0
  9
$PLINEGEN
 70
     1
  9
$PSLTSCALE
 70
     0
  9
$TREEDEPTH
 70
  3020
  9
$CMLSTYLE
  2
STANDARD
  9
$CMLJUST
 70
     0
  9
$CMLSCALE
 40
1.0
  9
$PROXYGRAPHICS
 70
     1
  9
$MEASUREMENT
 70
     0
  9
$CELWEIGHT
370
    -1
  9
$ENDCAPS
280
     0
  9
$JOINSTYLE
280
     0
  9
$LWDISPLAY
290
     0
  9
$INSUNITS
 70
     0
  9
$HYPERLINKBASE
  1

  9
$STYLESHEET
  1

  9
$XEDIT
290
     1
  9
$CEPSNTYPE
380
     0
  9
$PSTYLEMODE
290
     1
  9
$FINGERPRINTGUID
  2
{7AD2D6B0-FD17-11D4-BE3F-00508B5FCD51}
  9
$VERSIONGUID
  2
{6376E121-B5FB-4325-8E7F-804EC25A26B7}
  9
$EXTNAMES
290
     1
  9
$PSVPSCALE
 40
0.0
  9
$OLESTARTUP
290
     0
  0
ENDSEC
  0
SECTION
  2
CLASSES
  0
CLASS
  1
DICTIONARYVAR
  2
AcDbDictionaryVar
  3
AutoCAD 2000
 90
        0
280
     0
281
     0
  0
CLASS
  1
LWPOLYLINE
  2
AcDbPolyline
  3
AutoCAD 2000
 90
        0
280
     0
281
     1
  0
CLASS
  1
ACDBDICTIONARYWDFLT
  2
AcDbDictionaryWithDefault
  3
AutoCAD 2000
 90
        0
280
     0
281
     0
  0
CLASS
  1
ACDBPLACEHOLDER
  2
AcDbPlaceHolder
  3
ObjectDBX Classes
 90
        0
280
     0
281
     0
  0
CLASS
  1
LAYOUT
  2
AcDbLayout
  3
ObjectDBX Classes
 90
        0
280
     0
281
     0
  0
CLASS
  1
LONG_TRANSACTION
  2
AcDbLongTransaction
  3
ObjectDBX Classes
 90
   -65536
280
     1
281
     0
  0
CLASS
  1
LWPOLYLINE
  2
AcDbPolyline
  3
AutoCAD 2000
 90
        0
280
     0
281
     1
  0
CLASS
  1
HATCH
  2
AcDbHatch
  3
AutoCAD 2000
 90
        0
280
     0
281
     1
  0
CLASS
  1
XRECORD
  2
AcDbXrecord
  3
AutoCAD 2000
 90
        0
280
     0
281
     0
  0
CLASS
  1
LONG_TRANSACTION
  2
AcDbLongTransaction
  3
ObjectDBX Classes
 90
   -65536
280
     1
281
     0
  0
CLASS
  1
LWPOLYLINE
  2
AcDbPolyline
  3
AutoCAD 2000
 90
        0
280
     0
281
     1
  0
CLASS
  1
HATCH
  2
AcDbHatch
  3
AutoCAD 2000
 90
        0
280
     0
281
     1
  0
CLASS
  1
XRECORD
  2
AcDbXrecord
  3
AutoCAD 2000
 90
        0
280
     0
281
     0
  0
CLASS
  1
LONG_TRANSACTION
  2
AcDbLongTransaction
  3
ObjectDBX Classes
 90
   -65536
280
     1
281
     0
  0
CLASS
  1
LWPOLYLINE
  2
AcDbPolyline
  3
AutoCAD 2000
 90
        0
280
     0
281
     1
  0
CLASS
  1
HATCH
  2
AcDbHatch
  3
AutoCAD 2000
 90
        0
280
     0
281
     1
  0
CLASS
  1
XRECORD
  2
AcDbXrecord
  3
AutoCAD 2000
 90
        0
280
     0
281
     0
  0
CLASS
  1
LONG_TRANSACTION
  2
AcDbLongTransaction
  3
ObjectDBX Classes
 90
   -65536
280
     1
281
     0
  0
CLASS
  1
LWPOLYLINE
  2
AcDbPolyline
  3
AutoCAD 2000
 90
        0
280
     0
281
     1
  0
CLASS
  1
HATCH
  2
AcDbHatch
  3
AutoCAD 2000
 90
        0
280
     0
281
     1
  0
CLASS
  1
XRECORD
  2
AcDbXrecord
  3
AutoCAD 2000
 90
        0
280
     0
281
     0
  0
CLASS
  1
LONG_TRANSACTION
  2
AcDbLongTransaction
  3
ObjectDBX Classes
 90
   -65536
280
     1
281
     0
  0
CLASS
  1
LWPOLYLINE
  2
AcDbPolyline
  3
AutoCAD 2000
 90
        0
280
     0
281
     1
  0
CLASS
  1
HATCH
  2
AcDbHatch
  3
AutoCAD 2000
 90
        0
280
     0
281
     1
  0
CLASS
  1
XRECORD
  2
AcDbXrecord
  3
AutoCAD 2000
 90
        0
280
     0
281
     0
  0
CLASS
  1
LONG_TRANSACTION
  2
AcDbLongTransaction
  3
ObjectDBX Classes
 90
   -65536
280
     1
281
     0
  0
CLASS
  1
LWPOLYLINE
  2
AcDbPolyline
  3
AutoCAD 2000
 90
        0
280
     0
281
     1
  0
CLASS
  1
HATCH
  2
AcDbHatch
  3
AutoCAD 2000
 90
        0
280
     0
281
     1
  0
CLASS
  1
XRECORD
  2
AcDbXrecord
  3
AutoCAD 2000
 90
        0
280
     0
281
     0
  0
CLASS
  1
LONG_TRANSACTION
  2
AcDbLongTransaction
  3
ObjectDBX Classes
 90
   -65536
280
     1
281
     0
  0
CLASS
  1
LWPOLYLINE
  2
AcDbPolyline
  3
AutoCAD 2000
 90
        0
280
     0
281
     1
  0
CLASS
  1
HATCH
  2
AcDbHatch
  3
AutoCAD 2000
 90
        0
280
     0
281
     1
  0
CLASS
  1
XRECORD
  2
AcDbXrecord
  3
AutoCAD 2000
 90
        0
280
     0
281
     0
  0
CLASS
  1
LONG_TRANSACTION
  2
AcDbLongTransaction
  3
ObjectDBX Classes
 90
   -65536
280
     1
281
     0
  0
CLASS
  1
LWPOLYLINE
  2
AcDbPolyline
  3
AutoCAD 2000
 90
        0
280
     0
281
     1
  0
CLASS
  1
HATCH
  2
AcDbHatch
  3
AutoCAD 2000
 90
        0
280
     0
281
     1
  0
CLASS
  1
XRECORD
  2
AcDbXrecord
  3
AutoCAD 2000
 90
        0
280
     0
281
     0
  0
CLASS
  1
LONG_TRANSACTION
  2
AcDbLongTransaction
  3
ObjectDBX Classes
 90
   -65536
280
     1
281
     0
  0
CLASS
  1
LWPOLYLINE
  2
AcDbPolyline
  3
AutoCAD 2000
 90
        0
280
     0
281
     1
  0
CLASS
  1
HATCH
  2
AcDbHatch
  3
AutoCAD 2000
 90
        0
280
     0
281
     1
  0
CLASS
  1
XRECORD
  2
AcDbXrecord
  3
AutoCAD 2000
 90
        0
280
     0
281
     0
  0
CLASS
  1
LONG_TRANSACTION
  2
AcDbLongTransaction
  3
ObjectDBX Classes
 90
   -65536
280
     1
281
     0
  0
CLASS
  1
LWPOLYLINE
  2
AcDbPolyline
  3
AutoCAD 2000
 90
        0
280
     0
281
     1
  0
CLASS
  1
HATCH
  2
AcDbHatch
  3
AutoCAD 2000
 90
        0
280
     0
281
     1
  0
CLASS
  1
XRECORD
  2
AcDbXrecord
  3
AutoCAD 2000
 90
        0
280
     0
281
     0
  0
CLASS
  1
LONG_TRANSACTION
  2
AcDbLongTransaction
  3
ObjectDBX Classes
 90
   -65536
280
     1
281
     0
  0
CLASS
  1
LWPOLYLINE
  2
AcDbPolyline
  3
AutoCAD 2000
 90
        0
280
     0
281
     1
  0
CLASS
  1
HATCH
  2
AcDbHatch
  3
AutoCAD 2000
 90
        0
280
     0
281
     1
  0
CLASS
  1
XRECORD
  2
AcDbXrecord
  3
AutoCAD 2000
 90
        0
280
     0
281
     0
  0
CLASS
  1
LONG_TRANSACTION
  2
AcDbLongTransaction
  3
ObjectDBX Classes
 90
   -65536
280
     1
281
     0
  0
CLASS
  1
LWPOLYLINE
  2
AcDbPolyline
  3
AutoCAD 2000
 90
        0
280
     0
281
     1
  0
CLASS
  1
HATCH
  2
AcDbHatch
  3
AutoCAD 2000
 90
        0
280
     0
281
     1
  0
CLASS
  1
XRECORD
  2
AcDbXrecord
  3
AutoCAD 2000
 90
        0
280
     0
281
     0
  0
CLASS
  1
LONG_TRANSACTION
  2
AcDbLongTransaction
  3
ObjectDBX Classes
 90
   -65536
280
     1
281
     0
  0
CLASS
  1
LWPOLYLINE
  2
AcDbPolyline
  3
AutoCAD 2000
 90
        0
280
     0
281
     1
  0
CLASS
  1
HATCH
  2
AcDbHatch
  3
AutoCAD 2000
 90
        0
280
     0
281
     1
  0
CLASS
  1
XRECORD
  2
AcDbXrecord
  3
AutoCAD 2000
 90
        0
280
     0
281
     0
  0
CLASS
  1
LONG_TRANSACTION
  2
AcDbLongTransaction
  3
ObjectDBX Classes
 90
   -65536
280
     1
281
     0
  0
CLASS
  1
LWPOLYLINE
  2
AcDbPolyline
  3
AutoCAD 2000
 90
        0
280
     0
281
     1
  0
CLASS
  1
HATCH
  2
AcDbHatch
  3
AutoCAD 2000
 90
        0
280
     0
281
     1
  0
CLASS
  1
XRECORD
  2
AcDbXrecord
  3
AutoCAD 2000
 90
        0
280
     0
281
     0
  0
CLASS
  1
LONG_TRANSACTION
  2
AcDbLongTransaction
  3
ObjectDBX Classes
 90
   -65536
280
     1
281
     0
  0
CLASS
  1
LWPOLYLINE
  2
AcDbPolyline
  3
AutoCAD 2000
 90
        0
280
     0
281
     1
  0
CLASS
  1
HATCH
  2
AcDbHatch
  3
AutoCAD 2000
 90
        0
280
     0
281
     1
  0
CLASS
  1
XRECORD
  2
AcDbXrecord
  3
AutoCAD 2000
 90
        0
280
     0
281
     0
  0
CLASS
  1
LONG_TRANSACTION
  2
AcDbLongTransaction
  3
ObjectDBX Classes
 90
   -65536
280
     1
281
     0
  0
CLASS
  1
LWPOLYLINE
  2
AcDbPolyline
  3
AutoCAD 2000
 90
        0
280
     0
281
     1
  0
CLASS
  1
HATCH
  2
AcDbHatch
  3
AutoCAD 2000
 90
        0
280
     0
281
     1
  0
CLASS
  1
XRECORD
  2
AcDbXrecord
  3
AutoCAD 2000
 90
        0
280
     0
281
     0
  0
CLASS
  1
LONG_TRANSACTION
  2
AcDbLongTransaction
  3
ObjectDBX Classes
 90
   -65536
280
     1
281
     0
  0
CLASS
  1
LWPOLYLINE
  2
AcDbPolyline
  3
AutoCAD 2000
 90
        0
280
     0
281
     1
  0
CLASS
  1
HATCH
  2
AcDbHatch
  3
AutoCAD 2000
 90
        0
280
     0
281
     1
  0
CLASS
  1
XRECORD
  2
AcDbXrecord
  3
AutoCAD 2000
 90
        0
280
     0
281
     0
  0
CLASS
  1
LONG_TRANSACTION
  2
AcDbLongTransaction
  3
ObjectDBX Classes
 90
   -65536
280
     1
281
     0
  0
CLASS
  1
LWPOLYLINE
  2
AcDbPolyline
  3
AutoCAD 2000
 90
        0
280
     0
281
     1
  0
CLASS
  1
HATCH
  2
AcDbHatch
  3
AutoCAD 2000
 90
        0
280
     0
281
     1
  0
CLASS
  1
XRECORD
  2
AcDbXrecord
  3
AutoCAD 2000
 90
        0
280
     0
281
     0
  0
CLASS
  1
LONG_TRANSACTION
  2
AcDbLongTransaction
  3
ObjectDBX Classes
 90
   -65536
280
     1
281
     0
  0
CLASS
  1
LWPOLYLINE
  2
AcDbPolyline
  3
AutoCAD 2000
 90
        0
280
     0
281
     1
  0
CLASS
  1
HATCH
  2
AcDbHatch
  3
AutoCAD 2000
 90
        0
280
     0
281
     1
  0
CLASS
  1
XRECORD
  2
AcDbXrecord
  3
AutoCAD 2000
 90
        0
280
     0
281
     0
  0
CLASS
  1
LONG_TRANSACTION
  2
AcDbLongTransaction
  3
ObjectDBX Classes
 90
   -65536
280
     1
281
     0
  0
CLASS
  1
LWPOLYLINE
  2
AcDbPolyline
  3
AutoCAD 2000
 90
        0
280
     0
281
     1
  0
CLASS
  1
HATCH
  2
AcDbHatch
  3
AutoCAD 2000
 90
        0
280
     0
281
     1
  0
CLASS
  1
XRECORD
  2
AcDbXrecord
  3
AutoCAD 2000
 90
        0
280
     0
281
     0
  0
CLASS
  1
TABLESTYLE
  2
AcDbTableStyle
  3
ObjectDBX Classes
 90
     2047
280
     1
281
     0
  0
CLASS
  1
SORTENTSTABLE
  2
AcDbSortentsTable
  3
AutoCAD 2000
 90
        0
280
     0
281
     0
  0
ENDSEC
  0
SECTION
  2
TABLES
  0
TABLE
  2
VPORT
  5
11A0
330
0
100
AcDbSymbolTable
 70
     2
  0
VPORT
  5
26E0
330
11A0
100
AcDbSymbolTableRecord
100
AcDbViewportTableRecord
  2
*Active
 70
     0
 10
0.0
 20
0.0
 11
1.0
 21
1.0
 12
5.642432027373918
 22
5.479761929507291
 13
0.0
 23
0.0
 14
0.0625
 24
0.0625
 15
0.25
 25
0.25
 16
0.0
 26
0.0
 36
1.0
 17
0.0
 27
0.0
 37
0.0
 40
16.49503465541868
 41
1.814583333333333
 42
50.0
 43
0.0
 44
0.0
 50
0.0
 51
0.0
 71
     0
 72
   100
 73
     1
 74
     0
 75
     0
 76
     0
 77
     0
 78
     0
281
     0
 65
     1
110
0.0
120
0.0
130
0.0
111
1.0
121
0.0
131
0.0
112
0.0
122
1.0
132
0.0
 79
     0
146
0.0
  0
ENDTAB
  0
TABLE
  2
LTYPE
  5
119D
330
0
100
AcDbSymbolTable
 70
     2
  0
LTYPE
  5
11A9
330
119D
100
AcDbSymbolTableRecord
100
AcDbLinetypeTableRecord
  2
BYBLOCK
 70
     0
  3

 72
    65
 73
     0
 40
0.0
  0
LTYPE
  5
11AA
330
119D
100
AcDbSymbolTableRecord
100
AcDbLinetypeTableRecord
  2
BYLAYER
 70
     0
  3

 72
    65
 73
     0
 40
0.0
  0
LTYPE
  5
11AB
330
119D
100
AcDbSymbolTableRecord
100
AcDbLinetypeTableRecord
  2
CONTINUOUS
 70
     0
  3
Solid line
 72
    65
 73
     0
 40
0.0
  0
LTYPE
  5
16F5
330
119D
100
AcDbSymbolTableRecord
100
AcDbLinetypeTableRecord
  2
HIDDEN2
 70
     0
  3
Hidden (.5x) _ _ _ _ _ _ _ _ _ _ _ _ _ _ _ _ _
 72
    65
 73
     2
 40
0.1875
 49
0.125
 74
     0
 49
-0.0625
 74
     0
  0
ENDTAB
  0
TABLE
  2
LAYER
  5
119A
330
0
100
AcDbSymbolTable
 70
     3
  0
LAYER
  5
11A6
330
119A
100
AcDbSymbolTableRecord
100
AcDbLayerTableRecord
  2
0
 70
     0
 62
     7
  6
CONTINUOUS
370
    -3
390
15BF
  0
LAYER
  5
11D4
330
119A
100
AcDbSymbolTableRecord
100
AcDbLayerTableRecord
  2
DIM
 70
     0
 62
     5
  6
CONTINUOUS
370
    -3
390
15BF
  0
ENDTAB
  0
TABLE
  2
STYLE
  5
119B
330
0
100
AcDbSymbolTable
 70
     1
  0
STYLE
  5
11A7
330
119B
100
AcDbSymbolTableRecord
100
AcDbTextStyleTableRecord
  2
STANDARD
 70
     0
 40
0.0
 41
1.0
 50
0.0
 71
     0
 42
0.18
  3
TXT
  4

  0
ENDTAB
  0
TABLE
  2
VIEW
  5
119E
330
0
100
AcDbSymbolTable
 70
     1
  0
VIEW
  5
11CB
330
119E
100
AcDbSymbolTableRecord
100
AcDbViewTableRecord
  2
1
 70
     0
 40
8.149475694399708
 10
6.869897054360147
 20
9.830771043222521
 41
1.0
 11
0.0
 21
0.0
 31
1.0
 12
0.0
 22
0.0
 32
0.0
 42
50.0
 43
0.0
 44
0.0
 50
0.0
 71
     0
281
     0
 72
     0
  0
ENDTAB
  0
TABLE
  2
UCS
  5
119F
330
0
100
AcDbSymbolTable
 70
     0
  0
ENDTAB
  0
TABLE
  2
APPID
  5
11A1
330
0
100
AcDbSymbolTable
 70
     3
  0
APPID
  5
11A8
330
11A1
100
AcDbSymbolTableRecord
100
AcDbRegAppTableRecord
  2
ACAD
 70
     0
  0
APPID
  5
14D5
330
11A1
100
AcDbSymbolTableRecord
100
AcDbRegAppTableRecord
  2
RAK
 70
     0
  0
APPID
  5
14D6
330
11A1
100
AcDbSymbolTableRecord
100
AcDbRegAppTableRecord
  2
AME_SOL
 70
     0
  0
ENDTAB
  0
TABLE
  2
DIMSTYLE
  5
11A2
330
0
100
AcDbSymbolTable
 70
     1
100
AcDbDimStyleTable
  0
DIMSTYLE
105
11CE
330
11A2
100
AcDbSymbolTableRecord
100
AcDbDimStyleTableRecord
  2
STANDARD
 70
     0
  3

  4

271
     5
272
     5
273
     5
277
     5
279
     2
340
11A7
  0
ENDTAB
  0
TABLE
  2
BLOCK_RECORD
  5
1199
330
0
100
AcDbSymbolTable
 70
     0
  0
BLOCK_RECORD
  5
11AF
102
{ACAD_XDICTIONARY
360
1CE1
102
}
330
1199
100
AcDbSymbolTableRecord
100
AcDbBlockTableRecord
  2
*MODEL_SPACE
340
15C2
  0
BLOCK_RECORD
  5
11AC
330
1199
100
AcDbSymbolTableRecord
100
AcDbBlockTableRecord
  2
*PAPER_SPACE
340
15C3
  0
ENDTAB
  0
ENDSEC
  0
SECTION
  2
BLOCKS
  0
BLOCK
  5
11E0
330
11AF
100
AcDbEntity
  8
0
100
AcDbBlockBegin
  2
*MODEL_SPACE
 70
     0
 10
0.0
 20
0.0
 30
0.0
  3
*MODEL_SPACE
  1

  4

  0
ENDBLK
  5
11E1
330
11AF
100
AcDbEntity
  8
0
100
AcDbBlockEnd
  0
BLOCK
  5
11DE
330
11AC
100
AcDbEntity
 67
     1
  8
0
100
AcDbBlockBegin
  2
*PAPER_SPACE
 70
     0
 10
0.0
 20
0.0
 30
0.0
  3
*PAPER_SPACE
  1

  4

  0
ENDBLK
  5
11DF
330
11AC
100
AcDbEntity
 67
     1
  8
0
100
AcDbBlockEnd
  0
ENDSEC
  0
SECTION
  2
ENTITIES
  0
LINE
  5
188B
330
11AF
100
AcDbEntity
  8
0
100
AcDbLine
 10
0.046874999999984
 20
9.947252765460107
 30
0.0
 11
0.046874999999984
 21
8.384252765460111
 31
0.0
  0
LINE
  5
188C
330
11AF
100
AcDbEntity
  8
0
100
AcDbLine
 10
-0.015625000000016
 20
8.384252765460111
 30
0.0
 11
-0.015625000000016
 21
9.915752765460113
 31
0.0
  0
LINE
  5
18D0
330
11AF
100
AcDbEntity
  8
0
100
AcDbLine
 10
0.046874999999984
 20
8.384252765460111
 30
0.0
 11
-0.015625000000016
 21
8.384252765460111
 31
0.0
  0
LINE
  5
18D9
330
11AF
100
AcDbEntity
  8
0
100
AcDbLine
 10
-1.578125000000016
 20
10.00925276546011
 30
0.0
 11
-0.0151250000000172
 21
10.00925276546011
 31
0.0
  0
LINE
  5
18DA
330
11AF
100
AcDbEntity
  8
0
100
AcDbLine
 10
-0.0466250000000166
 20
9.946752765460111
 30
0.0
 11
-1.578125000000016
 21
9.946752765460111
 31
0.0
  0
LINE
  5
18DB
330
11AF
100
AcDbEntity
  8
0
100
AcDbLine
 10
-1.578125000000016
 20
9.946752765460111
 30
0.0
 11
-1.578125000000016
 21
10.00925276546011
 31
0.0
  0
ARC
  5
18DE
330
11AF
100
AcDbEntity
  8
0
100
AcDbCircle
 10
-0.0466250000000166
 20
9.915752765460113
 30
0.0
 40
0.031
100
AcDbArc
 50
0.0
 51
90.0
  0
ARC
  5
18DF
330
11AF
100
AcDbEntity
  8
0
100
AcDbCircle
 10
-0.0151250000000172
 20
9.947252765460107
 30
0.0
 40
0.062
100
AcDbArc
 50
0.0
 51
90.0
  0
LINE
  5
1930
330
11AF
100
AcDbEntity
  8
0
100
AcDbLine
 10
-1.306187704897686
 20
4.184587456048988
 30
0.0
 11
-0.2894886363636449
 21
2.1875
 31
0.0
  0
ARC
  5
1942
330
11AF
100
AcDbEntity
  8
0
100
AcDbCircle
 10
-0.0781250000000018
 20
1.937500000000007
 30
0.0
 40
0.25
100
AcDbArc
 50
71.79004313571863
 51
90.00000000000325
  0
LINE
  5
1943
330
11AF
100
AcDbEntity
  8
0
100
AcDbLine
 10
-0.2894886363636449
 20
2.1875
 30
0.0
 11
-0.0781250000000089
 21
2.1875
 31
0.0
  0
LINE
  5
1945
330
11AF
100
AcDbEntity
  8
0
100
AcDbLine
 10
0.0624999999999858
 20
2.703775372899973
 30
0.0
 11
-0.1562499999999876
 21
2.703775372899955
 31
0.0
  0
LINE
  5
1946
330
11AF
100
AcDbEntity
  8
0
100
AcDbLine
 10
0.0624999999999858
 20
2.608724627199992
 30
0.0
 11
-0.1562499999999876
 21
2.608724627199976
 31
0.0
  0
LINE
  5
1951
330
11AF
100
AcDbEntity
  8
0
100
AcDbLine
 10
-1.453125000000016
 20
6.0
 30
0.0
 11
-0.2968750000000231
 21
6.0
 31
0.0
  0
LINE
  5
195B
330
11AF
100
AcDbEntity
  8
0
100
AcDbLine
 10
-1.57812500000002
 20
4.375
 30
0.0
 11
-1.578125000000016
 21
5.875
 31
0.0
  0
CIRCLE
  5
195C
330
11AF
100
AcDbEntity
  8
0
100
AcDbCircle
 10
-1.203125000000016
 20
5.0
 30
0.0
 40
0.078
  0
CIRCLE
  5
1962
330
11AF
100
AcDbEntity
  8
0
100
AcDbCircle
 10
-1.328124998990953
 20
5.75
 30
0.0
 40
0.078
  0
LINE
  5
1963
330
11AF
100
AcDbEntity
  8
0
100
AcDbLine
 10
-1.578125000000016
 20
5.875
 30
0.0
 11
-1.453125000000016
 21
6.0
 31
0.0
  0
CIRCLE
  5
1964
330
11AF
100
AcDbEntity
  8
0
100
AcDbCircle
 10
-0.4218750000000373
 20
5.625000000000021
 30
0.0
 40
0.078
  0
LINE
  5
1965
330
11AF
100
AcDbEntity
  8
0
100
AcDbLine
 10
-0.1718750000000373
 20
4.062499999999993
 30
0.0
 11
-0.1718750000000231
 21
5.875
 31
0.0
  0
CIRCLE
  5
1966
330
11AF
100
AcDbEntity
  8
0
100
AcDbCircle
 10
-0.890625000000016
 20
4.375
 30
0.0
 40
0.078
  0
ARC
  5
196F
330
11AF
100
AcDbEntity
  8
0
100
AcDbCircle
 10
0.0781249999999769
 20
4.062499999999993
 30
0.0
 40
0.25
100
AcDbArc
 50
179.9999999999996
 51
266.4166783015297
  0
CIRCLE
  5
1971
330
11AF
100
AcDbEntity
  8
0
100
AcDbCircle
 10
-0.4218750000000302
 20
4.750000000000021
 30
0.0
 40
0.078
  0
LINE
  5
1975
330
11AF
100
AcDbEntity
  8
0
100
AcDbLine
 10
-0.2968750000000231
 20
6.0
 30
0.0
 11
-0.1718750000000231
 21
5.875
 31
0.0
  0
LINE
  5
1B3B
330
11AF
100
AcDbEntity
  8
0
  6
Continuous
100
AcDbLine
 10
0.0625
 20
0.0
 30
0.0
 11
0.062499999999984
 21
3.812988759020753
 31
0.0
  0
ARC
  5
1B41
330
11AF
100
AcDbEntity
  8
0
100
AcDbCircle
 10
5.04156223697585
 20
1.937500000000007
 30
0.0
 40
0.2499999999999991
100
AcDbArc
 50
89.99999999999714
 51
179.9999999999998
  0
LINE
  5
1B42
330
11AF
100
AcDbEntity
  8
0
100
AcDbLine
 10
4.673948600612233
 20
3.8125
 30
0.0
 11
3.657249532078213
 21
1.815412543951027
 31
0.0
  0
LINE
  5
1B45
330
11AF
100
AcDbEntity
  8
0
100
AcDbLine
 10
4.791562236975869
 20
1.937500000000007
 30
0.0
 11
4.791562236975855
 21
0.125
 31
0.0
  0
LINE
  5
1B46
330
11AF
100
AcDbEntity
  8
0
100
AcDbLine
 10
3.385312236975851
 20
1.625
 30
0.0
 11
3.385312236975862
 21
0.125
 31
0.0
  0
LINE
  5
1B47
330
11AF
100
AcDbEntity
  8
0
100
AcDbLine
 10
4.666562236975855
 20
0.0
 30
0.0
 11
3.510312236975848
 21
0.0
 31
0.0
  0
CIRCLE
  5
1B48
330
11AF
100
AcDbEntity
  8
0
100
AcDbCircle
 10
4.541562236975841
 20
0.3749999999999787
 30
0.0
 40
0.078
  0
LINE
  5
1B49
330
11AF
100
AcDbEntity
  8
0
100
AcDbLine
 10
4.791562236975855
 20
0.125
 30
0.0
 11
4.666562236975855
 21
0.0
 31
0.0
  0
CIRCLE
  5
1B4A
330
11AF
100
AcDbEntity
  8
0
100
AcDbCircle
 10
3.635312237984925
 20
0.25
 30
0.0
 40
0.078
  0
LINE
  5
1B4B
330
11AF
100
AcDbEntity
  8
0
100
AcDbLine
 10
3.510312236975848
 20
0.0
 30
0.0
 11
3.385312236975848
 21
0.125
 31
0.0
  0
CIRCLE
  5
1B4C
330
11AF
100
AcDbEntity
  8
0
100
AcDbCircle
 10
4.072812236975862
 20
1.625
 30
0.0
 40
0.078
  0
CIRCLE
  5
1B4D
330
11AF
100
AcDbEntity
  8
0
100
AcDbCircle
 10
4.541562236975848
 20
1.249999999999979
 30
0.0
 40
0.078
  0
CIRCLE
  5
1B4F
330
11AF
100
AcDbEntity
  8
0
100
AcDbCircle
 10
3.760312236975862
 20
1.0
 30
0.0
 40
0.078
  0
ARC
  5
1B50
330
11AF
100
AcDbEntity
  8
0
100
AcDbCircle
 10
4.885312236975869
 20
4.062499999999993
 30
0.0
 40
0.25
100
AcDbArc
 50
269.9999999999984
 51
304.2288663278106
  0
LINE
  5
1B6C
330
11AF
100
AcDbEntity
  8
0
100
AcDbLine
 10
4.673948600612233
 20
3.8125
 30
0.0
 11
4.885312236975862
 21
3.812499999999993
 31
0.0
  0
LINE
  5
1B8D
330
11AF
100
AcDbEntity
  8
0
  6
Continuous
100
AcDbLine
 10
5.02593723697585
 20
2.187011240979247
 30
0.0
 11
5.02593723697588
 21
6.000000000000004
 31
0.0
  0
LINE
  5
1B8E
330
11AF
100
AcDbEntity
  8
0
  6
HIDDEN2
100
AcDbLine
 10
4.963437236975858
 20
2.174979439899552
 30
0.0
 11
4.96343723697586
 21
3.825020560100448
 31
0.0
  0
LINE
  5
1BD5
330
11AF
100
AcDbEntity
  8
0
  6
Continuous
100
AcDbLine
 10
0.0
 20
0.0
 30
0.0
 11
-0.0000000000000142
 21
3.825020560100448
 31
0.0
  0
LINE
  5
1BD6
330
11AF
100
AcDbEntity
  8
0
100
AcDbLine
 10
0.0
 20
0.0
 30
0.0
 11
0.0625
 21
0.0
 31
0.0
  0
LINE
  5
1BD7
330
11AF
100
AcDbEntity
  8
0
100
AcDbLine
 10
0.0624999999999982
 20
0.125
 30
0.0
 11
0.0
 21
0.125
 31
0.0
  0
LINE
  5
1BD8
330
11AF
100
AcDbEntity
  8
0
100
AcDbLine
 10
0.0624999999999929
 20
1.281250000000016
 30
0.0
 11
-0.0000000000000053
 21
1.281250000000018
 31
0.0
  0
LINE
  5
1BF4
330
11AF
100
AcDbEntity
  8
0
100
AcDbLine
 10
-0.0000000000000124
 20
3.507920895483307
 30
0.0
 11
-0.1562499999999965
 21
3.39127537289998
 31
0.0
  0
LINE
  5
1BF5
330
11AF
100
AcDbEntity
  8
0
  6
HIDDEN2
100
AcDbLine
 10
0.062499999999984
 20
3.498110757239815
 30
0.0
 11
-0.0831397349133258
 21
3.391275372877656
 31
0.0
  0
LINE
  5
1BF6
330
11AF
100
AcDbEntity
  8
0
  6
HIDDEN2
100
AcDbLine
 10
-0.0831397349133258
 20
3.296224627199988
 30
0.0
 11
0.0624999999999858
 21
3.196756120684627
 31
0.0
  0
LINE
  5
1BF7
330
11AF
100
AcDbEntity
  8
0
100
AcDbLine
 10
-0.1562499999999965
 20
3.296224627199987
 30
0.0
 11
-0.0000000000000107
 21
3.179579104533334
 31
0.0
  0
LINE
  5
1BF8
330
11AF
100
AcDbEntity
  8
0
100
AcDbLine
 10
-0.0000000000000124
 20
3.296224627199992
 30
0.0
 11
-0.1562499999999965
 21
3.296224627199987
 31
0.0
  0
LINE
  5
1BF9
330
11AF
100
AcDbEntity
  8
0
100
AcDbLine
 10
-0.0000000000000124
 20
3.391275372899983
 30
0.0
 11
-0.1562499999999965
 21
3.39127537289998
 31
0.0
  0
LINE
  5
1BFB
330
11AF
100
AcDbEntity
  8
0
  6
HIDDEN2
100
AcDbLine
 10
-0.1001939882028982
 20
3.318625220127251
 30
0.0
 11
-0.1001939882028982
 21
3.366150592977247
 31
0.0
  0
LINE
  5
1BFC
330
11AF
100
AcDbEntity
  8
0
100
AcDbLine
 10
-0.1562499999999965
 20
3.296224627199987
 30
0.0
 11
-0.1562499999999965
 21
3.39127537289998
 31
0.0
  0
LINE
  5
1C09
330
11AF
100
AcDbEntity
  8
0
100
AcDbLine
 10
-0.1562499999999929
 20
2.608724627199978
 30
0.0
 11
-0.0000000000000071
 21
2.492079104533325
 31
0.0
  0
LINE
  5
1C0A
330
11AF
100
AcDbEntity
  8
0
100
AcDbLine
 10
-0.0000000000000089
 20
2.608724627199983
 30
0.0
 11
-0.1562499999999929
 21
2.608724627199978
 31
0.0
  0
LINE
  5
1C0B
330
11AF
100
AcDbEntity
  8
0
100
AcDbLine
 10
-0.0000000000000089
 20
2.820420895483299
 30
0.0
 11
-0.1562499999999929
 21
2.703775372899971
 31
0.0
  0
LINE
  5
1C0C
330
11AF
100
AcDbEntity
  8
0
100
AcDbLine
 10
-0.0000000000000089
 20
2.703775372899974
 30
0.0
 11
-0.1562499999999929
 21
2.703775372899971
 31
0.0
  0
LINE
  5
1C0D
330
11AF
100
AcDbEntity
  8
0
  6
HIDDEN2
100
AcDbLine
 10
0.0624999999999876
 20
2.810610757239806
 30
0.0
 11
-0.0831397349133223
 21
2.703775372877647
 31
0.0
  0
LINE
  5
1C0E
330
11AF
100
AcDbEntity
  8
0
  6
HIDDEN2
100
AcDbLine
 10
-0.0831397349133223
 20
2.60872462719998
 30
0.0
 11
0.0624999999999893
 21
2.509256120684619
 31
0.0
  0
LINE
  5
1C0F
330
11AF
100
AcDbEntity
  8
0
  6
HIDDEN2
100
AcDbLine
 10
-0.1001939882028946
 20
2.631125220127242
 30
0.0
 11
-0.1001939882028946
 21
2.678650592977238
 31
0.0
  0
LINE
  5
1C10
330
11AF
100
AcDbEntity
  8
0
100
AcDbLine
 10
-0.1562499999999929
 20
2.608724627199978
 30
0.0
 11
-0.1562499999999929
 21
2.703775372899971
 31
0.0
  0
LINE
  5
1C69
330
11AF
100
AcDbEntity
  8
0
100
AcDbLine
 10
-0.1718750000000231
 20
9.946752765460111
 30
0.0
 11
-0.1718750000000231
 21
10.00925276546011
 31
0.0
  0
LINE
  5
1C6A
330
11AF
100
AcDbEntity
  8
0
100
AcDbLine
 10
5.02593723697588
 20
6.000000000000004
 30
0.0
 11
4.963437236975858
 21
6.0
 31
0.0
  0
LINE
  5
1C6B
330
11AF
100
AcDbEntity
  8
0
100
AcDbLine
 10
5.025937236975878
 20
5.875000000000002
 30
0.0
 11
4.963437236975857
 21
5.875000000000002
 31
0.0
  0
LINE
  5
1C6F
330
11AF
100
AcDbEntity
  8
0
100
AcDbLine
 10
4.807187236975837
 20
2.608724627099971
 30
0.0
 11
5.02593723697585
 21
2.445420895366635
 31
0.0
  0
LINE
  5
1C70
330
11AF
100
AcDbEntity
  8
0
100
AcDbLine
 10
5.025937236975853
 20
2.60872462709998
 30
0.0
 11
4.807187236975837
 21
2.608724627099972
 31
0.0
  0
LINE
  5
1C71
330
11AF
100
AcDbEntity
  8
0
100
AcDbLine
 10
5.025937236975857
 20
2.867079104416654
 30
0.0
 11
4.807187236975837
 21
2.703775372799965
 31
0.0
  0
LINE
  5
1C72
330
11AF
100
AcDbEntity
  8
0
100
AcDbLine
 10
5.025937236975853
 20
2.703775372799971
 30
0.0
 11
4.807187236975837
 21
2.703775372799965
 31
0.0
  0
LINE
  5
1C73
330
11AF
100
AcDbEntity
  8
0
  6
HIDDEN2
100
AcDbLine
 10
5.025937236975818
 20
2.8106107571398
 30
0.0
 11
4.880297502062508
 21
2.703775372777642
 31
0.0
  0
LINE
  5
1C74
330
11AF
100
AcDbEntity
  8
0
  6
HIDDEN2
100
AcDbLine
 10
4.880297502062508
 20
2.608724627099972
 30
0.0
 11
5.025937236975819
 21
2.509256120584611
 31
0.0
  0
LINE
  5
1C75
330
11AF
100
AcDbEntity
  8
0
  6
HIDDEN2
100
AcDbLine
 10
4.863243248772935
 20
2.631125220027236
 30
0.0
 11
4.863243248772935
 21
2.678650592877233
 31
0.0
  0
LINE
  5
1C76
330
11AF
100
AcDbEntity
  8
0
100
AcDbLine
 10
4.807187236975837
 20
2.608724627099972
 30
0.0
 11
4.807187236975837
 21
2.703775372799965
 31
0.0
  0
LINE
  5
1C77
330
11AF
100
AcDbEntity
  8
0
  6
HIDDEN2
100
AcDbLine
 10
4.880297502062504
 20
3.296224627099983
 30
0.0
 11
5.025937236975816
 21
3.196756120584622
 31
0.0
  0
LINE
  5
1C78
330
11AF
100
AcDbEntity
  8
0
100
AcDbLine
 10
4.807187236975834
 20
3.296224627099981
 30
0.0
 11
5.025937236975857
 21
3.132920895366635
 31
0.0
  0
LINE
  5
1C79
330
11AF
100
AcDbEntity
  8
0
  6
HIDDEN2
100
AcDbLine
 10
5.025937236975814
 20
3.498110757139809
 30
0.0
 11
4.880297502062504
 21
3.391275372777651
 31
0.0
  0
LINE
  5
1C7A
330
11AF
100
AcDbEntity
  8
0
100
AcDbLine
 10
5.02593723697586
 20
3.39127537279998
 30
0.0
 11
4.807187236975834
 21
3.391275372799974
 31
0.0
  0
LINE
  5
1C7B
330
11AF
100
AcDbEntity
  8
0
100
AcDbLine
 10
5.02593723697586
 20
3.55457910441667
 30
0.0
 11
4.807187236975834
 21
3.391275372799974
 31
0.0
  0
LINE
  5
1C7C
330
11AF
100
AcDbEntity
  8
0
100
AcDbLine
 10
5.025937236975858
 20
3.296224627099988
 30
0.0
 11
4.807187236975834
 21
3.296224627099981
 31
0.0
  0
LINE
  5
1C7D
330
11AF
100
AcDbEntity
  8
0
100
AcDbLine
 10
4.807187236975834
 20
3.296224627099981
 30
0.0
 11
4.807187236975834
 21
3.391275372799974
 31
0.0
  0
LINE
  5
1C7E
330
11AF
100
AcDbEntity
  8
0
  6
HIDDEN2
100
AcDbLine
 10
4.863243248772932
 20
3.318625220027245
 30
0.0
 11
4.863243248772932
 21
3.366150592877242
 31
0.0
  0
LINE
  5
1F63
330
11AF
100
AcDbEntity
  8
0
100
AcDbLine
 10
-0.015625000000016
 20
9.806127765460133
 30
0.0
 11
-0.1562499999999965
 21
9.946752765460111
 31
0.0
  0
LINE
  5
2019
330
11AF
100
AcDbEntity
  8
0
100
AcDbLine
 10
4.963437236975858
 20
3.825020560100448
 30
0.0
 11
4.963437236975858
 21
6.0
 31
0.0
  0
LINE
  5
235D
330
11AF
100
AcDbEntity
  8
0
100
AcDbLine
 10
-0.6783030677805915
 20
3.779582273844252
 30
0.0
 11
-0.7020335365305908
 21
3.732121336344253
 31
0.0
  0
LINE
  5
235E
330
11AF
100
AcDbEntity
  8
0
100
AcDbLine
 10
-0.6783030677805915
 20
3.779582273844252
 30
0.0
 11
-0.6545725990305922
 21
3.732121336344253
 31
0.0
  0
LINE
  5
235F
330
11AF
100
AcDbEntity
  8
0
100
AcDbLine
 10
-0.7020335365305908
 20
3.732121336344253
 30
0.0
 11
-0.6545725990305922
 21
3.732121336344253
 31
0.0
  0
LINE
  5
2360
330
11AF
100
AcDbEntity
  8
0
100
AcDbLine
 10
-0.6783030677805915
 20
3.732121336344253
 30
0.0
 11
-0.6783030677805915
 21
3.609204101380275
 31
0.0
  0
LINE
  5
2364
330
11AF
100
AcDbEntity
  8
0
100
AcDbLine
 10
4.583179345453186
 20
2.238613787633645
 30
0.0
 11
4.583179345453186
 21
2.361531022597623
 31
0.0
  0
LINE
  5
2365
330
11AF
100
AcDbEntity
  8
0
100
AcDbLine
 10
4.583179345453186
 20
2.191152850133646
 30
0.0
 11
4.606909814203185
 21
2.238613787633645
 31
0.0
  0
LINE
  5
2366
330
11AF
100
AcDbEntity
  8
0
100
AcDbLine
 10
4.606909814203185
 20
2.238613787633645
 30
0.0
 11
4.559448876703186
 21
2.238613787633645
 31
0.0
  0
LINE
  5
2367
330
11AF
100
AcDbEntity
  8
0
100
AcDbLine
 10
4.583179345453186
 20
2.191152850133646
 30
0.0
 11
4.559448876703186
 21
2.238613787633645
 31
0.0
  0
LINE
  5
24CA
330
11AF
100
AcDbEntity
  8
0
100
AcDbLine
 10
-1.306187704897686
 20
4.184587456048988
 30
0.0
 11
-1.57812500000002
 21
4.375
 31
0.0
  0
LINE
  5
24D3
330
11AF
100
AcDbEntity
  8
0
100
AcDbLine
 10
3.657249532078213
 20
1.815412543951027
 30
0.0
 11
3.385312236975869
 21
1.625000000000012
 31
0.0
  0
TEXT
  5
26C6
330
11AF
100
AcDbEntity
  8
0
100
AcDbText
 10
4.237500850267923
 20
2.295531505081708
 30
0.0
 40
0.06
  1
PLATE
100
AcDbText
  0
TEXT
  5
26C7
330
11AF
100
AcDbEntity
  8
0
100
AcDbText
 10
4.277500850267924
 20
2.195531505081709
 30
0.0
 40
0.06
  1
LINE
100
AcDbText
  0
TEXT
  5
26C9
330
11AF
100
AcDbEntity
  8
0
100
AcDbText
 10
-0.3326245725953294
 20
3.675203618896189
 30
0.0
 40
0.06
  1
PLATE
 50
180.0
100
AcDbText
  0
TEXT
  5
26CA
330
11AF
100
AcDbEntity
  8
0
100
AcDbText
 10
-0.3726245725953294
 20
3.775203618896189
 30
0.0
 40
0.06
  1
LINE
 50
180.0
100
AcDbText
  0
VIEWPORT
  5
1FDD
102
{ACAD_XDICTIONARY
360
26F4
102
}
330
11AC
100
AcDbEntity
 67
     1
  8
0
100
AcDbViewport
 10
5.28874975489819
 20
4.038749886310008
 30
0.0
 40
16.13860031895387
 41
8.99299974576695
 68
     1
 69
     1
 12
5.28874975489819
 22
4.038749886310008
 13
0.0
 23
0.0
 14
0.5
 24
0.5
 15
0.5
 25
0.5
 16
0.0
 26
0.0
 36
1.0
 17
0.0
 27
0.0
 37
0.0
 42
50.0
 43
0.0
 44
0.0
 45
8.99299974576695
 50
0.0
 51
0.0
 72
   100
 90
    32800
  1

281
     0
 71
     1
 74
     0
110
0.0
120
0.0
130
0.0
111
1.0
121
0.0
131
0.0
112
0.0
122
1.0
132
0.0
 79
     0
146
0.0
  0
VIEWPORT
  5
1FDF
102
{ACAD_XDICTIONARY
360
26F6
102
}
330
11AC
100
AcDbEntity
 67
     1
  8
DIM
100
AcDbViewport
 10
5.287916463191114
 20
4.037916594602931
 30
0.0
 40
8.460666341105783
 41
6.460666551364689
 68
     2
 69
     2
 12
11.94964544700201
 22
10.49919908472321
 13
0.0
 23
0.0
 14
0.0625
 24
0.0625
 15
0.25
 25
0.25
 16
0.0
 26
0.0
 36
1.0
 17
0.0
 27
0.0
 37
0.0
 42
50.0
 43
0.0
 44
0.0
 45
21.34309148999513
 50
0.0
 51
0.0
 72
   100
 90
    32768
  1

281
     0
 71
     1
 74
     0
110
0.0
120
0.0
130
0.0
111
1.0
121
0.0
131
0.0
112
0.0
122
1.0
132
0.0
 79
     0
146
0.0
  0
ENDSEC
  0
SECTION
  2
OBJECTS
  0
DICTIONARY
  5
11A4
330
0
100
AcDbDictionary
281
     1
  3
ACAD_COLOR
350
26C0
  3
ACAD_GROUP
350
11A5
  3
ACAD_LAYOUT
350
15C0
  3
ACAD_MATERIAL
350
26BF
  3
ACAD_MLINESTYLE
350
11B2
  3
ACAD_PLOTSETTINGS
350
15C1
  3
ACAD_PLOTSTYLENAME
350
15BE
  3
ACAD_TABLESTYLE
350
26C1
  3
ACDBHEADERROUNDTRIPXREC
350
26EC
  3
ACDBVARIABLEDICTIONARY
350
11E2
  3
DWGPROPS
350
26EF
  0
DICTIONARY
  5
1CE1
330
11AF
100
AcDbDictionary
280
     1
281
     1
  3
ACAD_SORTENTS
360
26C8
  0
DICTIONARY
  5
26F4
330
1FDD
100
AcDbDictionary
280
     1
281
     1
  3
ACAD_XREC_ROUNDTRIP
360
26F5
  0
DICTIONARY
  5
26F6
330
1FDF
100
AcDbDictionary
280
     1
281
     1
  3
ACAD_XREC_ROUNDTRIP
360
26F7
  0
DICTIONARY
  5
26C0
102
{ACAD_REACTORS
330
11A4
102
}
330
11A4
100
AcDbDictionary
281
     1
  0
DICTIONARY
  5
11A5
102
{ACAD_REACTORS
330
11A4
102
}
330
11A4
100
AcDbDictionary
281
     1
  0
DICTIONARY
  5
15C0
102
{ACAD_REACTORS
330
11A4
102
}
330
11A4
100
AcDbDictionary
281
     1
  3
Layout1
350
15C3
  3
Model
350
15C2
  0
DICTIONARY
  5
26BF
102
{ACAD_REACTORS
330
11A4
102
}
330
11A4
100
AcDbDictionary
281
     1
  0
DICTIONARY
  5
11B2
102
{ACAD_REACTORS
330
11A4
102
}
330
11A4
100
AcDbDictionary
281
     1
  3
STANDARD
350
11B3
  0
DICTIONARY
  5
15C1
102
{ACAD_REACTORS
330
11A4
102
}
330
11A4
100
AcDbDictionary
281
     1
  0
ACDBDICTIONARYWDFLT
  5
15BE
102
{ACAD_REACTORS
330
11A4
102
}
330
11A4
100
AcDbDictionary
281
     1
  3
Normal
350
15BF
100
AcDbDictionaryWithDefault
340
15BF
  0
DICTIONARY
  5
26C1
102
{ACAD_REACTORS
330
11A4
102
}
330
11A4
100
AcDbDictionary
281
     1
  3
Standard
350
26C2
  0
DICTIONARY
  5
26EC
102
{ACAD_REACTORS
330
11A4
102
}
330
11A4
100
AcDbDictionary
281
     1
  3
COLORDICT
350
26ED
  3
MATERIALDICT
350
26EE
  0
DICTIONARY
  5
11E2
102
{ACAD_REACTORS
330
11A4
102
}
330
11A4
100
AcDbDictionary
281
     1
  3
CTABLESTYLE
350
26D7
  3
DIMADEC
350
11E3
  0
XRECORD
  5
26EF
102
{ACAD_REACTORS
330
11A4
102
}
330
11A4
100
AcDbXrecord
  1
DWGPROPS COOKIE
  2

  3

  4

  6

  7

  8
helder
  9

300
=
301
=
302
=
303
=
304
=
305
=
306
=
307
=
308
=
309
=
 40
0.0
 41
2452080.854204051
 42
2454181.768249479
  1

 90
        0
  0
SORTENTSTABLE
  5
26C8
102
{ACAD_REACTORS
330
1CE1
102
}
330
1CE1
100
AcDbSortentsTable
330
11AF
331
1945
  5
1945
331
1BF8
  5
1BF8
331
1B8E
  5
1B8E
331
18DB
  5
18DB
331
1C6F
  5
1C6F
331
1C0B
  5
1C0B
331
1B41
  5
1B41
331
1B4C
  5
1B4C
331
26CA
  5
235E
331
1B45
  5
1B45
331
1B50
  5
1B50
331
1C6B
  5
1C6B
331
1942
  5
1942
331
1B4A
  5
1B4A
331
1BF5
  5
1BF5
331
235F
  5
2364
331
1966
  5
1966
331
2019
  5
2019
331
2367
  5
26C7
331
235D
  5
235F
331
1951
  5
1951
331
1962
  5
1962
331
26C9
  5
235D
331
1C0F
  5
1C0F
331
1C73
  5
1C73
331
1B3B
  5
1B3B
331
1B4B
  5
1B4B
331
1C0A
  5
1C0A
331
188C
  5
188C
331
1943
  5
1943
331
1C71
  5
1C71
331
1C7C
  5
1C7C
331
196F
  5
196F
331
1C75
  5
1C75
331
1C6A
  5
1C6A
331
1B4D
  5
1B4D
331
1B48
  5
1B48
331
1C0D
  5
1C0D
331
1BD7
  5
1BD7
331
2364
  5
24CA
331
1B6C
  5
1B6C
331
18D0
  5
18D0
331
188B
  5
188B
331
1F63
  5
1F63
331
1B46
  5
1B46
331
24D3
  5
26CA
331
1B4F
  5
1B4F
331
24CA
  5
26C9
331
2365
  5
24D3
331
18D9
  5
18D9
331
1C79
  5
1C79
331
1C0E
  5
1C0E
331
1C7E
  5
1C7E
331
18DA
  5
18DA
331
1B8D
  5
1B8D
331
1B49
  5
1B49
331
1BF9
  5
1BF9
331
1BFB
  5
1BFB
331
1C74
  5
1C74
331
1BD8
  5
1BD8
331
26C7
  5
2367
331
1BF6
  5
1BF6
331
1C77
  5
1C77
331
2366
  5
26C6
331
235E
  5
2360
331
18DF
  5
18DF
331
1C7A
  5
1C7A
331
26C6
  5
2366
331
1BD5
  5
1BD5
331
1C7B
  5
1C7B
331
1C7D
  5
1C7D
331
195B
  5
195B
331
1C69
  5
1C69
331
1930
  5
1930
331
18DE
  5
18DE
331
1971
  5
1971
331
1BF4
  5
1BF4
331
1C09
  5
1C09
331
1C78
  5
1C78
331
1BF7
  5
1BF7
331
1C10
  5
1C10
331
1BD6
  5
1BD6
331
1946
  5
1946
331
1964
  5
1964
331
1C0C
  5
1C0C
331
1C76
  5
1C76
331
1B42
  5
1B42
331
1BFC
  5
1BFC
331
1B47
  5
1B47
331
2360
  5
2365
331
1C70
  5
1C70
331
195C
  5
195C
331
1963
  5
1963
331
1965
  5
1965
331
1975
  5
1975
331
1C72
  5
1C72
  0
XRECORD
  5
26F5
102
{ACAD_REACTORS
330
26F4
102
}
330
26F4
100
AcDbXrecord
280
     1
102
SHADEPLOT
 70
     0
  0
XRECORD
  5
26F7
102
{ACAD_REACTORS
330
26F6
102
}
330
26F6
100
AcDbXrecord
280
     1
102
SHADEPLOT
 70
     0
  0
LAYOUT
  5
15C3
102
{ACAD_REACTORS
330
15C0
102
}
102
{ACAD_XDICTIONARY
360
26F0
102
}
330
15C0
100
AcDbPlotSettings
  1

  2
HP LaserJet 2100 Series PS
  4
Letter
  6

 40
5.365749835968018
 41
5.408084392547607
 42
5.4080810546875
 43
5.365753173828125
 44
215.8999938964844
 45
279.3999938964844
 46
0.0
 47
0.0
 48
0.0
 49
0.0
140
0.0
141
0.0
142
1.0
143
1.0
 70
   688
 72
     0
 73
     1
 74
     5
  7

 75
     0
147
1.0
148
0.0
149
0.0
100
AcDbLayout
  1
Layout1
 70
     0
 71
     1
 10
-0.2112501249538632
 20
-0.2112499935420479
 11
10.78874963475025
 21
8.288749766162061
 12
0.0
 22
0.0
 32
0.0
 14
1.057335079500113
 24
0.8072817979566906
 34
-0.0000000349181948
 15
9.518486014756849
 25
7.268272518691802
 35
0.0000000814935746
146
0.0
 13
0.0
 23
0.0
 33
0.0
 16
1.0
 26
0.0
 36
0.0
 17
0.0
 27
1.0
 37
0.0
 76
     0
330
11AC
331
1FDD
  0
LAYOUT
  5
15C2
102
{ACAD_REACTORS
330
15C0
102
}
102
{ACAD_XDICTIONARY
360
26F2
102
}
330
15C0
100
AcDbPlotSettings
  1

  2
HP LaserJet 2100 Series PS
  4
Letter
  6
1
 40
5.365749835968018
 41
5.408084392547607
 42
5.4080810546875
 43
5.365753173828125
 44
215.8999938964844
 45
279.3999938964844
 46
0.0
 47
0.0
 48
0.0
 49
0.0
140
0.0
141
0.0
142
1.0
143
1.985659204923131
 70
 11952
 72
     0
 73
     0
 74
     2
  7

 75
     0
147
0.5036110917324871
148
0.0
149
0.0
100
AcDbLayout
  1
Model
 70
     1
 71
     0
 10
0.0
 20
0.0
 11
12.0
 21
9.0
 12
0.0
 22
0.0
 32
0.0
 14
0.0
 24
0.0
 34
0.0
 15
0.0
 25
0.0
 35
0.0
146
0.0
 13
0.0
 23
0.0
 33
0.0
 16
1.0
 26
0.0
 36
0.0
 17
0.0
 27
1.0
 37
0.0
 76
     0
330
11AF
  0
MLINESTYLE
  5
11B3
102
{ACAD_REACTORS
330
11B2
102
}
330
11B2
100
AcDbMlineStyle
  2
STANDARD
 70
     0
  3

 62
   256
 51
90.0
 52
90.0
 71
     2
 49
0.5
 62
   256
  6
BYLAYER
 49
-0.5
 62
   256
  6
BYLAYER
  0
ACDBPLACEHOLDER
  5
15BF
102
{ACAD_REACTORS
330
15BE
102
}
330
15BE
  0
ACAD_PROXY_OBJECT
  5
26C2
102
{ACAD_REACTORS
330
26C1
102
}
330
26C1
100
AcDbProxyObject
 90
      499
 91
      585
 95
   983063
 70
     0
 93
     1841
310
4214DD185B99185C9928B81E85EB51B8AE3F2E07A17AD46E2B8FC02B5E8DC0F42B1CFD028000000C1008070000C3001FDFF8000000C1003FBFF000000182007F7FE00000030400FEFFC00000060801FDFF8000000C1003FBFF00000018200000000000000681FA0B0000001820100E000186003FBFF000000182007F7FE000
310
00030400FEFFC00000060801FDFF8000000C1003FBFF000000182007F7FE000000304000AD7A3703D0AC73F4160000003040201C00030C007F7FE00000030400FEFFC00000060801FDFF8000000C1003FBFF000000182007F7FE00000030400FEFFC000000608000
340
11A7
340
11A7
340
11A7
 94
        0
  0
XRECORD
  5
26ED
102
{ACAD_REACTORS
330
26EC
102
}
330
26EC
100
AcDbXrecord
340
26C0
  0
XRECORD
  5
26EE
102
{ACAD_REACTORS
330
26EC
102
}
330
26EC
100
AcDbXrecord
340
26BF
  0
DICTIONARYVAR
  5
26D7
102
{ACAD_REACTORS
330
11E2
102
}
330
11E2
100
DictionaryVariables
280
     0
  1
STANDARD
  0
DICTIONARYVAR
  5
11E3
102
{ACAD_REACTORS
330
11E2
102
}
330
11E2
100
DictionaryVariables
280
     0
  1
0
  0
DICTIONARY
  5
26F0
330
15C3
100
AcDbDictionary
280
     1
281
     1
  3
ACAD_XREC_ROUNDTRIP
360
26F1
  0
DICTIONARY
  5
26F2
330
15C2
100
AcDbDictionary
280
     1
281
     1
  3
ACAD_XREC_ROUNDTRIP
360
26F3
  0
XRECORD
  5
26F1
102
{ACAD_REACTORS
330
26F0
102
}
330
26F0
100
AcDbXrecord
102
SHADEPLOT
 70
     0
102
SHADEPLOTRESLEVEL
 70
     2
102
SHADEPLOTCUSTOMDPI
 70
   300
  0
XRECORD
  5
26F3
102
{ACAD_REACTORS
330
26F2
102
}
330
26F2
100
AcDbXrecord
102
SHADEPLOT
 70
     0
102
SHADEPLOTRESLEVEL
 70
     2
102
SHADEPLOTCUSTOMDPI
 70
   300
  0
ENDSEC
  0
EOF
