  0
SECTION
  2
HEADER
  9
$ACADVER
  1
AC1015
  9
$ACADMAINTVER
 70
     6
  9
$DWGCODEPAGE
  3
ANSI_1252
  9
$INSBASE
 10
0.0
 20
0.0
 30
0.0
  9
$EXTMIN
 10
-1.561801192270714
 20
0.0
 30
0.0
  9
$EXTMAX
 10
1.685698807729288
 20
19.989
 30
0.0
  9
$LIMMIN
 10
0.0
 20
0.0
  9
$LIMMAX
 10
31.5
 20
24.0
  9
$ORTHOMODE
 70
     0
  9
$REGENMODE
 70
     1
  9
$FILLMODE
 70
     1
  9
$QTEXTMODE
 70
     0
  9
$MIRRTEXT
 70
     1
  9
$LTSCALE
 40
0.5
  9
$ATTMODE
 70
     1
  9
$TEXTSIZE
 40
0.27
  9
$TRACEWID
 40
0.05
  9
$TEXTSTYLE
  7
STANDARD
  9
$CLAYER
  8
0
  9
$CELTYPE
  6
ByLayer
  9
$CECOLOR
 62
   256
  9
$CELTSCALE
 40
1.0
  9
$DISPSILH
 70
     0
  9
$DIMSCALE
 40
3.0
  9
$DIMASZ
 40
0.125
  9
$DIMEXO
 40
0.062
  9
$DIMDLI
 40
0.375
  9
$DIMRND
 40
0.0
  9
$DIMDLE
 40
0.0
  9
$DIMEXE
 40
0.08
  9
$DIMTP
 40
0.0
  9
$DIMTM
 40
0.0
  9
$DIMTXT
 40
0.09
  9
$DIMCEN
 40
-0.06
  9
$DIMTSZ
 40
0.0
  9
$DIMTOL
 70
     0
  9
$DIMLIM
 70
     0
  9
$DIMTIH
 70
     1
  9
$DIMTOH
 70
     1
  9
$DIMSE1
 70
     0
  9
$DIMSE2
 70
     0
  9
$DIMTAD
 70
     0
  9
$DIMZIN
 70
     0
  9
$DIMBLK
  1

  9
$DIMASO
 70
     0
  9
$DIMSHO
 70
     0
  9
$DIMPOST
  1

  9
$DIMAPOST
  1

  9
$DIMALT
 70
     0
  9
$DIMALTD
 70
     2
  9
$DIMALTF
 40
25.4
  9
$DIMLFAC
 40
1.0
  9
$DIMTOFL
 70
     0
  9
$DIMTVP
 40
0.0
  9
$DIMTIX
 70
     0
  9
$DIMSOXD
 70
     0
  9
$DIMSAH
 70
     0
  9
$DIMBLK1
  1

  9
$DIMBLK2
  1

  9
$DIMSTYLE
  2
Standard
  9
$DIMCLRD
 70
     0
  9
$DIMCLRE
 70
     0
  9
$DIMCLRT
 70
     0
  9
$DIMTFAC
 40
1.0
  9
$DIMGAP
 40
0.09
  9
$DIMJUST
 70
     0
  9
$DIMSD1
 70
     0
  9
$DIMSD2
 70
     0
  9
$DIMTOLJ
 70
     1
  9
$DIMTZIN
 70
     0
  9
$DIMALTZ
 70
     0
  9
$DIMALTTZ
 70
     0
  9
$DIMUPT
 70
     0
  9
$DIMDEC
 70
     4
  9
$DIMTDEC
 70
     4
  9
$DIMALTU
 70
     2
  9
$DIMALTTD
 70
     2
  9
$DIMTXSTY
  7
STANDARD
  9
$DIMAUNIT
 70
     0
  9
$DIMADEC
 70
     0
  9
$DIMALTRND
 40
0.0
  9
$DIMAZIN
 70
     0
  9
$DIMDSEP
 70
    46
  9
$DIMATFIT
 70
     3
  9
$DIMFRAC
 70
     0
  9
$DIMLDRBLK
  1

  9
$DIMLUNIT
 70
     2
  9
$DIMLWD
 70
    -2
  9
$DIMLWE
 70
    -2
  9
$DIMTMOVE
 70
     2
  9
$LUNITS
 70
     2
  9
$LUPREC
 70
     4
  9
$SKETCHINC
 40
0.1
  9
$FILLETRAD
 40
0.0
  9
$AUNITS
 70
     0
  9
$AUPREC
 70
     0
  9
$MENU
  1
acad
  9
$ELEVATION
 40
0.0
  9
$PELEVATION
 40
0.0
  9
$THICKNESS
 40
0.0
  9
$LIMCHECK
 70
     0
  9
$CHAMFERA
 40
0.0
  9
$CHAMFERB
 40
0.0
  9
$CHAMFERC
 40
0.0
  9
$CHAMFERD
 40
0.0
  9
$SKPOLY
 70
     0
  9
$TDCREATE
 40
2448944.732544097
  9
$TDUCREATE
 40
2448945.065877431
  9
$TDUPDATE
 40
2454181.787739259
  9
$TDUUPDATE
 40
2454182.121072593
  9
$TDINDWG
 40
0.1542480208
  9
$TDUSRTIMER
 40
0.1542480208
  9
$USRTIMER
 70
     1
  9
$ANGBASE
 50
0.0
  9
$ANGDIR
 70
     0
  9
$PDMODE
 70
     0
  9
$PDSIZE
 40
0.0
  9
$PLINEWID
 40
0.0
  9
$SPLFRAME
 70
     0
  9
$SPLINETYPE
 70
     6
  9
$SPLINESEGS
 70
     8
  9
$HANDSEED
  5
1AE
  9
$SURFTAB1
 70
     6
  9
$SURFTAB2
 70
     6
  9
$SURFTYPE
 70
     6
  9
$SURFU
 70
     6
  9
$SURFV
 70
     6
  9
$UCSBASE
  2

  9
$UCSNAME
  2

  9
$UCSORG
 10
0.0
 20
0.0
 30
0.0
  9
$UCSXDIR
 10
1.0
 20
0.0
 30
0.0
  9
$UCSYDIR
 10
0.0
 20
1.0
 30
0.0
  9
$UCSORTHOREF
  2

  9
$UCSORTHOVIEW
 70
     0
  9
$UCSORGTOP
 10
0.0
 20
0.0
 30
0.0
  9
$UCSORGBOTTOM
 10
0.0
 20
0.0
 30
0.0
  9
$UCSORGLEFT
 10
0.0
 20
0.0
 30
0.0
  9
$UCSORGRIGHT
 10
0.0
 20
0.0
 30
0.0
  9
$UCSORGFRONT
 10
0.0
 20
0.0
 30
0.0
  9
$UCSORGBACK
 10
0.0
 20
0.0
 30
0.0
  9
$PUCSBASE
  2

  9
$PUCSNAME
  2

  9
$PUCSORG
 10
0.0
 20
0.0
 30
0.0
  9
$PUCSXDIR
 10
1.0
 20
0.0
 30
0.0
  9
$PUCSYDIR
 10
0.0
 20
1.0
 30
0.0
  9
$PUCSORTHOREF
  2

  9
$PUCSORTHOVIEW
 70
     0
  9
$PUCSORGTOP
 10
0.0
 20
0.0
 30
0.0
  9
$PUCSORGBOTTOM
 10
0.0
 20
0.0
 30
0.0
  9
$PUCSORGLEFT
 10
0.0
 20
0.0
 30
0.0
  9
$PUCSORGRIGHT
 10
0.0
 20
0.0
 30
0.0
  9
$PUCSORGFRONT
 10
0.0
 20
0.0
 30
0.0
  9
$PUCSORGBACK
 10
0.0
 20
0.0
 30
0.0
  9
$USERI1
 70
     0
  9
$USERI2
 70
     0
  9
$USERI3
 70
     0
  9
$USERI4
 70
     0
  9
$USERI5
 70
     0
  9
$USERR1
 40
0.0
  9
$USERR2
 40
0.0
  9
$USERR3
 40
0.0
  9
$USERR4
 40
0.0
  9
$USERR5
 40
0.0
  9
$WORLDVIEW
 70
     1
  9
$SHADEDGE
 70
     3
  9
$SHADEDIF
 70
    70
  9
$TILEMODE
 70
     1
  9
$MAXACTVP
 70
    16
  9
$PINSBASE
 10
0.0
 20
0.0
 30
0.0
  9
$PLIMCHECK
 70
     0
  9
$PEXTMIN
 10
1.000000000000000E+20
 20
1.000000000000000E+20
 30
1.000000000000000E+20
  9
$PEXTMAX
 10
-1.000000000000000E+20
 20
-1.000000000000000E+20
 30
-1.000000000000000E+20
  9
$PLIMMIN
 10
0.0
 20
0.0
  9
$PLIMMAX
 10
12.0
 20
9.0
  9
$UNITMODE
 70
     0
  9
$VISRETAIN
 70
     0
  9
$PLINEGEN
 70
     0
  9
$PSLTSCALE
 70
     0
  9
$TREEDEPTH
 70
  3020
  9
$CMLSTYLE
  2
Standard
  9
$CMLJUST
 70
     0
  9
$CMLSCALE
 40
1.0
  9
$PROXYGRAPHICS
 70
     1
  9
$MEASUREMENT
 70
     0
  9
$CELWEIGHT
370
    -1
  9
$ENDCAPS
280
     0
  9
$JOINSTYLE
280
     0
  9
$LWDISPLAY
290
     0
  9
$INSUNITS
 70
     0
  9
$HYPERLINKBASE
  1

  9
$STYLESHEET
  1

  9
$XEDIT
290
     1
  9
$CEPSNTYPE
380
     0
  9
$PSTYLEMODE
290
     1
  9
$FINGERPRINTGUID
  2
{4D67D097-BAD0-11D4-8FCF-00D0B726A456}
  9
$VERSIONGUID
  2
{FB33807C-C27F-4438-B6C8-EAAC75BBF471}
  9
$EXTNAMES
290
     1
  9
$PSVPSCALE
 40
0.0
  9
$OLESTARTUP
290
     0
  0
ENDSEC
  0
SECTION
  2
CLASSES
  0
CLASS
  1
ACDBDICTIONARYWDFLT
  2
AcDbDictionaryWithDefault
  3
AutoCAD 2000
 90
        0
280
     0
281
     0
  0
CLASS
  1
ACDBPLACEHOLDER
  2
AcDbPlaceHolder
  3
ObjectDBX Classes
 90
        0
280
     0
281
     0
  0
CLASS
  1
LAYOUT
  2
AcDbLayout
  3
ObjectDBX Classes
 90
        0
280
     0
281
     0
  0
CLASS
  1
LONG_TRANSACTION
  2
AcDbLongTransaction
  3
ObjectDBX Classes
 90
   -65536
280
     1
281
     0
  0
CLASS
  1
LWPOLYLINE
  2
AcDbPolyline
  3
AutoCAD 2000
 90
        0
280
     0
281
     1
  0
CLASS
  1
HATCH
  2
AcDbHatch
  3
AutoCAD 2000
 90
        0
280
     0
281
     1
  0
CLASS
  1
XRECORD
  2
AcDbXrecord
  3
AutoCAD 2000
 90
        0
280
     0
281
     0
  0
CLASS
  1
LONG_TRANSACTION
  2
AcDbLongTransaction
  3
ObjectDBX Classes
 90
   -65536
280
     1
281
     0
  0
CLASS
  1
LWPOLYLINE
  2
AcDbPolyline
  3
AutoCAD 2000
 90
        0
280
     0
281
     1
  0
CLASS
  1
HATCH
  2
AcDbHatch
  3
AutoCAD 2000
 90
        0
280
     0
281
     1
  0
CLASS
  1
XRECORD
  2
AcDbXrecord
  3
AutoCAD 2000
 90
        0
280
     0
281
     0
  0
CLASS
  1
LONG_TRANSACTION
  2
AcDbLongTransaction
  3
ObjectDBX Classes
 90
   -65536
280
     1
281
     0
  0
CLASS
  1
LWPOLYLINE
  2
AcDbPolyline
  3
AutoCAD 2000
 90
        0
280
     0
281
     1
  0
CLASS
  1
HATCH
  2
AcDbHatch
  3
AutoCAD 2000
 90
        0
280
     0
281
     1
  0
CLASS
  1
XRECORD
  2
AcDbXrecord
  3
AutoCAD 2000
 90
        0
280
     0
281
     0
  0
CLASS
  1
LONG_TRANSACTION
  2
AcDbLongTransaction
  3
ObjectDBX Classes
 90
   -65536
280
     1
281
     0
  0
CLASS
  1
LWPOLYLINE
  2
AcDbPolyline
  3
AutoCAD 2000
 90
        0
280
     0
281
     1
  0
CLASS
  1
HATCH
  2
AcDbHatch
  3
AutoCAD 2000
 90
        0
280
     0
281
     1
  0
CLASS
  1
XRECORD
  2
AcDbXrecord
  3
AutoCAD 2000
 90
        0
280
     0
281
     0
  0
CLASS
  1
LONG_TRANSACTION
  2
AcDbLongTransaction
  3
ObjectDBX Classes
 90
   -65536
280
     1
281
     0
  0
CLASS
  1
LWPOLYLINE
  2
AcDbPolyline
  3
AutoCAD 2000
 90
        0
280
     0
281
     1
  0
CLASS
  1
HATCH
  2
AcDbHatch
  3
AutoCAD 2000
 90
        0
280
     0
281
     1
  0
CLASS
  1
XRECORD
  2
AcDbXrecord
  3
AutoCAD 2000
 90
        0
280
     0
281
     0
  0
CLASS
  1
LONG_TRANSACTION
  2
AcDbLongTransaction
  3
ObjectDBX Classes
 90
   -65536
280
     1
281
     0
  0
CLASS
  1
LWPOLYLINE
  2
AcDbPolyline
  3
AutoCAD 2000
 90
        0
280
     0
281
     1
  0
CLASS
  1
HATCH
  2
AcDbHatch
  3
AutoCAD 2000
 90
        0
280
     0
281
     1
  0
CLASS
  1
XRECORD
  2
AcDbXrecord
  3
AutoCAD 2000
 90
        0
280
     0
281
     0
  0
CLASS
  1
LONG_TRANSACTION
  2
AcDbLongTransaction
  3
ObjectDBX Classes
 90
   -65536
280
     1
281
     0
  0
CLASS
  1
LWPOLYLINE
  2
AcDbPolyline
  3
AutoCAD 2000
 90
        0
280
     0
281
     1
  0
CLASS
  1
HATCH
  2
AcDbHatch
  3
AutoCAD 2000
 90
        0
280
     0
281
     1
  0
CLASS
  1
XRECORD
  2
AcDbXrecord
  3
AutoCAD 2000
 90
        0
280
     0
281
     0
  0
CLASS
  1
LONG_TRANSACTION
  2
AcDbLongTransaction
  3
ObjectDBX Classes
 90
   -65536
280
     1
281
     0
  0
CLASS
  1
LWPOLYLINE
  2
AcDbPolyline
  3
AutoCAD 2000
 90
        0
280
     0
281
     1
  0
CLASS
  1
HATCH
  2
AcDbHatch
  3
AutoCAD 2000
 90
        0
280
     0
281
     1
  0
CLASS
  1
XRECORD
  2
AcDbXrecord
  3
AutoCAD 2000
 90
        0
280
     0
281
     0
  0
CLASS
  1
LONG_TRANSACTION
  2
AcDbLongTransaction
  3
ObjectDBX Classes
 90
   -65536
280
     1
281
     0
  0
CLASS
  1
LWPOLYLINE
  2
AcDbPolyline
  3
AutoCAD 2000
 90
        0
280
     0
281
     1
  0
CLASS
  1
HATCH
  2
AcDbHatch
  3
AutoCAD 2000
 90
        0
280
     0
281
     1
  0
CLASS
  1
XRECORD
  2
AcDbXrecord
  3
AutoCAD 2000
 90
        0
280
     0
281
     0
  0
CLASS
  1
LONG_TRANSACTION
  2
AcDbLongTransaction
  3
ObjectDBX Classes
 90
   -65536
280
     1
281
     0
  0
CLASS
  1
LWPOLYLINE
  2
AcDbPolyline
  3
AutoCAD 2000
 90
        0
280
     0
281
     1
  0
CLASS
  1
HATCH
  2
AcDbHatch
  3
AutoCAD 2000
 90
        0
280
     0
281
     1
  0
CLASS
  1
XRECORD
  2
AcDbXrecord
  3
AutoCAD 2000
 90
        0
280
     0
281
     0
  0
CLASS
  1
LONG_TRANSACTION
  2
AcDbLongTransaction
  3
ObjectDBX Classes
 90
   -65536
280
     1
281
     0
  0
CLASS
  1
LWPOLYLINE
  2
AcDbPolyline
  3
AutoCAD 2000
 90
        0
280
     0
281
     1
  0
CLASS
  1
HATCH
  2
AcDbHatch
  3
AutoCAD 2000
 90
        0
280
     0
281
     1
  0
CLASS
  1
XRECORD
  2
AcDbXrecord
  3
AutoCAD 2000
 90
        0
280
     0
281
     0
  0
CLASS
  1
DICTIONARYVAR
  2
AcDbDictionaryVar
  3
AutoCAD 2000
 90
        0
280
     0
281
     0
  0
CLASS
  1
TABLESTYLE
  2
AcDbTableStyle
  3
ObjectDBX Classes
 90
     2047
280
     1
281
     0
  0
CLASS
  1
SORTENTSTABLE
  2
AcDbSortentsTable
  3
AutoCAD 2000
 90
        0
280
     0
281
     0
  0
ENDSEC
  0
SECTION
  2
TABLES
  0
TABLE
  2
VPORT
  5
1D
330
0
100
AcDbSymbolTable
 70
     2
  0
VPORT
  5
1A0
330
1D
100
AcDbSymbolTableRecord
100
AcDbViewportTableRecord
  2
*Active
 70
     0
 10
0.0
 20
0.0
 11
1.0
 21
1.0
 12
18.16645783582005
 22
11.99963381700175
 13
0.0
 23
0.0
 14
0.063
 24
0.063
 15
0.25
 25
0.25
 16
0.0
 26
0.0
 36
1.0
 17
0.0
 27
0.0
 37
0.0
 40
24.18559038165244
 41
1.814583333333333
 42
50.0
 43
0.0
 44
0.0
 50
0.0
 51
0.0
 71
     0
 72
   100
 73
     1
 74
     1
 75
     0
 76
     0
 77
     0
 78
     0
281
     0
 65
     1
110
0.0
120
0.0
130
0.0
111
1.0
121
0.0
131
0.0
112
0.0
122
1.0
132
0.0
 79
     0
146
0.0
  0
ENDTAB
  0
TABLE
  2
LTYPE
  5
18
330
0
100
AcDbSymbolTable
 70
     1
  0
LTYPE
  5
19
330
18
100
AcDbSymbolTableRecord
100
AcDbLinetypeTableRecord
  2
ByBlock
 70
     0
  3

 72
    65
 73
     0
 40
0.0
  0
LTYPE
  5
1A
330
18
100
AcDbSymbolTableRecord
100
AcDbLinetypeTableRecord
  2
ByLayer
 70
     0
  3

 72
    65
 73
     0
 40
0.0
  0
LTYPE
  5
A
330
18
100
AcDbSymbolTableRecord
100
AcDbLinetypeTableRecord
  2
CONTINUOUS
 70
     0
  3
Solid line
 72
    65
 73
     0
 40
0.0
  0
ENDTAB
  0
TABLE
  2
LAYER
  5
14
330
0
100
AcDbSymbolTable
 70
     2
  0
LAYER
  5
6
330
14
100
AcDbSymbolTableRecord
100
AcDbLayerTableRecord
  2
0
 70
     0
 62
     7
  6
CONTINUOUS
370
    -3
390
7
  0
ENDTAB
  0
TABLE
  2
STYLE
  5
15
330
0
100
AcDbSymbolTable
 70
     1
  0
STYLE
  5
16
330
15
100
AcDbSymbolTableRecord
100
AcDbTextStyleTableRecord
  2
STANDARD
 70
     0
 40
0.0
 41
1.0
 50
0.0
 71
     0
 42
0.27
  3
TXT
  4

  0
ENDTAB
  0
TABLE
  2
VIEW
  5
1B
330
0
100
AcDbSymbolTable
 70
     0
  0
ENDTAB
  0
TABLE
  2
UCS
  5
1C
330
0
100
AcDbSymbolTable
 70
     0
  0
ENDTAB
  0
TABLE
  2
APPID
  5
1F
330
0
100
AcDbSymbolTable
 70
     1
  0
APPID
  5
20
330
1F
100
AcDbSymbolTableRecord
100
AcDbRegAppTableRecord
  2
ACAD
 70
     0
  0
ENDTAB
  0
TABLE
  2
DIMSTYLE
  5
21
330
0
100
AcDbSymbolTable
 70
     1
100
AcDbDimStyleTable
  0
DIMSTYLE
105
28
330
21
100
AcDbSymbolTableRecord
100
AcDbDimStyleTableRecord
  2
Standard
 70
     0
  3

  4

340
16
  0
ENDTAB
  0
TABLE
  2
BLOCK_RECORD
  5
1
330
0
100
AcDbSymbolTable
 70
     0
  0
BLOCK_RECORD
  5
2
102
{ACAD_XDICTIONARY
360
3
102
}
330
1
100
AcDbSymbolTableRecord
100
AcDbBlockTableRecord
  2
*Model_Space
340
C
  0
BLOCK_RECORD
  5
E
330
1
100
AcDbSymbolTableRecord
100
AcDbBlockTableRecord
  2
*Paper_Space
340
13
  0
ENDTAB
  0
ENDSEC
  0
SECTION
  2
BLOCKS
  0
BLOCK
  5
5
330
2
100
AcDbEntity
  8
0
100
AcDbBlockBegin
  2
*Model_Space
 70
     0
 10
0.0
 20
0.0
 30
0.0
  3
*Model_Space
  1

  4

  0
ENDBLK
  5
B
330
2
100
AcDbEntity
  8
0
100
AcDbBlockEnd
  0
BLOCK
  5
11
330
E
100
AcDbEntity
 67
     1
  8
0
100
AcDbBlockBegin
  2
*Paper_Space
 70
     0
 10
0.0
 20
0.0
 30
0.0
  3
*Paper_Space
  1

  4

  0
ENDBLK
  5
12
330
E
100
AcDbEntity
 67
     1
  8
0
100
AcDbBlockEnd
  0
ENDSEC
  0
SECTION
  2
ENTITIES
  0
LINE
  5
E5
330
2
100
AcDbEntity
  8
0
100
AcDbLine
 10
-1.001801192270715
 20
0.0
 30
0.0
 11
1.001801192270715
 21
0.0
 31
0.0
  0
CIRCLE
  5
E6
330
2
100
AcDbEntity
  8
0
100
AcDbCircle
 10
-0.5018011922707188
 20
0.4700000000000024
 30
0.0
 40
0.0781
  0
CIRCLE
  5
E7
330
2
100
AcDbEntity
  8
0
100
AcDbCircle
 10
-0.5018011922707188
 20
2.217000000000002
 30
0.0
 40
0.0781
  0
CIRCLE
  5
E8
330
2
100
AcDbEntity
  8
0
100
AcDbCircle
 10
-0.5018011922707188
 20
4.248100000000001
 30
0.0
 40
0.0781
  0
LINE
  5
E9
330
2
100
AcDbEntity
  8
0
100
AcDbLine
 10
0.1428373499037008
 20
7.20365428817265
 30
0.0
 11
-0.8537063208981337
 21
8.674004283433053
 31
0.0
  0
ARC
  5
EA
330
2
100
AcDbEntity
  8
0
100
AcDbCircle
 10
-0.4685307787853965
 20
18.90620355555404
 30
0.0
 40
0.125
100
AcDbArc
 50
114.2460159084855
 51
150.0
  0
LINE
  5
EB
330
2
100
AcDbEntity
  8
0
100
AcDbLine
 10
-0.2463166335915865
 20
15.7292868718801
 30
0.0
 11
-0.5629094638149432
 21
15.58669868157213
 31
0.0
  0
LINE
  5
EC
330
2
100
AcDbEntity
  8
0
100
AcDbLine
 10
0.6836192805048498
 20
7.074157982305856
 30
0.0
 11
-0.651071176128184
 21
9.043426529268242
 31
0.0
  0
LINE
  5
ED
330
2
100
AcDbEntity
  8
0
100
AcDbLine
 10
-0.0641096185452987
 20
7.063393986412773
 30
0.0
 11
-0.9862761668460749
 21
8.424004283433046
 31
0.0
  0
LINE
  5
EE
330
2
100
AcDbEntity
  8
0
100
AcDbLine
 10
-1.561801192270714
 20
8.479405387732825
 30
0.0
 11
-1.561801192270714
 21
6.954198217497467
 31
0.0
  0
LINE
  5
EF
330
2
100
AcDbEntity
  8
0
100
AcDbLine
 10
-1.501801192270715
 20
8.479405387732825
 30
0.0
 11
-1.501801192270715
 21
6.956548305587202
 31
0.0
  0
LINE
  5
F0
330
2
100
AcDbEntity
  8
0
100
AcDbLine
 10
-1.228242861508445
 20
0.9117403377412288
 30
0.0
 11
-1.025359523032986
 21
0.6299589275431998
 31
0.0
  0
LINE
  5
F1
330
2
100
AcDbEntity
  8
0
100
AcDbLine
 10
-1.001801192270715
 20
0.5569206653632719
 30
0.0
 11
-1.001801192270715
 21
0.0
 31
0.0
  0
ARC
  5
F2
330
2
100
AcDbEntity
  8
0
100
AcDbCircle
 10
-1.126801192270719
 20
0.5569206653632719
 30
0.0
 40
0.125
100
AcDbArc
 50
0.0
 51
35.75398409151454
  0
LINE
  5
F3
330
2
100
AcDbEntity
  8
0
100
AcDbLine
 10
-1.000079082979791
 20
4.5571757857503
 30
0.0
 11
-1.000079082979791
 21
3.939028467114714
 31
0.0
  0
LINE
  5
F4
330
2
100
AcDbEntity
  8
0
100
AcDbLine
 10
-1.000079082979791
 20
4.228102126432507
 30
0.0
 11
-1.000079082979791
 21
4.557175819586934
 31
0.0
  0
ARC
  5
F5
330
2
100
AcDbEntity
  8
0
100
AcDbCircle
 10
-1.125079082979795
 20
2.501842540954595
 30
0.0
 40
0.125
100
AcDbArc
 50
359.9999999999999
 51
35.75398409151428
  0
LINE
  5
F6
330
2
100
AcDbEntity
  8
0
100
AcDbLine
 10
-1.023637413742062
 20
1.859156960139078
 30
0.0
 11
-1.226520752217521
 21
1.577375549941049
 31
0.0
  0
LINE
  5
F7
330
2
100
AcDbEntity
  8
0
100
AcDbLine
 10
-1.251801192270715
 20
1.479925918556742
 30
0.0
 11
-1.251801192270715
 21
0.9847785999211531
 31
0.0
  0
ARC
  5
F8
330
2
100
AcDbEntity
  8
0
100
AcDbCircle
 10
-1.126801192270719
 20
0.9847785999211531
 30
0.0
 40
0.125
100
AcDbArc
 50
180.0
 51
215.7539840915143
  0
ARC
  5
F9
330
2
100
AcDbEntity
  8
0
100
AcDbCircle
 10
-1.125079082979795
 20
1.504337287761125
 30
0.0
 40
0.125
100
AcDbArc
 50
144.2460159084855
 51
180.0
  0
LINE
  5
FA
330
2
100
AcDbEntity
  8
0
100
AcDbLine
 10
-1.250079082979791
 20
1.504337287761125
 30
0.0
 11
-1.251801192270715
 21
1.479925918556742
 31
0.0
  0
LINE
  5
FB
330
2
100
AcDbEntity
  8
0
100
AcDbLine
 10
-1.000079082979791
 20
2.250693485233011
 30
0.0
 11
-1.000079082979791
 21
1.921619792078591
 31
0.0
  0
LINE
  5
FC
330
2
100
AcDbEntity
  8
0
100
AcDbLine
 10
-1.000079082979791
 20
2.1982688816368
 30
0.0
 11
-1.000079082979791
 21
1.932195188482378
 31
0.0
  0
LINE
  5
FD
330
2
100
AcDbEntity
  8
0
100
AcDbLine
 10
-1.000079082979791
 20
1.932195222319006
 30
0.0
 11
-1.000079082979791
 21
2.501842540954595
 31
0.0
  0
ARC
  5
FE
330
2
100
AcDbEntity
  8
0
100
AcDbCircle
 10
-1.125079082979795
 20
1.932195222319006
 30
0.0
 40
0.125
100
AcDbArc
 50
324.2460159084857
 51
0.0
  0
LINE
  5
FF
330
2
100
AcDbEntity
  8
0
100
AcDbLine
 10
-1.000079082979791
 20
2.250693485233011
 30
0.0
 11
-1.000079082979791
 21
2.491267178387439
 31
0.0
  0
LINE
  5
100
330
2
100
AcDbEntity
  8
0
100
AcDbLine
 10
-1.000079082979791
 20
2.1982688816368
 30
0.0
 11
-1.000079082979791
 21
2.501842574791226
 31
0.0
  0
LINE
  5
101
330
2
100
AcDbEntity
  8
0
100
AcDbLine
 10
-1.251801192270715
 20
3.486759163352449
 30
0.0
 11
-1.251801192270715
 21
2.954111844716859
 31
0.0
  0
LINE
  5
102
330
2
100
AcDbEntity
  8
0
100
AcDbLine
 10
-1.251801192270715
 20
2.954111844716863
 30
0.0
 11
-1.251801192270715
 21
3.486759163352449
 31
0.0
  0
LINE
  5
103
330
2
100
AcDbEntity
  8
0
100
AcDbLine
 10
-1.250079082979791
 20
2.929700475512476
 30
0.0
 11
-1.251801192270715
 21
2.954111844716863
 31
0.0
  0
ARC
  5
104
330
2
100
AcDbEntity
  8
0
100
AcDbCircle
 10
-1.125079082979795
 20
2.929700475512476
 30
0.0
 40
0.125
100
AcDbArc
 50
180.0
 51
215.7539840915145
  0
LINE
  5
105
330
2
100
AcDbEntity
  8
0
100
AcDbLine
 10
-1.023637413742062
 20
2.574880803134519
 30
0.0
 11
-1.226520752217521
 21
2.856662213332548
 31
0.0
  0
CIRCLE
  5
106
330
2
100
AcDbEntity
  8
0
100
AcDbCircle
 10
-0.7518011922707188
 20
3.220400000000002
 30
0.0
 40
0.0781
  0
LINE
  5
107
330
2
100
AcDbEntity
  8
0
100
AcDbLine
 10
-1.000079082979791
 20
4.228102126432507
 30
0.0
 11
-1.000079082979791
 21
3.939028433278086
 31
0.0
  0
ARC
  5
108
330
2
100
AcDbEntity
  8
0
100
AcDbCircle
 10
-1.125079082979795
 20
3.511170532556832
 30
0.0
 40
0.125
100
AcDbArc
 50
144.2460159084855
 51
180.0
  0
LINE
  5
109
330
2
100
AcDbEntity
  8
0
100
AcDbLine
 10
-1.023637413742062
 20
3.865990204934786
 30
0.0
 11
-1.226520752217521
 21
3.584208794736757
 31
0.0
  0
LINE
  5
10A
330
2
100
AcDbEntity
  8
0
100
AcDbLine
 10
-1.250079082979791
 20
3.511170532556832
 30
0.0
 11
-1.251801192270715
 21
3.486759163352449
 31
0.0
  0
ARC
  5
10B
330
2
100
AcDbEntity
  8
0
100
AcDbCircle
 10
-1.125079082979795
 20
3.939028467114714
 30
0.0
 40
0.125
100
AcDbArc
 50
324.2460159084857
 51
0.0
  0
LINE
  5
10C
330
2
100
AcDbEntity
  8
0
100
AcDbLine
 10
-1.251801192270715
 20
5.391605594848375
 30
0.0
 11
-1.251801192270715
 21
6.603874142439643
 31
0.0
  0
LINE
  5
10D
330
2
100
AcDbEntity
  8
0
100
AcDbLine
 10
-1.251801192270715
 20
5.009445089512571
 30
0.0
 11
-1.251801192270715
 21
5.391605594848375
 31
0.0
  0
LINE
  5
10E
330
2
100
AcDbEntity
  8
0
100
AcDbLine
 10
-1.023637413742062
 20
4.630214047930227
 30
0.0
 11
-1.226520752217517
 21
4.911995458128256
 31
0.0
  0
ARC
  5
10F
330
2
100
AcDbEntity
  8
0
100
AcDbCircle
 10
-1.125079082979795
 20
4.557175785750303
 30
0.0
 40
0.125
100
AcDbArc
 50
359.9999999999999
 51
35.75398409151428
  0
LINE
  5
110
330
2
100
AcDbEntity
  8
0
100
AcDbLine
 10
-1.250079082979791
 20
4.985033720308184
 30
0.0
 11
-1.251801192270715
 21
5.009445089512571
 31
0.0
  0
ARC
  5
111
330
2
100
AcDbEntity
  8
0
100
AcDbCircle
 10
-1.125079082979795
 20
4.985033720308184
 30
0.0
 40
0.125
100
AcDbArc
 50
180.0
 51
215.7539840915145
  0
CIRCLE
  5
112
330
2
100
AcDbEntity
  8
0
100
AcDbCircle
 10
-0.7518011922707188
 20
5.219308632793631
 30
0.0
 40
0.0781
  0
ARC
  5
113
330
2
100
AcDbEntity
  8
0
100
AcDbCircle
 10
-1.626801192270715
 20
6.603874142439643
 30
0.0
 40
0.375
100
AcDbArc
 50
0.0
 51
70.52877936550564
  0
LINE
  5
114
330
2
100
AcDbEntity
  8
0
100
AcDbLine
 10
-1.501801192270694
 20
6.957427533032909
 30
0.0
 11
-1.561801192270714
 21
6.954198217497467
 31
0.0
  0
LINE
  5
115
330
2
100
AcDbEntity
  8
0
100
AcDbLine
 10
-1.561801192270711
 20
17.18648176018583
 30
0.0
 11
-1.561801192270714
 21
8.728514725244303
 31
0.0
  0
LINE
  5
116
330
2
100
AcDbEntity
  8
0
100
AcDbLine
 10
-1.501801192270715
 20
17.18648176018583
 30
0.0
 11
-1.501801192270715
 21
8.728514725244303
 31
0.0
  0
LINE
  5
117
330
2
100
AcDbEntity
  8
0
100
AcDbLine
 10
-0.651071176128184
 20
9.043426529268242
 30
0.0
 11
-1.501801192270715
 21
10.31492193099111
 31
0.0
  0
LINE
  5
118
330
2
100
AcDbEntity
  8
0
100
AcDbLine
 10
-1.501801192270719
 20
8.478874142439643
 30
0.0
 11
-1.089749657771264
 21
8.47887414243964
 31
0.0
  0
LINE
  5
119
330
2
100
AcDbEntity
  8
0
100
AcDbLine
 10
-1.501801192270715
 20
8.72887414243964
 30
0.0
 11
-0.9571798118233197
 21
8.728874142439647
 31
0.0
  0
LINE
  5
11A
330
2
100
AcDbEntity
  8
0
100
AcDbLine
 10
-1.501801192270715
 20
8.728874142439643
 30
0.0
 11
-1.089749657771264
 21
8.72887414243964
 31
0.0
  0
LINE
  5
11B
330
2
100
AcDbEntity
  8
0
100
AcDbLine
 10
-1.561801192270714
 20
8.728514725244303
 30
0.0
 11
-1.561801192270714
 21
8.479405387732825
 31
0.0
  0
LINE
  5
11C
330
2
100
AcDbEntity
  8
0
100
AcDbLine
 10
-1.501801192270715
 20
8.47887414243964
 30
0.0
 11
-1.501801192270715
 21
8.479405387732825
 31
0.0
  0
LINE
  5
11D
330
2
100
AcDbEntity
  8
0
100
AcDbLine
 10
-1.501801192270715
 20
8.728514725244303
 30
0.0
 11
-1.501801192270715
 21
8.72887414243964
 31
0.0
  0
ARC
  5
11E
330
2
100
AcDbEntity
  8
0
100
AcDbCircle
 10
-1.089749657771264
 20
8.35387414243964
 30
0.0
 40
0.125
100
AcDbArc
 50
34.12782929544994
 51
89.99999999999979
  0
ARC
  5
11F
330
2
100
AcDbEntity
  8
0
100
AcDbCircle
 10
-0.9571798118233197
 20
8.603874142439647
 30
0.0
 40
0.125
100
AcDbArc
 50
34.12782929545009
 51
90.00000000000038
  0
LINE
  5
120
330
2
100
AcDbEntity
  8
0
100
AcDbLine
 10
-0.9246213344917145
 20
14.55442866690826
 30
0.0
 11
-0.9594327545170422
 21
14.89990019569168
 31
0.0
  0
LINE
  5
121
330
2
100
AcDbEntity
  8
0
100
AcDbLine
 10
-1.295233255989441
 20
13.91250998898348
 30
0.0
 11
-1.501801192270715
 21
13.81947519666295
 31
0.0
  0
LINE
  5
122
330
2
100
AcDbEntity
  8
0
100
AcDbLine
 10
-1.079062880531591
 20
14.23981140084317
 30
0.0
 11
-0.9460260339543787
 21
14.47023797839365
 31
0.0
  0
LINE
  5
123
330
2
100
AcDbEntity
  8
0
100
AcDbLine
 10
-1.105275182329695
 20
14.19441036234552
 30
0.0
 11
-0.9407383357524815
 21
14.47939654033442
 31
0.0
  0
LINE
  5
124
330
2
100
AcDbEntity
  8
0
100
AcDbLine
 10
-1.238312011988594
 20
13.96398381409843
 30
0.0
 11
-0.9407383526707953
 21
14.47939651103104
 31
0.0
  0
ARC
  5
125
330
2
100
AcDbEntity
  8
0
100
AcDbCircle
 10
-1.34656518746165
 20
14.02648381409843
 30
0.0
 40
0.125
100
AcDbArc
 50
294.2460159084857
 51
330.0
  0
LINE
  5
126
330
2
100
AcDbEntity
  8
0
100
AcDbLine
 10
-1.079062880531591
 20
14.23981140084317
 30
0.0
 11
-1.243599727108798
 21
13.95482522285428
 31
0.0
  0
LINE
  5
127
330
2
100
AcDbEntity
  8
0
100
AcDbLine
 10
-1.105275182329695
 20
14.19441036234552
 30
0.0
 11
-1.238312028906908
 21
13.96398378479505
 31
0.0
  0
ARC
  5
128
330
2
100
AcDbEntity
  8
0
100
AcDbCircle
 10
-1.048991528143851
 20
14.54189651103104
 30
0.0
 40
0.125
100
AcDbArc
 50
329.9999999999999
 51
5.753984091514267
  0
LINE
  5
129
330
2
100
AcDbEntity
  8
0
100
AcDbLine
 10
-0.6335277828120134
 20
15.51494504523049
 30
0.0
 11
-0.9326014421298119
 21
14.99693427208652
 31
0.0
  0
LINE
  5
12A
330
2
100
AcDbEntity
  8
0
100
AcDbLine
 10
-0.6335277828120134
 20
15.51494504523049
 30
0.0
 11
-0.9326014421298119
 21
14.99693427208652
 31
0.0
  0
LINE
  5
12B
330
2
100
AcDbEntity
  8
0
100
AcDbLine
 10
-0.9433157363379614
 20
14.97493235156891
 30
0.0
 11
-0.9326014421298048
 21
14.99693427208653
 31
0.0
  0
ARC
  5
12C
330
2
100
AcDbEntity
  8
0
100
AcDbCircle
 10
-0.8350625608649125
 20
14.9124323515689
 30
0.0
 40
0.125
100
AcDbArc
 50
150.0
 51
185.7539840915146
  0
ARC
  5
12D
330
2
100
AcDbEntity
  8
0
100
AcDbCircle
 10
-0.5115775323427343
 20
15.47272485645718
 30
0.0
 40
0.125
100
AcDbArc
 50
114.2460159084855
 51
150.0
  0
LINE
  5
12E
330
2
100
AcDbEntity
  8
0
100
AcDbLine
 10
-0.6198307078157903
 20
15.53522485645718
 30
0.0
 11
-0.6335277828120134
 21
15.51494504523049
 31
0.0
  0
LINE
  5
12F
330
2
100
AcDbEntity
  8
0
100
AcDbLine
 10
-1.062228428772361
 20
17.62788906144237
 30
0.0
 11
-1.195265258431252
 21
17.39746251319528
 31
0.0
  0
LINE
  5
130
330
2
100
AcDbEntity
  8
0
100
AcDbLine
 10
-1.263802059492793
 20
17.31900019286792
 30
0.0
 11
-1.501801192270715
 21
17.21180930792676
 31
0.0
  0
LINE
  5
131
330
2
100
AcDbEntity
  8
0
100
AcDbLine
 10
-1.501801192270715
 20
17.21180930792676
 30
0.0
 11
-1.561801192270711
 21
17.18648176018583
 31
0.0
  0
ARC
  5
132
330
2
100
AcDbEntity
  8
0
100
AcDbCircle
 10
-1.315133990965002
 20
17.43297401798287
 30
0.0
 40
0.125
100
AcDbArc
 50
294.2460159084857
 51
330.0
  0
LINE
  5
133
330
2
100
AcDbEntity
  8
0
100
AcDbLine
 10
-1.195265258431252
 20
17.39746251319528
 30
0.0
 11
-1.206880815491946
 21
17.37047401798288
 31
0.0
  0
LINE
  5
134
330
2
100
AcDbEntity
  8
0
100
AcDbLine
 10
-0.8895546885724706
 20
18.43041297118338
 30
0.0
 11
-0.5904810292546792
 21
18.94842374432734
 31
0.0
  0
LINE
  5
135
330
2
100
AcDbEntity
  8
0
100
AcDbLine
 10
-0.5904810292546792
 20
18.94842374432734
 30
0.0
 11
-0.8895546885724706
 21
18.43041297118338
 31
0.0
  0
LINE
  5
136
330
2
100
AcDbEntity
  8
0
100
AcDbLine
 10
-0.8815745809343802
 20
17.98790736600511
 30
0.0
 11
-0.916386000959708
 21
18.33337889478854
 31
0.0
  0
LINE
  5
137
330
2
100
AcDbEntity
  8
0
100
AcDbLine
 10
-1.062228428772361
 20
17.62788906144237
 30
0.0
 11
-0.8976915821951472
 21
17.91287523943128
 31
0.0
  0
ARC
  5
138
330
2
100
AcDbEntity
  8
0
100
AcDbCircle
 10
-1.005944774586514
 20
17.97537521012789
 30
0.0
 40
0.125
100
AcDbArc
 50
329.9999999999999
 51
5.753984091514267
  0
CIRCLE
  5
139
330
2
100
AcDbEntity
  8
0
100
AcDbCircle
 10
-0.6893011922707153
 20
17.9265
 30
0.0
 40
0.0781
  0
ARC
  5
13A
330
2
100
AcDbEntity
  8
0
100
AcDbCircle
 10
-0.7920158073075747
 20
18.34591105066576
 30
0.0
 40
0.125
100
AcDbArc
 50
150.0
 51
185.7539840915146
  0
LINE
  5
13B
330
2
100
AcDbEntity
  8
0
100
AcDbLine
 10
-0.9002689827806272
 20
18.40841105066576
 30
0.0
 11
-0.8895546885724706
 21
18.43041297118338
 31
0.0
  0
LINE
  5
13C
330
2
100
AcDbEntity
  8
0
100
AcDbLine
 10
-0.5767839542584561
 20
18.96870355555404
 30
0.0
 11
-0.5904810292546792
 21
18.94842374432734
 31
0.0
  0
LINE
  5
13D
330
2
100
AcDbEntity
  8
0
100
AcDbLine
 10
0.7717571384915551
 20
0.9117403377412288
 30
0.0
 11
0.9746404769670143
 21
0.6299589275431998
 31
0.0
  0
LINE
  5
13E
330
2
100
AcDbEntity
  8
0
100
AcDbLine
 10
0.9981988077292847
 20
0.5569206653632719
 30
0.0
 11
0.9981988077292847
 21
0.0
 31
0.0
  0
CIRCLE
  5
13F
330
2
100
AcDbEntity
  8
0
100
AcDbCircle
 10
0.6231988077292812
 20
0.4700000000000024
 30
0.0
 40
0.0781
  0
ARC
  5
140
330
2
100
AcDbEntity
  8
0
100
AcDbCircle
 10
0.8731988077292812
 20
0.5569206653632719
 30
0.0
 40
0.125
100
AcDbArc
 50
0.0
 51
35.75398409151454
  0
LINE
  5
141
330
2
100
AcDbEntity
  8
0
100
AcDbLine
 10
0.9999209170202086
 20
4.228102126432507
 30
0.0
 11
0.9999209170202086
 21
4.557175819586934
 31
0.0
  0
LINE
  5
142
330
2
100
AcDbEntity
  8
0
100
AcDbLine
 10
0.9999209170202086
 20
4.5571757857503
 30
0.0
 11
0.9999209170202086
 21
3.939028467114714
 31
0.0
  0
ARC
  5
143
330
2
100
AcDbEntity
  8
0
100
AcDbCircle
 10
0.874920917020205
 20
2.501842540954594
 30
0.0
 40
0.125
100
AcDbArc
 50
359.9999999999999
 51
35.75398409151428
  0
LINE
  5
144
330
2
100
AcDbEntity
  8
0
100
AcDbLine
 10
0.9763625862579382
 20
1.859156960139078
 30
0.0
 11
0.7734792477824826
 21
1.577375549941049
 31
0.0
  0
CIRCLE
  5
145
330
2
100
AcDbEntity
  8
0
100
AcDbCircle
 10
-0.0018011922707188
 20
1.205653435499507
 30
0.0
 40
0.1875
  0
LINE
  5
146
330
2
100
AcDbEntity
  8
0
100
AcDbLine
 10
0.7481988077292847
 20
1.479925918556742
 30
0.0
 11
0.7481988077292847
 21
0.9847785999211531
 31
0.0
  0
ARC
  5
147
330
2
100
AcDbEntity
  8
0
100
AcDbCircle
 10
0.8731988077292812
 20
0.9847785999211531
 30
0.0
 40
0.125
100
AcDbArc
 50
180.0
 51
215.7539840915143
  0
LINE
  5
148
330
2
100
AcDbEntity
  8
0
100
AcDbLine
 10
0.7499209170202086
 20
1.504337287761125
 30
0.0
 11
0.7481988077292847
 21
1.479925918556742
 31
0.0
  0
ARC
  5
149
330
2
100
AcDbEntity
  8
0
100
AcDbCircle
 10
0.874920917020205
 20
1.504337287761125
 30
0.0
 40
0.125
100
AcDbArc
 50
144.2460159084855
 51
180.0
  0
LINE
  5
14A
330
2
100
AcDbEntity
  8
0
100
AcDbLine
 10
0.9999209170202086
 20
2.1982688816368
 30
0.0
 11
0.9999209170202086
 21
1.932195188482378
 31
0.0
  0
LINE
  5
14B
330
2
100
AcDbEntity
  8
0
100
AcDbLine
 10
0.9999209170202086
 20
2.250693485233011
 30
0.0
 11
0.9999209170202086
 21
1.921619792078591
 31
0.0
  0
LINE
  5
14C
330
2
100
AcDbEntity
  8
0
100
AcDbLine
 10
0.9999209170202086
 20
1.932195222319006
 30
0.0
 11
0.9999209170202086
 21
2.501842540954595
 31
0.0
  0
ARC
  5
14D
330
2
100
AcDbEntity
  8
0
100
AcDbCircle
 10
0.874920917020205
 20
1.932195222319005
 30
0.0
 40
0.125
100
AcDbArc
 50
324.2460159084857
 51
0.0
  0
CIRCLE
  5
14E
330
2
100
AcDbEntity
  8
0
100
AcDbCircle
 10
0.6231988077292812
 20
2.217000000000001
 30
0.0
 40
0.0781
  0
LINE
  5
14F
330
2
100
AcDbEntity
  8
0
100
AcDbLine
 10
0.9999209170202086
 20
2.1982688816368
 30
0.0
 11
0.9999209170202086
 21
2.501842574791226
 31
0.0
  0
LINE
  5
150
330
2
100
AcDbEntity
  8
0
100
AcDbLine
 10
0.9999209170202086
 20
2.250693485233011
 30
0.0
 11
0.9999209170202086
 21
2.491267178387439
 31
0.0
  0
LINE
  5
151
330
2
100
AcDbEntity
  8
0
100
AcDbLine
 10
0.7481988077292847
 20
2.954111844716863
 30
0.0
 11
0.7481988077292847
 21
3.486759163352449
 31
0.0
  0
LINE
  5
152
330
2
100
AcDbEntity
  8
0
100
AcDbLine
 10
0.7481988077292847
 20
3.486759163352449
 30
0.0
 11
0.7481988077292847
 21
2.954111844716859
 31
0.0
  0
CIRCLE
  5
153
330
2
100
AcDbEntity
  8
0
100
AcDbCircle
 10
0.2481988077292812
 20
3.220400000000002
 30
0.0
 40
0.0781
  0
ARC
  5
154
330
2
100
AcDbEntity
  8
0
100
AcDbCircle
 10
0.874920917020205
 20
2.929700475512475
 30
0.0
 40
0.125
100
AcDbArc
 50
180.0
 51
215.7539840915145
  0
LINE
  5
155
330
2
100
AcDbEntity
  8
0
100
AcDbLine
 10
0.7499209170202086
 20
2.929700475512476
 30
0.0
 11
0.7481988077292847
 21
2.954111844716863
 31
0.0
  0
LINE
  5
156
330
2
100
AcDbEntity
  8
0
100
AcDbLine
 10
0.9763625862579382
 20
2.574880803134519
 30
0.0
 11
0.7734792477824826
 21
2.856662213332548
 31
0.0
  0
LINE
  5
157
330
2
100
AcDbEntity
  8
0
100
AcDbLine
 10
0.9999209170202086
 20
4.228102126432507
 30
0.0
 11
0.9999209170202086
 21
3.939028433278086
 31
0.0
  0
LINE
  5
158
330
2
100
AcDbEntity
  8
0
100
AcDbLine
 10
0.7499209170202086
 20
3.511170532556832
 30
0.0
 11
0.7481988077292847
 21
3.486759163352449
 31
0.0
  0
ARC
  5
159
330
2
100
AcDbEntity
  8
0
100
AcDbCircle
 10
0.874920917020205
 20
3.511170532556831
 30
0.0
 40
0.125
100
AcDbArc
 50
144.2460159084855
 51
180.0
  0
LINE
  5
15A
330
2
100
AcDbEntity
  8
0
100
AcDbLine
 10
0.9763625862579382
 20
3.865990204934786
 30
0.0
 11
0.7734792477824826
 21
3.584208794736757
 31
0.0
  0
ARC
  5
15B
330
2
100
AcDbEntity
  8
0
100
AcDbCircle
 10
0.874920917020205
 20
3.939028467114713
 30
0.0
 40
0.125
100
AcDbArc
 50
324.2460159084857
 51
0.0
  0
CIRCLE
  5
15C
330
2
100
AcDbEntity
  8
0
100
AcDbCircle
 10
0.6231988077292812
 20
4.248100000000001
 30
0.0
 40
0.0781
  0
LINE
  5
15D
330
2
100
AcDbEntity
  8
0
100
AcDbLine
 10
0.7481988077292847
 20
5.391605594848375
 30
0.0
 11
0.7481988077292847
 21
6.863767559325638
 31
0.0
  0
LINE
  5
15E
330
2
100
AcDbEntity
  8
0
100
AcDbLine
 10
0.7481988077292847
 20
5.009445089512571
 30
0.0
 11
0.7481988077292847
 21
5.391605594848375
 31
0.0
  0
LINE
  5
15F
330
2
100
AcDbEntity
  8
0
100
AcDbLine
 10
0.9763625862579382
 20
4.630214047930227
 30
0.0
 11
0.7734792477824826
 21
4.911995458128256
 31
0.0
  0
ARC
  5
160
330
2
100
AcDbEntity
  8
0
100
AcDbCircle
 10
0.874920917020205
 20
4.557175785750303
 30
0.0
 40
0.125
100
AcDbArc
 50
359.9999999999999
 51
35.75398409151428
  0
ARC
  5
161
330
2
100
AcDbEntity
  8
0
100
AcDbCircle
 10
0.874920917020205
 20
4.985033720308184
 30
0.0
 40
0.125
100
AcDbArc
 50
180.0
 51
215.7539840915145
  0
LINE
  5
162
330
2
100
AcDbEntity
  8
0
100
AcDbLine
 10
0.7499209170202086
 20
4.985033720308184
 30
0.0
 11
0.7481988077292847
 21
5.009445089512571
 31
0.0
  0
CIRCLE
  5
163
330
2
100
AcDbEntity
  8
0
100
AcDbCircle
 10
0.2481988077292847
 20
5.989000000000001
 30
0.0
 40
0.0781
  0
ARC
  5
164
330
2
100
AcDbEntity
  8
0
100
AcDbCircle
 10
0.0393638589785112
 20
7.133524147179241
 30
0.0
 40
0.125
100
AcDbArc
 50
214.12782929545
 51
307.8225882955774
  0
ARC
  5
165
330
2
100
AcDbEntity
  8
0
100
AcDbCircle
 10
0.0393638589785112
 20
7.133524147179244
 30
0.0
 40
0.125
100
AcDbArc
 50
307.8225882955781
 51
34.12782929545001
  0
ARC
  5
166
330
2
100
AcDbEntity
  8
0
100
AcDbCircle
 10
0.3731988077292847
 20
6.863767559325638
 30
0.0
 40
0.375
100
AcDbArc
 50
0.0
 51
34.12782929544996
  0
ARC
  5
167
330
2
100
AcDbEntity
  8
0
100
AcDbCircle
 10
0.3731988077292847
 20
6.863767559325638
 30
0.0
 40
0.375
100
AcDbArc
 50
0.0
 51
34.12782929545001
  0
LINE
  5
168
330
2
100
AcDbEntity
  8
0
100
AcDbLine
 10
1.685698807729288
 20
19.989
 30
0.0
 11
1.685698807729288
 21
19.3015
 31
0.0
  0
CIRCLE
  5
169
330
2
100
AcDbEntity
  8
0
100
AcDbCircle
 10
0.6856988077292847
 20
19.239
 30
0.0
 40
0.1875
  0
LINE
  5
16A
330
2
100
AcDbEntity
  8
0
100
AcDbLine
 10
0.0181881936254982
 20
19.49922554477742
 30
0.0
 11
-0.1463486529517155
 21
19.21423936678852
 31
0.0
  0
LINE
  5
16B
330
2
100
AcDbEntity
  8
0
100
AcDbLine
 10
0.182725023284398
 20
19.78421169346293
 30
0.0
 11
-0.1463486360334017
 21
19.2142393960919
 31
0.0
  0
LINE
  5
16C
330
2
100
AcDbEntity
  8
0
100
AcDbLine
 10
0.8355917724827862
 20
17.59055663894698
 30
0.0
 11
0.5189989422594294
 21
17.44796844863901
 31
0.0
  0
LINE
  5
16D
330
2
100
AcDbEntity
  8
0
100
AcDbLine
 10
0.1572870715826547
 20
16.41569843397513
 30
0.0
 11
0.1224756515573269
 21
16.76116996275856
 31
0.0
  0
LINE
  5
16E
330
2
100
AcDbEntity
  8
0
100
AcDbLine
 10
0.1396782697270567
 20
16.35073299436608
 30
0.0
 11
-0.189395389590743
 21
15.78076069699505
 31
0.0
  0
LINE
  5
16F
330
2
100
AcDbEntity
  8
0
100
AcDbLine
 10
-0.0248585599318432
 20
16.06574684568057
 30
0.0
 11
0.1396782866453705
 21
16.35073302366946
 31
0.0
  0
LINE
  5
170
330
2
100
AcDbEntity
  8
0
100
AcDbLine
 10
-0.0248585599318432
 20
16.06574684568057
 30
0.0
 11
-0.1893954065090568
 21
15.78076066769167
 31
0.0
  0
ARC
  5
171
330
2
100
AcDbEntity
  8
0
100
AcDbCircle
 10
-0.2976485650637954
 20
15.84326069699505
 30
0.0
 40
0.125
100
AcDbArc
 50
294.2460159084857
 51
330.0
  0
CIRCLE
  5
172
330
2
100
AcDbEntity
  8
0
100
AcDbCircle
 10
-0.4393011922707153
 20
16.364
 30
0.0
 40
0.0781
  0
ARC
  5
173
330
2
100
AcDbEntity
  8
0
100
AcDbCircle
 10
0.0314250942539971
 20
16.41323299436608
 30
0.0
 40
0.125
100
AcDbArc
 50
329.9999999999999
 51
5.753984091514267
  0
LINE
  5
174
330
2
100
AcDbEntity
  8
0
100
AcDbLine
 10
0.1493069639445643
 20
16.8582040391534
 30
0.0
 11
0.4483806232623557
 21
17.37621481229737
 31
0.0
  0
LINE
  5
175
330
2
100
AcDbEntity
  8
0
100
AcDbLine
 10
0.4483806232623557
 20
17.37621481229737
 30
0.0
 11
0.1493069639445608
 21
16.8582040391534
 31
0.0
  0
ARC
  5
176
330
2
100
AcDbEntity
  8
0
100
AcDbCircle
 10
0.2468458452094602
 20
16.77370211863578
 30
0.0
 40
0.125
100
AcDbArc
 50
150.0
 51
185.7539840915146
  0
LINE
  5
177
330
2
100
AcDbEntity
  8
0
100
AcDbLine
 10
0.1385926697364077
 20
16.83620211863578
 30
0.0
 11
0.1493069639445643
 21
16.8582040391534
 31
0.0
  0
CIRCLE
  5
178
330
2
100
AcDbEntity
  8
0
100
AcDbCircle
 10
-0.1893011922707153
 20
17.364
 30
0.0
 40
0.0781
  0
LINE
  5
179
330
2
100
AcDbEntity
  8
0
100
AcDbLine
 10
0.4620776982585788
 20
17.39649462352406
 30
0.0
 11
0.4483806232623557
 21
17.37621481229737
 31
0.0
  0
ARC
  5
17A
330
2
100
AcDbEntity
  8
0
100
AcDbCircle
 10
0.5703308737316384
 20
17.33399462352406
 30
0.0
 40
0.125
100
AcDbArc
 50
114.2460159084855
 51
150.0
  0
LINE
  5
17B
330
2
100
AcDbEntity
  8
0
100
AcDbLine
 10
1.063230554838484
 20
17.90829890891311
 30
0.0
 11
1.1962674014157
 21
18.1387254864636
 31
0.0
  0
LINE
  5
17C
330
2
100
AcDbEntity
  8
0
100
AcDbLine
 10
1.03701825304038
 20
17.86289787041547
 30
0.0
 11
1.201555099617593
 21
18.14788404840437
 31
0.0
  0
ARC
  5
17D
330
2
100
AcDbEntity
  8
0
100
AcDbCircle
 10
0.7842598410105772
 20
17.70453046406193
 30
0.0
 40
0.125
100
AcDbArc
 50
294.2460159084857
 51
330.0
  0
LINE
  5
17E
330
2
100
AcDbEntity
  8
0
100
AcDbLine
 10
0.8925129995653158
 20
17.64203043475855
 30
0.0
 11
1.03701825304038
 21
17.86289787041547
 31
0.0
  0
CIRCLE
  5
17F
330
2
100
AcDbEntity
  8
0
100
AcDbCircle
 10
0.7481988077292847
 20
18.3015
 30
0.0
 40
0.0781
  0
CIRCLE
  5
180
330
2
100
AcDbEntity
  8
0
100
AcDbCircle
 10
-0.2518011922707153
 20
18.864
 30
0.0
 40
0.0781
  0
ARC
  5
181
330
2
100
AcDbEntity
  8
0
100
AcDbCircle
 10
-0.2546018115064577
 20
19.2767393960919
 30
0.0
 40
0.125
100
AcDbArc
 50
294.2460159084857
 51
330.0
  0
LINE
  5
182
330
2
100
AcDbEntity
  8
0
100
AcDbLine
 10
-0.2032698800342452
 20
19.16276557097695
 30
0.0
 11
-0.5198627102576019
 21
19.02017738066898
 31
0.0
  0
LINE
  5
183
330
2
100
AcDbEntity
  8
0
100
AcDbLine
 10
1.21767210087836
 20
18.2229161749782
 30
0.0
 11
1.182860680853036
 21
18.56838770376163
 31
0.0
  0
LINE
  5
184
330
2
100
AcDbEntity
  8
0
100
AcDbLine
 10
1.216180317201843
 20
18.23298289124637
 30
0.0
 11
1.181368897176519
 21
18.57845442002979
 31
0.0
  0
ARC
  5
185
330
2
100
AcDbEntity
  8
0
100
AcDbCircle
 10
1.093301907226227
 20
18.21038401910099
 30
0.0
 40
0.125
100
AcDbArc
 50
329.9999999999999
 51
5.753984091514267
  0
LINE
  5
186
330
2
100
AcDbEntity
  8
0
100
AcDbLine
 10
1.508765652558065
 20
19.18343255330044
 30
0.0
 11
1.20969199324027
 21
18.66542178015647
 31
0.0
  0
LINE
  5
187
330
2
100
AcDbEntity
  8
0
100
AcDbLine
 10
1.209691993240273
 20
18.66542178015647
 30
0.0
 11
1.508765652558065
 21
19.18343255330044
 31
0.0
  0
LINE
  5
188
330
2
100
AcDbEntity
  8
0
100
AcDbLine
 10
1.198977699032117
 20
18.64341985963885
 30
0.0
 11
1.209691993240273
 21
18.66542178015647
 31
0.0
  0
ARC
  5
189
330
2
100
AcDbEntity
  8
0
100
AcDbCircle
 10
1.307230874505166
 20
18.58091985963885
 30
0.0
 40
0.125
100
AcDbArc
 50
150.0
 51
185.7539840915146
  0
ARC
  5
18A
330
2
100
AcDbEntity
  8
0
100
AcDbCircle
 10
1.630715903027344
 20
19.14121236452713
 30
0.0
 40
0.125
100
AcDbArc
 50
114.2460159084855
 51
150.0
  0
LINE
  5
18B
330
2
100
AcDbEntity
  8
0
100
AcDbLine
 10
1.522462727554288
 20
19.20371236452713
 30
0.0
 11
1.508765652558065
 21
19.18343255330044
 31
0.0
  0
LINE
  5
18C
330
2
100
AcDbEntity
  8
0
100
AcDbLine
 10
1.685698807729288
 20
19.30306863878745
 30
0.0
 11
1.579383971555139
 21
19.25518618964208
 31
0.0
  0
LINE
  5
18D
330
2
100
AcDbEntity
  8
0
100
AcDbLine
 10
1.685698807729288
 20
19.989
 30
0.0
 11
0.1857671699179271
 21
19.989
 31
0.0
  0
LINE
  5
18E
330
2
100
AcDbEntity
  8
0
100
AcDbLine
 10
0.1988420414634788
 20
19.85924384934015
 30
0.0
 11
0.1857671699179271
 21
19.989
 31
0.0
  0
LINE
  5
18F
330
2
100
AcDbEntity
  8
0
100
AcDbLine
 10
0.0181881936254982
 20
19.49922554477742
 30
0.0
 11
0.1827250402027119
 21
19.78421172276632
 31
0.0
  0
ARC
  5
190
330
2
100
AcDbEntity
  8
0
100
AcDbCircle
 10
0.0744718478113349
 20
19.84671169346293
 30
0.0
 40
0.125
100
AcDbArc
 50
329.9999999999999
 51
5.753984091514267
  0
CIRCLE
  5
191
330
2
100
AcDbEntity
  8
0
100
AcDbCircle
 10
0.4356988077292847
 20
19.739
 30
0.0
 40
0.0781
  0
CIRCLE
  5
192
330
2
100
AcDbEntity
  8
0
100
AcDbCircle
 10
1.310698807729285
 20
19.739
 30
0.0
 40
0.0781
  0
ENDSEC
  0
SECTION
  2
OBJECTS
  0
DICTIONARY
  5
9
330
0
100
AcDbDictionary
281
     1
  3
ACAD_COLOR
350
E0
  3
ACAD_GROUP
350
23
  3
ACAD_LAYOUT
350
D
  3
ACAD_MATERIAL
350
DF
  3
ACAD_MLINESTYLE
350
24
  3
ACAD_PLOTSETTINGS
350
25
  3
ACAD_PLOTSTYLENAME
350
8
  3
ACAD_TABLESTYLE
350
E1
  3
ACDBHEADERROUNDTRIPXREC
350
1A7
  3
AcDbVariableDictionary
350
DB
  0
DICTIONARY
  5
3
330
2
100
AcDbDictionary
280
     1
281
     1
  3
ACAD_SORTENTS
360
193
  0
DICTIONARY
  5
E0
102
{ACAD_REACTORS
330
9
102
}
330
9
100
AcDbDictionary
281
     1
  0
DICTIONARY
  5
23
102
{ACAD_REACTORS
330
9
102
}
330
9
100
AcDbDictionary
281
     1
  0
DICTIONARY
  5
D
102
{ACAD_REACTORS
330
9
102
}
330
9
100
AcDbDictionary
281
     1
  3
Layout1
350
13
  3
Model
350
C
  0
DICTIONARY
  5
DF
102
{ACAD_REACTORS
330
9
102
}
330
9
100
AcDbDictionary
281
     1
  0
DICTIONARY
  5
24
102
{ACAD_REACTORS
330
9
102
}
330
9
100
AcDbDictionary
281
     1
  3
Standard
350
27
  0
DICTIONARY
  5
25
102
{ACAD_REACTORS
330
9
102
}
330
9
100
AcDbDictionary
281
     1
  0
ACDBDICTIONARYWDFLT
  5
8
102
{ACAD_REACTORS
330
9
102
}
330
9
100
AcDbDictionary
281
     1
  3
Normal
350
7
100
AcDbDictionaryWithDefault
340
7
  0
DICTIONARY
  5
E1
102
{ACAD_REACTORS
330
9
102
}
330
9
100
AcDbDictionary
281
     1
  3
Standard
350
E2
  0
DICTIONARY
  5
1A7
102
{ACAD_REACTORS
330
9
102
}
330
9
100
AcDbDictionary
281
     1
  3
COLORDICT
350
1A8
  3
MATERIALDICT
350
1A9
  0
DICTIONARY
  5
DB
102
{ACAD_REACTORS
330
9
102
}
330
9
100
AcDbDictionary
281
     1
  3
CTABLESTYLE
350
19B
  3
HIDETEXT
350
1A6
  0
SORTENTSTABLE
  5
193
102
{ACAD_REACTORS
330
3
102
}
330
3
100
AcDbSortentsTable
330
2
331
107
  5
107
331
115
  5
115
331
191
  5
191
331
15B
  5
15B
331
15E
  5
15E
331
13F
  5
13F
331
164
  5
164
331
E6
  5
E6
331
122
  5
122
331
152
  5
152
331
108
  5
108
331
13B
  5
13B
331
F0
  5
F0
331
139
  5
139
331
141
  5
141
331
14A
  5
14A
331
146
  5
146
331
18E
  5
18E
331
175
  5
175
331
159
  5
159
331
ED
  5
ED
331
114
  5
114
331
15C
  5
15C
331
17C
  5
17C
331
117
  5
117
331
13C
  5
13C
331
180
  5
180
331
13E
  5
13E
331
18D
  5
18D
331
101
  5
101
331
12B
  5
12B
331
F8
  5
F8
331
125
  5
125
331
15D
  5
15D
331
106
  5
106
331
135
  5
135
331
F4
  5
F4
331
10E
  5
10E
331
17A
  5
17A
331
154
  5
154
331
F3
  5
F3
331
184
  5
184
331
13D
  5
13D
331
18B
  5
18B
331
176
  5
176
331
102
  5
102
331
F9
  5
F9
331
165
  5
165
331
111
  5
111
331
18C
  5
18C
331
112
  5
112
331
147
  5
147
331
166
  5
166
331
E8
  5
E8
331
17D
  5
17D
331
EB
  5
EB
331
113
  5
113
331
17E
  5
17E
331
137
  5
137
331
14F
  5
14F
331
133
  5
133
331
FD
  5
FD
331
EC
  5
EC
331
190
  5
190
331
16E
  5
16E
331
119
  5
119
331
F6
  5
F6
331
EE
  5
EE
331
EA
  5
EA
331
186
  5
186
331
E5
  5
E5
331
12D
  5
12D
331
17B
  5
17B
331
16A
  5
16A
331
149
  5
149
331
148
  5
148
331
172
  5
172
331
140
  5
140
331
182
  5
182
331
11C
  5
11C
331
120
  5
120
331
127
  5
127
331
14D
  5
14D
331
123
  5
123
331
131
  5
131
331
132
  5
132
331
17F
  5
17F
331
12F
  5
12F
331
145
  5
145
331
12C
  5
12C
331
130
  5
130
331
134
  5
134
331
13A
  5
13A
331
103
  5
103
331
14B
  5
14B
331
109
  5
109
331
10A
  5
10A
331
118
  5
118
331
E9
  5
E9
331
188
  5
188
331
E7
  5
E7
331
12E
  5
12E
331
EF
  5
EF
331
171
  5
171
331
F1
  5
F1
331
105
  5
105
331
160
  5
160
331
11F
  5
11F
331
FE
  5
FE
331
10D
  5
10D
331
162
  5
162
331
16B
  5
16B
331
129
  5
129
331
138
  5
138
331
11B
  5
11B
331
158
  5
158
331
16D
  5
16D
331
14E
  5
14E
331
151
  5
151
331
174
  5
174
331
144
  5
144
331
121
  5
121
331
16F
  5
16F
331
10B
  5
10B
331
163
  5
163
331
FA
  5
FA
331
179
  5
179
331
18F
  5
18F
331
15F
  5
15F
331
189
  5
189
331
16C
  5
16C
331
187
  5
187
331
143
  5
143
331
157
  5
157
331
128
  5
128
331
153
  5
153
331
183
  5
183
331
169
  5
169
331
185
  5
185
331
167
  5
167
331
12A
  5
12A
331
100
  5
100
331
126
  5
126
331
156
  5
156
331
18A
  5
18A
331
177
  5
177
331
142
  5
142
331
192
  5
192
331
170
  5
170
331
178
  5
178
331
104
  5
104
331
10F
  5
10F
331
136
  5
136
331
161
  5
161
331
11A
  5
11A
331
181
  5
181
331
155
  5
155
331
150
  5
150
331
F7
  5
F7
331
15A
  5
15A
331
F2
  5
F2
331
10C
  5
10C
331
FC
  5
FC
331
14C
  5
14C
331
FB
  5
FB
331
F5
  5
F5
331
11D
  5
11D
331
168
  5
168
331
11E
  5
11E
331
110
  5
110
331
FF
  5
FF
331
124
  5
124
331
173
  5
173
331
116
  5
116
  0
LAYOUT
  5
13
102
{ACAD_REACTORS
330
D
102
}
102
{ACAD_XDICTIONARY
360
1AA
102
}
330
D
100
AcDbPlotSettings
  1

  2
HP LaserJet 4
  4

  6

 40
0.0
 41
0.0
 42
0.0
 43
0.0
 44
0.0
 45
0.0
 46
0.0
 47
0.0
 48
0.0
 49
0.0
140
0.0
141
0.0
142
1.0
143
1.0
 70
   688
 72
     0
 73
     0
 74
     5
  7

 75
    16
147
1.0
148
0.0
149
0.0
100
AcDbLayout
  1
Layout1
 70
     0
 71
     1
 10
0.0
 20
0.0
 11
12.0
 21
9.0
 12
0.0
 22
0.0
 32
0.0
 14
1.000000000000000E+20
 24
1.000000000000000E+20
 34
1.000000000000000E+20
 15
-1.000000000000000E+20
 25
-1.000000000000000E+20
 35
-1.000000000000000E+20
146
0.0
 13
0.0
 23
0.0
 33
0.0
 16
1.0
 26
0.0
 36
0.0
 17
0.0
 27
1.0
 37
0.0
 76
     0
330
E
  0
LAYOUT
  5
C
102
{ACAD_REACTORS
330
D
102
}
102
{ACAD_XDICTIONARY
360
1AC
102
}
330
D
100
AcDbPlotSettings
  1

  2
HP LaserJet 4
  4
Letter
  6

 40
7.143749713897705
 41
6.127734661102295
 42
7.14373779296875
 43
7.14373779296875
 44
215.8999938964844
 45
279.3999938964844
 46
0.0
 47
0.0
 48
0.0
 49
0.0
140
0.0
141
0.0
142
1.0
143
1.0
 70
 11952
 72
     0
 73
     1
 74
     0
  7

 75
     0
147
1.0
148
-235.4265750469822
149
5.037728526104958
100
AcDbLayout
  1
Model
 70
     1
 71
     0
 10
0.0
 20
0.0
 11
12.0
 21
9.0
 12
0.0
 22
0.0
 32
0.0
 14
0.0
 24
0.0
 34
0.0
 15
0.0
 25
0.0
 35
0.0
146
0.0
 13
0.0
 23
0.0
 33
0.0
 16
1.0
 26
0.0
 36
0.0
 17
0.0
 27
1.0
 37
0.0
 76
     0
330
2
  0
MLINESTYLE
  5
27
102
{ACAD_REACTORS
330
24
102
}
330
24
100
AcDbMlineStyle
  2
STANDARD
 70
     0
  3

 62
   256
 51
90.0
 52
90.0
 71
     2
 49
0.5
 62
   256
  6
BYLAYER
 49
-0.5
 62
   256
  6
BYLAYER
  0
ACDBPLACEHOLDER
  5
7
102
{ACAD_REACTORS
330
8
102
}
330
8
  0
ACAD_PROXY_OBJECT
  5
E2
102
{ACAD_REACTORS
330
E1
102
}
330
E1
100
AcDbProxyObject
 90
      499
 91
      548
 95
   983063
 70
     0
 93
     1841
310
4214DD185B99185C9928B81E85EB51B8AE3F2E07A17AD46E2B8FC02B5E8DC0F42B1CFD028000000C1008070000C3001FDFF8000000C1003FBFF000000182007F7FE00000030400FEFFC00000060801FDFF8000000C1003FBFF00000018200000000000000681FA0B0000001820100E000186003FBFF000000182007F7FE000
310
00030400FEFFC00000060801FDFF8000000C1003FBFF000000182007F7FE000000304000AD7A3703D0AC73F4160000003040201C00030C007F7FE00000030400FEFFC00000060801FDFF8000000C1003FBFF000000182007F7FE00000030400FEFFC000000608000
340
16
340
16
340
16
 94
        0
  0
XRECORD
  5
1A8
102
{ACAD_REACTORS
330
1A7
102
}
330
1A7
100
AcDbXrecord
340
E0
  0
XRECORD
  5
1A9
102
{ACAD_REACTORS
330
1A7
102
}
330
1A7
100
AcDbXrecord
340
DF
  0
DICTIONARYVAR
  5
19B
102
{ACAD_REACTORS
330
DB
102
}
330
DB
100
DictionaryVariables
280
     0
  1
STANDARD
  0
DICTIONARYVAR
  5
1A6
102
{ACAD_REACTORS
330
DB
102
}
330
DB
100
DictionaryVariables
280
     0
  1
0
  0
DICTIONARY
  5
1AA
330
13
100
AcDbDictionary
280
     1
281
     1
  3
ACAD_XREC_ROUNDTRIP
360
1AB
  0
DICTIONARY
  5
1AC
330
C
100
AcDbDictionary
280
     1
281
     1
  3
ACAD_XREC_ROUNDTRIP
360
1AD
  0
XRECORD
  5
1AB
102
{ACAD_REACTORS
330
1AA
102
}
330
1AA
100
AcDbXrecord
102
SHADEPLOT
 70
     0
102
SHADEPLOTRESLEVEL
 70
     2
102
SHADEPLOTCUSTOMDPI
 70
   300
  0
XRECORD
  5
1AD
102
{ACAD_REACTORS
330
1AC
102
}
330
1AC
100
AcDbXrecord
102
SHADEPLOT
 70
     0
102
SHADEPLOTRESLEVEL
 70
     2
102
SHADEPLOTCUSTOMDPI
 70
   300
  0
ENDSEC
  0
EOF
