  0
SECTION
  2
HEADER
  9
$ACADVER
  1
AC1015
  9
$ACADMAINTVER
 70
     6
  9
$DWGCODEPAGE
  3
ANSI_1252
  9
$INSBASE
 10
0.0
 20
0.0
 30
0.0
  9
$EXTMIN
 10
8.154413624400823
 20
13.84916300766648
 30
0.0
  9
$EXTMAX
 10
11.17441362440082
 20
36.09916300766648
 30
0.0
  9
$LIMMIN
 10
0.0
 20
0.0
  9
$LIMMAX
 10
32.0
 20
42.0
  9
$ORTHOMODE
 70
     1
  9
$REGENMODE
 70
     1
  9
$FILLMODE
 70
     1
  9
$QTEXTMODE
 70
     0
  9
$MIRRTEXT
 70
     0
  9
$LTSCALE
 40
0.5
  9
$ATTMODE
 70
     1
  9
$TEXTSIZE
 40
0.36
  9
$TRACEWID
 40
0.05
  9
$TEXTSTYLE
  7
STANDARD
  9
$CLAYER
  8
0
  9
$CELTYPE
  6
BYLAYER
  9
$CECOLOR
 62
   256
  9
$CELTSCALE
 40
1.0
  9
$DISPSILH
 70
     0
  9
$DIMSCALE
 40
4.0
  9
$DIMASZ
 40
0.1
  9
$DIMEXO
 40
0.062
  9
$DIMDLI
 40
0.375
  9
$DIMRND
 40
0.0
  9
$DIMDLE
 40
0.0
  9
$DIMEXE
 40
0.08
  9
$DIMTP
 40
0.0
  9
$DIMTM
 40
0.0
  9
$DIMTXT
 40
0.075
  9
$DIMCEN
 40
-0.0078125
  9
$DIMTSZ
 40
0.0
  9
$DIMTOL
 70
     0
  9
$DIMLIM
 70
     0
  9
$DIMTIH
 70
     1
  9
$DIMTOH
 70
     1
  9
$DIMSE1
 70
     0
  9
$DIMSE2
 70
     0
  9
$DIMTAD
 70
     0
  9
$DIMZIN
 70
     0
  9
$DIMBLK
  1

  9
$DIMASO
 70
     0
  9
$DIMSHO
 70
     0
  9
$DIMPOST
  1

  9
$DIMAPOST
  1

  9
$DIMALT
 70
     0
  9
$DIMALTD
 70
     2
  9
$DIMALTF
 40
25.4
  9
$DIMLFAC
 40
1.0
  9
$DIMTOFL
 70
     0
  9
$DIMTVP
 40
0.0
  9
$DIMTIX
 70
     0
  9
$DIMSOXD
 70
     0
  9
$DIMSAH
 70
     0
  9
$DIMBLK1
  1

  9
$DIMBLK2
  1

  9
$DIMSTYLE
  2
STANDARD
  9
$DIMCLRD
 70
     0
  9
$DIMCLRE
 70
     0
  9
$DIMCLRT
 70
     0
  9
$DIMTFAC
 40
1.0
  9
$DIMGAP
 40
0.09
  9
$DIMJUST
 70
     0
  9
$DIMSD1
 70
     0
  9
$DIMSD2
 70
     0
  9
$DIMTOLJ
 70
     1
  9
$DIMTZIN
 70
     0
  9
$DIMALTZ
 70
     0
  9
$DIMALTTZ
 70
     0
  9
$DIMUPT
 70
     0
  9
$DIMDEC
 70
     5
  9
$DIMTDEC
 70
     5
  9
$DIMALTU
 70
     2
  9
$DIMALTTD
 70
     2
  9
$DIMTXSTY
  7
STANDARD
  9
$DIMAUNIT
 70
     0
  9
$DIMADEC
 70
     0
  9
$DIMALTRND
 40
0.0
  9
$DIMAZIN
 70
     0
  9
$DIMDSEP
 70
    46
  9
$DIMATFIT
 70
     3
  9
$DIMFRAC
 70
     2
  9
$DIMLDRBLK
  1

  9
$DIMLUNIT
 70
     5
  9
$DIMLWD
 70
    -2
  9
$DIMLWE
 70
    -2
  9
$DIMTMOVE
 70
     2
  9
$LUNITS
 70
     2
  9
$LUPREC
 70
     4
  9
$SKETCHINC
 40
0.1
  9
$FILLETRAD
 40
0.0
  9
$AUNITS
 70
     0
  9
$AUPREC
 70
     0
  9
$MENU
  1
qa
  9
$ELEVATION
 40
0.0
  9
$PELEVATION
 40
0.0
  9
$THICKNESS
 40
0.0
  9
$LIMCHECK
 70
     0
  9
$CHAMFERA
 40
0.4375
  9
$CHAMFERB
 40
0.4375
  9
$CHAMFERC
 40
0.0
  9
$CHAMFERD
 40
0.0
  9
$SKPOLY
 70
     0
  9
$TDCREATE
 40
2452872.693529282
  9
$TDUCREATE
 40
2452873.026862616
  9
$TDUPDATE
 40
2454159.851927442
  9
$TDUUPDATE
 40
2454160.185260776
  9
$TDINDWG
 40
0.4533874653
  9
$TDUSRTIMER
 40
0.4533874653
  9
$USRTIMER
 70
     1
  9
$ANGBASE
 50
0.0
  9
$ANGDIR
 70
     0
  9
$PDMODE
 70
     0
  9
$PDSIZE
 40
0.0
  9
$PLINEWID
 40
0.0
  9
$SPLFRAME
 70
     0
  9
$SPLINETYPE
 70
     6
  9
$SPLINESEGS
 70
     8
  9
$HANDSEED
  5
21FF
  9
$SURFTAB1
 70
     6
  9
$SURFTAB2
 70
     6
  9
$SURFTYPE
 70
     6
  9
$SURFU
 70
     6
  9
$SURFV
 70
     6
  9
$UCSBASE
  2

  9
$UCSNAME
  2

  9
$UCSORG
 10
0.0
 20
0.0
 30
0.0
  9
$UCSXDIR
 10
1.0
 20
0.0
 30
0.0
  9
$UCSYDIR
 10
0.0
 20
1.0
 30
0.0
  9
$UCSORTHOREF
  2

  9
$UCSORTHOVIEW
 70
     0
  9
$UCSORGTOP
 10
0.0
 20
0.0
 30
0.0
  9
$UCSORGBOTTOM
 10
0.0
 20
0.0
 30
0.0
  9
$UCSORGLEFT
 10
0.0
 20
0.0
 30
0.0
  9
$UCSORGRIGHT
 10
0.0
 20
0.0
 30
0.0
  9
$UCSORGFRONT
 10
0.0
 20
0.0
 30
0.0
  9
$UCSORGBACK
 10
0.0
 20
0.0
 30
0.0
  9
$PUCSBASE
  2

  9
$PUCSNAME
  2

  9
$PUCSORG
 10
0.0
 20
0.0
 30
0.0
  9
$PUCSXDIR
 10
1.0
 20
0.0
 30
0.0
  9
$PUCSYDIR
 10
0.0
 20
1.0
 30
0.0
  9
$PUCSORTHOREF
  2

  9
$PUCSORTHOVIEW
 70
     0
  9
$PUCSORGTOP
 10
0.0
 20
0.0
 30
0.0
  9
$PUCSORGBOTTOM
 10
0.0
 20
0.0
 30
0.0
  9
$PUCSORGLEFT
 10
0.0
 20
0.0
 30
0.0
  9
$PUCSORGRIGHT
 10
0.0
 20
0.0
 30
0.0
  9
$PUCSORGFRONT
 10
0.0
 20
0.0
 30
0.0
  9
$PUCSORGBACK
 10
0.0
 20
0.0
 30
0.0
  9
$USERI1
 70
     0
  9
$USERI2
 70
     0
  9
$USERI3
 70
     0
  9
$USERI4
 70
     0
  9
$USERI5
 70
     0
  9
$USERR1
 40
0.0
  9
$USERR2
 40
0.0
  9
$USERR3
 40
0.0
  9
$USERR4
 40
0.0
  9
$USERR5
 40
0.0
  9
$WORLDVIEW
 70
     1
  9
$SHADEDGE
 70
     3
  9
$SHADEDIF
 70
    70
  9
$TILEMODE
 70
     1
  9
$MAXACTVP
 70
    16
  9
$PINSBASE
 10
0.0
 20
0.0
 30
0.0
  9
$PLIMCHECK
 70
     0
  9
$PEXTMIN
 10
1.000000000000000E+20
 20
1.000000000000000E+20
 30
1.000000000000000E+20
  9
$PEXTMAX
 10
-1.000000000000000E+20
 20
-1.000000000000000E+20
 30
-1.000000000000000E+20
  9
$PLIMMIN
 10
0.0
 20
0.0
  9
$PLIMMAX
 10
12.0
 20
9.0
  9
$UNITMODE
 70
     0
  9
$VISRETAIN
 70
     0
  9
$PLINEGEN
 70
     0
  9
$PSLTSCALE
 70
     0
  9
$TREEDEPTH
 70
  3020
  9
$CMLSTYLE
  2
STANDARD
  9
$CMLJUST
 70
     0
  9
$CMLSCALE
 40
1.0
  9
$PROXYGRAPHICS
 70
     1
  9
$MEASUREMENT
 70
     0
  9
$CELWEIGHT
370
    -1
  9
$ENDCAPS
280
     0
  9
$JOINSTYLE
280
     0
  9
$LWDISPLAY
290
     0
  9
$INSUNITS
 70
     0
  9
$HYPERLINKBASE
  1

  9
$STYLESHEET
  1

  9
$XEDIT
290
     1
  9
$CEPSNTYPE
380
     0
  9
$PSTYLEMODE
290
     1
  9
$FINGERPRINTGUID
  2
{3F8EE252-4A01-453C-A5F5-5678F9528411}
  9
$VERSIONGUID
  2
{7B0B36C7-FACF-4D26-A788-2771D8B9739B}
  9
$EXTNAMES
290
     1
  9
$PSVPSCALE
 40
0.0
  9
$OLESTARTUP
290
     0
  0
ENDSEC
  0
SECTION
  2
CLASSES
  0
CLASS
  1
DICTIONARYVAR
  2
AcDbDictionaryVar
  3
AutoCAD 2000
 90
        0
280
     0
281
     0
  0
CLASS
  1
LWPOLYLINE
  2
AcDbPolyline
  3
AutoCAD 2000
 90
        0
280
     0
281
     1
  0
CLASS
  1
ACDBDICTIONARYWDFLT
  2
AcDbDictionaryWithDefault
  3
AutoCAD 2000
 90
        0
280
     0
281
     0
  0
CLASS
  1
ACDBPLACEHOLDER
  2
AcDbPlaceHolder
  3
ObjectDBX Classes
 90
        0
280
     0
281
     0
  0
CLASS
  1
LAYOUT
  2
AcDbLayout
  3
ObjectDBX Classes
 90
        0
280
     0
281
     0
  0
CLASS
  1
LONG_TRANSACTION
  2
AcDbLongTransaction
  3
ObjectDBX Classes
 90
   -65536
280
     1
281
     0
  0
CLASS
  1
LWPOLYLINE
  2
AcDbPolyline
  3
AutoCAD 2000
 90
        0
280
     0
281
     1
  0
CLASS
  1
HATCH
  2
AcDbHatch
  3
AutoCAD 2000
 90
        0
280
     0
281
     1
  0
CLASS
  1
XRECORD
  2
AcDbXrecord
  3
AutoCAD 2000
 90
        0
280
     0
281
     0
  0
CLASS
  1
LONG_TRANSACTION
  2
AcDbLongTransaction
  3
ObjectDBX Classes
 90
   -65536
280
     1
281
     0
  0
CLASS
  1
LWPOLYLINE
  2
AcDbPolyline
  3
AutoCAD 2000
 90
        0
280
     0
281
     1
  0
CLASS
  1
HATCH
  2
AcDbHatch
  3
AutoCAD 2000
 90
        0
280
     0
281
     1
  0
CLASS
  1
XRECORD
  2
AcDbXrecord
  3
AutoCAD 2000
 90
        0
280
     0
281
     0
  0
CLASS
  1
LONG_TRANSACTION
  2
AcDbLongTransaction
  3
ObjectDBX Classes
 90
   -65536
280
     1
281
     0
  0
CLASS
  1
LWPOLYLINE
  2
AcDbPolyline
  3
AutoCAD 2000
 90
        0
280
     0
281
     1
  0
CLASS
  1
HATCH
  2
AcDbHatch
  3
AutoCAD 2000
 90
        0
280
     0
281
     1
  0
CLASS
  1
XRECORD
  2
AcDbXrecord
  3
AutoCAD 2000
 90
        0
280
     0
281
     0
  0
CLASS
  1
TABLESTYLE
  2
AcDbTableStyle
  3
ObjectDBX Classes
 90
     2047
280
     1
281
     0
  0
ENDSEC
  0
SECTION
  2
TABLES
  0
TABLE
  2
VPORT
  5
8
330
0
100
AcDbSymbolTable
 70
     2
  0
VPORT
  5
21EF
330
8
100
AcDbSymbolTableRecord
100
AcDbViewportTableRecord
  2
*Active
 70
     0
 10
0.0
 20
0.0
 11
1.0
 21
1.0
 12
21.81858059375778
 22
26.56816416797357
 13
0.0
 23
0.0
 14
0.063
 24
0.063
 15
0.25
 25
0.25
 16
0.0
 26
0.0
 36
1.0
 17
0.0
 27
0.0
 37
0.0
 40
38.81975544907891
 41
1.814583333333334
 42
50.0
 43
0.0
 44
0.0
 50
0.0
 51
0.0
 71
     0
 72
   100
 73
     1
 74
     0
 75
     0
 76
     0
 77
     0
 78
     0
281
     0
 65
     1
110
0.0
120
0.0
130
0.0
111
1.0
121
0.0
131
0.0
112
0.0
122
1.0
132
0.0
 79
     0
146
0.0
  0
ENDTAB
  0
TABLE
  2
LTYPE
  5
5
330
0
100
AcDbSymbolTable
 70
     3
  0
LTYPE
  5
11
330
5
100
AcDbSymbolTableRecord
100
AcDbLinetypeTableRecord
  2
BYBLOCK
 70
     0
  3

 72
    65
 73
     0
 40
0.0
  0
LTYPE
  5
12
330
5
100
AcDbSymbolTableRecord
100
AcDbLinetypeTableRecord
  2
BYLAYER
 70
     0
  3

 72
    65
 73
     0
 40
0.0
  0
LTYPE
  5
13
330
5
100
AcDbSymbolTableRecord
100
AcDbLinetypeTableRecord
  2
CONTINUOUS
 70
     0
  3
Solid line
 72
    65
 73
     0
 40
0.0
  0
LTYPE
  5
2B
330
5
100
AcDbSymbolTableRecord
100
AcDbLinetypeTableRecord
  2
HIDDEN
 70
     0
  3
_ _ _ _ _ _ _ _ _ _ _ _ _ _ _ _ _ _ _ _ _ _ _
 72
    65
 73
     2
 40
0.375
 49
0.25
 74
     0
 49
-0.125
 74
     0
  0
LTYPE
  5
49E
330
5
100
AcDbSymbolTableRecord
100
AcDbLinetypeTableRecord
  2
HIDDEN2
 70
     0
  3
Hidden (.5x) _ _ _ _ _ _ _ _ _ _ _ _ _ _ _ _ _
 72
    65
 73
     2
 40
0.1875
 49
0.125
 74
     0
 49
-0.0625
 74
     0
  0
ENDTAB
  0
TABLE
  2
LAYER
  5
2
102
{ACAD_XDICTIONARY
360
21EC
102
}
330
0
100
AcDbSymbolTable
 70
     4
  0
LAYER
  5
E
330
2
100
AcDbSymbolTableRecord
100
AcDbLayerTableRecord
  2
0
 70
     0
 62
     7
  6
CONTINUOUS
370
    -3
390
47A
  0
LAYER
  5
37
330
2
100
AcDbSymbolTableRecord
100
AcDbLayerTableRecord
  2
DIM
 70
     0
 62
     5
  6
CONTINUOUS
370
    -3
390
47A
  0
ENDTAB
  0
TABLE
  2
STYLE
  5
3
330
0
100
AcDbSymbolTable
 70
     1
  0
STYLE
  5
F
330
3
100
AcDbSymbolTableRecord
100
AcDbTextStyleTableRecord
  2
STANDARD
 70
     0
 40
0.0
 41
1.0
 50
0.0
 71
     0
 42
0.36
  3
TXT
  4

  0
ENDTAB
  0
TABLE
  2
VIEW
  5
6
330
0
100
AcDbSymbolTable
 70
     0
  0
ENDTAB
  0
TABLE
  2
UCS
  5
7
330
0
100
AcDbSymbolTable
 70
     0
  0
ENDTAB
  0
TABLE
  2
APPID
  5
9
330
0
100
AcDbSymbolTable
 70
     2
  0
APPID
  5
10
330
9
100
AcDbSymbolTableRecord
100
AcDbRegAppTableRecord
  2
ACAD
 70
     0
  0
APPID
  5
DA7
330
9
100
AcDbSymbolTableRecord
100
AcDbRegAppTableRecord
  2
RAK
 70
     0
  0
ENDTAB
  0
TABLE
  2
DIMSTYLE
  5
A
330
0
100
AcDbSymbolTable
 70
     1
100
AcDbDimStyleTable
  0
DIMSTYLE
105
465
330
A
100
AcDbSymbolTableRecord
100
AcDbDimStyleTableRecord
  2
STANDARD
 70
     0
  3

  4

340
F
  0
ENDTAB
  0
TABLE
  2
BLOCK_RECORD
  5
1
330
0
100
AcDbSymbolTable
 70
     0
  0
BLOCK_RECORD
  5
17
330
1
100
AcDbSymbolTableRecord
100
AcDbBlockTableRecord
  2
*MODEL_SPACE
340
47D
  0
BLOCK_RECORD
  5
14
330
1
100
AcDbSymbolTableRecord
100
AcDbBlockTableRecord
  2
*PAPER_SPACE
340
47E
  0
ENDTAB
  0
ENDSEC
  0
SECTION
  2
BLOCKS
  0
BLOCK
  5
47
330
17
100
AcDbEntity
  8
0
100
AcDbBlockBegin
  2
*MODEL_SPACE
 70
     0
 10
0.0
 20
0.0
 30
0.0
  3
*MODEL_SPACE
  1

  4

  0
ENDBLK
  5
48
330
17
100
AcDbEntity
  8
0
100
AcDbBlockEnd
  0
BLOCK
  5
45
330
14
100
AcDbEntity
 67
     1
  8
0
100
AcDbBlockBegin
  2
*PAPER_SPACE
 70
     0
 10
0.0
 20
0.0
 30
0.0
  3
*PAPER_SPACE
  1

  4

  0
ENDBLK
  5
46
330
14
100
AcDbEntity
 67
     1
  8
0
100
AcDbBlockEnd
  0
ENDSEC
  0
SECTION
  2
ENTITIES
  0
TEXT
  5
3A7
330
17
100
AcDbEntity
  8
DIM
100
AcDbText
 10
14.93846334400804
 20
21.0944638759405
 30
0.0
 40
0.36
  1
   
 50
359.9999999999988
 11
14.93846334400805
 21
21.2744638759405
 31
0.0
100
AcDbText
 73
     2
  0
TEXT
  5
400
330
17
100
AcDbEntity
  8
DIM
100
AcDbText
 10
13.55232669162669
 20
10.34149078419337
 30
0.0
 40
0.36
  1
   
 72
     1
 11
14.09232669162669
 21
10.52149078419336
 31
0.0
100
AcDbText
 73
     2
  0
LINE
  5
1432
330
17
100
AcDbEntity
  8
0
100
AcDbLine
 10
8.289413624400822
 20
15.35916300766648
 30
0.0
 11
11.03941362440088
 21
15.35916300766648
 31
0.0
  0
ARC
  5
1435
330
17
100
AcDbEntity
  8
0
100
AcDbCircle
 10
9.664413624400822
 20
15.35916300766648
 30
0.0
 40
1.374999999999999
100
AcDbArc
 50
180.0
 51
0.0
  0
ARC
  5
1436
330
17
100
AcDbEntity
  8
0
100
AcDbCircle
 10
9.664413624400822
 20
15.35916300766648
 30
0.0
 40
1.51
100
AcDbArc
 50
180.0
 51
0.0
  0
LINE
  5
1437
330
17
100
AcDbEntity
  8
0
100
AcDbLine
 10
8.289413624400822
 20
16.68602572945805
 30
0.0
 11
8.289413624400822
 21
36.09916300766648
 31
0.0
  0
LINE
  5
1438
330
17
100
AcDbEntity
  8
0
100
AcDbLine
 10
8.154413624400831
 20
15.35916300766648
 30
0.0
 11
8.154413624400831
 21
36.09916300766648
 31
0.0
  0
LINE
  5
1448
330
17
100
AcDbEntity
  8
0
100
AcDbLine
 10
8.289413624400822
 20
15.35916300766648
 30
0.0
 11
8.289413624400822
 21
16.68602572945805
 31
0.0
  0
ARC
  5
144A
330
17
100
AcDbEntity
  8
0
100
AcDbCircle
 10
9.758163624401121
 20
20.17904891973242
 30
0.0
 40
0.4062500000002984
100
AcDbArc
 50
180.0000000000179
 51
224.9999999999845
  0
ARC
  5
144B
330
17
100
AcDbEntity
  8
0
100
AcDbCircle
 10
9.820663624401036
 20
20.20493726738066
 30
0.0
 40
0.3437500000002132
100
AcDbArc
 50
180.0000000000123
 51
224.9999999999753
  0
LINE
  5
144D
330
17
100
AcDbEntity
  8
0
100
AcDbLine
 10
11.03941362440082
 20
16.68602572945808
 30
0.0
 11
11.03941362440082
 21
36.09916300766648
 31
0.0
  0
LINE
  5
144E
330
17
100
AcDbEntity
  8
0
100
AcDbLine
 10
11.17441362440081
 20
15.35916300766648
 30
0.0
 11
11.17441362440081
 21
36.09916300766647
 31
0.0
  0
LINE
  5
1481
330
17
100
AcDbEntity
  8
0
100
AcDbLine
 10
11.03941362440082
 20
15.35916300766648
 30
0.0
 11
11.03941362440082
 21
16.68602572945805
 31
0.0
  0
ARC
  5
1483
330
17
100
AcDbEntity
  8
0
100
AcDbCircle
 10
9.258163624401163
 20
18.0356967901663
 30
0.0
 40
0.3437499999996589
100
AcDbArc
 50
330.0000000736003
 51
0.0
  0
LINE
  5
1484
330
17
100
AcDbEntity
  8
0
100
AcDbLine
 10
9.601913624400822
 20
18.51927709560061
 30
0.0
 11
9.601913624400822
 21
18.0356967901663
 31
0.0
  0
ARC
  5
1485
330
17
100
AcDbEntity
  8
0
100
AcDbCircle
 10
10.00816362440065
 20
18.51927709560074
 30
0.0
 40
0.4062499999998274
100
AcDbArc
 50
135.0
 51
180.0000000000179
  0
LINE
  5
1486
330
17
100
AcDbEntity
  8
0
100
AcDbLine
 10
9.751231580433682
 20
18.83686931134756
 30
0.0
 11
9.720901494543739
 21
18.80653922545766
 31
0.0
  0
ARC
  5
1487
330
17
100
AcDbEntity
  8
0
100
AcDbCircle
 10
9.508163624400552
 20
19.07993726738056
 30
0.0
 40
0.34375000000027
100
AcDbArc
 50
315.000000000015
 51
359.9999999999813
  0
LINE
  5
1488
330
17
100
AcDbEntity
  8
0
100
AcDbLine
 10
9.851913624400879
 20
19.36838874795248
 30
0.0
 11
9.851913624400822
 21
19.07993726738044
 31
0.0
  0
ARC
  5
1489
330
17
100
AcDbEntity
  8
0
100
AcDbCircle
 10
9.508163624400979
 20
19.36838874795249
 30
0.0
 40
0.3437499999999073
100
AcDbArc
 50
359.9999999999976
 51
45.00000000001209
  0
LINE
  5
148A
330
17
100
AcDbEntity
  8
0
100
AcDbLine
 10
9.470901494543796
 20
19.89178678987526
 30
0.0
 11
9.751231580433739
 21
19.61145670398535
 31
0.0
  0
ARC
  5
148B
330
17
100
AcDbEntity
  8
0
100
AcDbCircle
 10
10.07066362440028
 20
18.03569678542817
 30
0.0
 40
0.34374999999946
100
AcDbArc
 50
179.9999999999837
 51
210.000000000027
  0
LINE
  5
148C
330
17
100
AcDbEntity
  8
0
100
AcDbLine
 10
9.726913624400822
 20
18.49338874795237
 30
0.0
 11
9.726913624400822
 21
18.0356967901663
 31
0.0
  0
ARC
  5
148D
330
17
100
AcDbEntity
  8
0
100
AcDbCircle
 10
10.07066362440064
 20
18.49338874795245
 30
0.0
 40
0.3437499999998169
100
AcDbArc
 50
134.9999999999965
 51
180.0000000000138
  0
LINE
  5
148E
330
17
100
AcDbEntity
  8
0
100
AcDbLine
 10
9.857925754257849
 20
18.7667867898752
 30
0.0
 11
9.827595668367906
 21
18.73645670398521
 31
0.0
  0
ARC
  5
148F
330
17
100
AcDbEntity
  8
0
100
AcDbCircle
 10
9.570663624400467
 20
19.05404891973238
 30
0.0
 40
0.4062500000003553
100
AcDbArc
 50
315.0000000000201
 51
359.999999999978
  0
LINE
  5
1490
330
17
100
AcDbEntity
  8
0
100
AcDbLine
 10
9.976913624400822
 20
19.39427709560079
 30
0.0
 11
9.976913624400822
 21
19.05404891973222
 31
0.0
  0
ARC
  5
1491
330
17
100
AcDbEntity
  8
0
100
AcDbCircle
 10
9.570663624400524
 20
19.39427709560063
 30
0.0
 40
0.4062500000002997
100
AcDbArc
 50
0.000000000021984
 51
44.99999999998445
  0
LINE
  5
1492
330
17
100
AcDbEntity
  8
0
100
AcDbLine
 10
9.577595668367906
 20
19.96186931134774
 30
0.0
 11
9.857925754257849
 21
19.6815392254578
 31
0.0
  0
CIRCLE
  5
1493
330
17
100
AcDbEntity
  8
0
100
AcDbCircle
 10
9.414413624400822
 20
19.22416300766646
 30
0.0
 40
0.1325
  0
CIRCLE
  5
1494
330
17
100
AcDbEntity
  8
0
100
AcDbCircle
 10
10.47691362440082
 20
19.22416300766646
 30
0.0
 40
0.1325
  0
LINE
  5
14B1
330
17
100
AcDbEntity
  8
0
100
AcDbLine
 10
9.470901494543796
 20
33.39178678987521
 30
0.0
 11
9.751231580433682
 21
33.11145670398537
 31
0.0
  0
LINE
  5
14B2
330
17
100
AcDbEntity
  8
0
100
AcDbLine
 10
9.577595668367962
 20
33.46186931134778
 30
0.0
 11
9.857925754257849
 21
33.18153922545773
 31
0.0
  0
ARC
  5
14B3
330
17
100
AcDbEntity
  8
0
100
AcDbCircle
 10
9.758163624401178
 20
26.92904891973241
 30
0.0
 40
0.4062500000003553
100
AcDbArc
 50
180.0000000000179
 51
224.9999999999799
  0
LINE
  5
14B4
330
17
100
AcDbEntity
  8
0
100
AcDbLine
 10
9.577595668367962
 20
26.71186931134778
 30
0.0
 11
9.857925754257849
 21
26.43153922545774
 31
0.0
  0
ARC
  5
14B5
330
17
100
AcDbEntity
  8
0
100
AcDbCircle
 10
9.508163624400552
 20
23.57993726738054
 30
0.0
 40
0.34375000000027
100
AcDbArc
 50
315.000000000015
 51
359.9999999999813
  0
ARC
  5
14B6
330
17
100
AcDbEntity
  8
0
100
AcDbCircle
 10
9.570663624400467
 20
23.55404891973235
 30
0.0
 40
0.4062500000003553
100
AcDbArc
 50
315.0000000000184
 51
359.9999999999797
  0
LINE
  5
14B7
330
17
100
AcDbEntity
  8
0
100
AcDbLine
 10
9.351913624400822
 20
20.51927709560066
 30
0.0
 11
9.351913624400822
 21
20.1790489197323
 31
0.0
  0
ARC
  5
14B8
330
17
100
AcDbEntity
  8
0
100
AcDbCircle
 10
9.758163624401121
 20
20.51927709560052
 30
0.0
 40
0.4062500000002997
100
AcDbArc
 50
135.0000000000156
 51
179.9999999999797
  0
LINE
  5
14B9
330
17
100
AcDbEntity
  8
0
100
AcDbLine
 10
9.751231580433682
 20
21.08686931134756
 30
0.0
 11
9.470901494543796
 21
20.80653922545768
 31
0.0
  0
ARC
  5
14BA
330
17
100
AcDbEntity
  8
0
100
AcDbCircle
 10
9.508163624400552
 20
21.32993726738056
 30
0.0
 40
0.34375000000027
100
AcDbArc
 50
315.000000000015
 51
359.9999999999813
  0
LINE
  5
14BB
330
17
100
AcDbEntity
  8
0
100
AcDbLine
 10
9.851913624400822
 20
21.61838874795248
 30
0.0
 11
9.851913624400822
 21
21.32993726738044
 31
0.0
  0
ARC
  5
14BC
330
17
100
AcDbEntity
  8
0
100
AcDbCircle
 10
9.508163624400567
 20
21.61838874795238
 30
0.0
 40
0.343750000000249
100
AcDbArc
 50
0.0000000000162844
 51
44.99999999998503
  0
LINE
  5
14BD
330
17
100
AcDbEntity
  8
0
100
AcDbLine
 10
9.470901494543796
 20
22.14178678987524
 30
0.0
 11
9.751231580433682
 21
21.86145670398537
 31
0.0
  0
ARC
  5
14BE
330
17
100
AcDbEntity
  8
0
100
AcDbCircle
 10
9.758163624401178
 20
22.42904891973244
 30
0.0
 40
0.4062500000003553
100
AcDbArc
 50
180.0000000000204
 51
224.9999999999816
  0
LINE
  5
14BF
330
17
100
AcDbEntity
  8
0
100
AcDbLine
 10
9.351913624400766
 20
22.76927709560066
 30
0.0
 11
9.351913624400822
 21
22.4290489197323
 31
0.0
  0
ARC
  5
14C0
330
17
100
AcDbEntity
  8
0
100
AcDbCircle
 10
9.758163624400652
 20
22.76927709560057
 30
0.0
 40
0.4062499999998878
100
AcDbArc
 50
134.9999999999689
 51
179.9999999999878
  0
LINE
  5
14C1
330
17
100
AcDbEntity
  8
0
100
AcDbLine
 10
9.751231580433682
 20
23.33686931134754
 30
0.0
 11
9.470901494543853
 21
23.05653922545768
 31
0.0
  0
LINE
  5
14C2
330
17
100
AcDbEntity
  8
0
100
AcDbLine
 10
9.476913624400766
 20
20.49338874795237
 30
0.0
 11
9.476913624400822
 21
20.20493726738059
 31
0.0
  0
ARC
  5
14C3
330
17
100
AcDbEntity
  8
0
100
AcDbCircle
 10
9.820663624400936
 20
20.49338874795224
 30
0.0
 40
0.3437500000001786
100
AcDbArc
 50
135.0000000000063
 51
179.9999999999788
  0
LINE
  5
14C4
330
17
100
AcDbEntity
  8
0
100
AcDbLine
 10
9.857925754257849
 20
21.01678678987516
 30
0.0
 11
9.577595668367906
 21
20.73645670398521
 31
0.0
  0
ARC
  5
14C5
330
17
100
AcDbEntity
  8
0
100
AcDbCircle
 10
9.570663624400467
 20
21.30404891973235
 30
0.0
 40
0.4062500000003553
100
AcDbArc
 50
315.0000000000184
 51
359.9999999999797
  0
LINE
  5
14C6
330
17
100
AcDbEntity
  8
0
100
AcDbLine
 10
9.976913624400822
 20
21.64427709560073
 30
0.0
 11
9.976913624400822
 21
21.30404891973221
 31
0.0
  0
ARC
  5
14C7
330
17
100
AcDbEntity
  8
0
100
AcDbCircle
 10
9.57066362440122
 20
21.64427709560091
 30
0.0
 40
0.4062499999995963
100
AcDbArc
 50
359.999999999974
 51
45.00000000002418
  0
LINE
  5
14C8
330
17
100
AcDbEntity
  8
0
100
AcDbLine
 10
9.577595668367962
 20
22.21186931134774
 30
0.0
 11
9.857925754257849
 21
21.93153922545778
 31
0.0
  0
ARC
  5
14C9
330
17
100
AcDbEntity
  8
0
100
AcDbCircle
 10
9.820663624401149
 20
22.45493726738077
 30
0.0
 40
0.3437500000003269
100
AcDbArc
 50
180.0000000000261
 51
224.9999999999816
  0
LINE
  5
14CA
330
17
100
AcDbEntity
  8
0
100
AcDbLine
 10
9.476913624400822
 20
22.74338874795235
 30
0.0
 11
9.476913624400822
 21
22.45493726738062
 31
0.0
  0
ARC
  5
14CB
330
17
100
AcDbEntity
  8
0
100
AcDbCircle
 10
9.820663624401036
 20
22.74338874795224
 30
0.0
 40
0.3437500000002088
100
AcDbArc
 50
135.0000000000121
 51
179.9999999999813
  0
LINE
  5
14CC
330
17
100
AcDbEntity
  8
0
100
AcDbLine
 10
9.857925754257849
 20
23.26678678987516
 30
0.0
 11
9.577595668367962
 21
22.98645670398521
 31
0.0
  0
CIRCLE
  5
14CD
330
17
100
AcDbEntity
  8
0
100
AcDbCircle
 10
8.851913624400822
 20
22.59916300766646
 30
0.0
 40
0.1325
  0
CIRCLE
  5
14CE
330
17
100
AcDbEntity
  8
0
100
AcDbCircle
 10
9.914413624400822
 20
22.59916300766646
 30
0.0
 40
0.1325
  0
CIRCLE
  5
14CF
330
17
100
AcDbEntity
  8
0
100
AcDbCircle
 10
8.851913624400822
 20
20.34916300766646
 30
0.0
 40
0.1325
  0
CIRCLE
  5
14D0
330
17
100
AcDbEntity
  8
0
100
AcDbCircle
 10
9.914413624400822
 20
20.34916300766646
 30
0.0
 40
0.1325
  0
CIRCLE
  5
14D1
330
17
100
AcDbEntity
  8
0
100
AcDbCircle
 10
9.414413624400822
 20
21.47416300766646
 30
0.0
 40
0.1325
  0
CIRCLE
  5
14D2
330
17
100
AcDbEntity
  8
0
100
AcDbCircle
 10
10.47691362440082
 20
21.47416300766646
 30
0.0
 40
0.1325
  0
LINE
  5
14D3
330
17
100
AcDbEntity
  8
0
100
AcDbLine
 10
9.851913624400822
 20
23.86838874795251
 30
0.0
 11
9.851913624400822
 21
23.57993726738043
 31
0.0
  0
ARC
  5
14D4
330
17
100
AcDbEntity
  8
0
100
AcDbCircle
 10
9.508163624400993
 20
23.86838874795258
 30
0.0
 40
0.343749999999837
100
AcDbArc
 50
359.9999999999878
 51
45.00000000000288
  0
LINE
  5
14D5
330
17
100
AcDbEntity
  8
0
100
AcDbLine
 10
9.470901494543796
 20
24.39178678987526
 30
0.0
 11
9.751231580433739
 21
24.11145670398535
 31
0.0
  0
ARC
  5
14D6
330
17
100
AcDbEntity
  8
0
100
AcDbCircle
 10
9.758163624401121
 20
24.67904891973242
 30
0.0
 40
0.4062500000002984
100
AcDbArc
 50
180.0000000000179
 51
224.9999999999845
  0
LINE
  5
14D7
330
17
100
AcDbEntity
  8
0
100
AcDbLine
 10
9.351913624400822
 20
25.01927709560063
 30
0.0
 11
9.351913624400822
 21
24.6790489197323
 31
0.0
  0
ARC
  5
14D8
330
17
100
AcDbEntity
  8
0
100
AcDbCircle
 10
9.758163624400709
 20
25.01927709560073
 30
0.0
 40
0.4062499999998878
100
AcDbArc
 50
135.0000000000029
 51
180.0000000000138
  0
LINE
  5
14D9
330
17
100
AcDbEntity
  8
0
100
AcDbLine
 10
9.751231580433682
 20
25.5868693113476
 30
0.0
 11
9.470901494543739
 21
25.30653922545767
 31
0.0
  0
ARC
  5
14DA
330
17
100
AcDbEntity
  8
0
100
AcDbCircle
 10
9.508163624400552
 20
25.8299372673806
 30
0.0
 40
0.34375000000027
100
AcDbArc
 50
315.000000000015
 51
359.9999999999813
  0
LINE
  5
14DB
330
17
100
AcDbEntity
  8
0
100
AcDbLine
 10
9.851913624400822
 20
26.11838874795248
 30
0.0
 11
9.851913624400822
 21
25.82993726738049
 31
0.0
  0
ARC
  5
14DC
330
17
100
AcDbEntity
  8
0
100
AcDbCircle
 10
9.50816362440051
 20
26.11838874795235
 30
0.0
 40
0.3437500000003193
100
AcDbArc
 50
0.0000000000211698
 51
44.9999999999833
  0
LINE
  5
14DD
330
17
100
AcDbEntity
  8
0
100
AcDbLine
 10
9.470901494543796
 20
26.64178678987523
 30
0.0
 11
9.751231580433682
 21
26.36145670398538
 31
0.0
  0
LINE
  5
14DE
330
17
100
AcDbEntity
  8
0
100
AcDbLine
 10
9.976913624400822
 20
23.8942770956007
 30
0.0
 11
9.976913624400822
 21
23.55404891973221
 31
0.0
  0
ARC
  5
14DF
330
17
100
AcDbEntity
  8
0
100
AcDbCircle
 10
9.570663624401234
 20
23.89427709560087
 30
0.0
 40
0.4062499999995862
100
AcDbArc
 50
359.9999999999756
 51
45.00000000002591
  0
LINE
  5
14E0
330
17
100
AcDbEntity
  8
0
100
AcDbLine
 10
9.577595668367906
 20
24.46186931134773
 30
0.0
 11
9.857925754257849
 21
24.18153922545774
 31
0.0
  0
ARC
  5
14E1
330
17
100
AcDbEntity
  8
0
100
AcDbCircle
 10
9.820663624401092
 20
24.70493726738067
 30
0.0
 40
0.34375000000027
100
AcDbArc
 50
180.0000000000123
 51
224.9999999999718
  0
LINE
  5
14E2
330
17
100
AcDbEntity
  8
0
100
AcDbLine
 10
9.476913624400822
 20
24.99338874795238
 30
0.0
 11
9.476913624400822
 21
24.7049372673806
 31
0.0
  0
ARC
  5
14E3
330
17
100
AcDbEntity
  8
0
100
AcDbCircle
 10
9.820663624400652
 20
24.99338874795247
 30
0.0
 40
0.3437499999998269
100
AcDbArc
 50
134.9999999999983
 51
180.0000000000138
  0
LINE
  5
14E4
330
17
100
AcDbEntity
  8
0
100
AcDbLine
 10
9.857925754257849
 20
25.51678678987514
 30
0.0
 11
9.577595668367906
 21
25.23645670398523
 31
0.0
  0
ARC
  5
14E5
330
17
100
AcDbEntity
  8
0
100
AcDbCircle
 10
9.570663624400524
 20
25.80404891973231
 30
0.0
 40
0.4062500000002984
100
AcDbArc
 50
315.0000000000155
 51
359.9999999999821
  0
LINE
  5
14E6
330
17
100
AcDbEntity
  8
0
100
AcDbLine
 10
9.976913624400822
 20
26.14427709560076
 30
0.0
 11
9.976913624400822
 21
25.80404891973218
 31
0.0
  0
ARC
  5
14E7
330
17
100
AcDbEntity
  8
0
100
AcDbCircle
 10
9.570663624400652
 20
26.14427709560063
 30
0.0
 40
0.4062500000001691
100
AcDbArc
 50
0.0000000000179129
 51
44.99999999999137
  0
CIRCLE
  5
14E8
330
17
100
AcDbEntity
  8
0
100
AcDbCircle
 10
8.851913624400822
 20
24.84916300766646
 30
0.0
 40
0.1325
  0
CIRCLE
  5
14E9
330
17
100
AcDbEntity
  8
0
100
AcDbCircle
 10
9.414413624400822
 20
25.97416300766646
 30
0.0
 40
0.1325
  0
CIRCLE
  5
14EA
330
17
100
AcDbEntity
  8
0
100
AcDbCircle
 10
9.914413624400822
 20
24.84916300766646
 30
0.0
 40
0.1325
  0
CIRCLE
  5
14EB
330
17
100
AcDbEntity
  8
0
100
AcDbCircle
 10
9.414413624400822
 20
23.72416300766646
 30
0.0
 40
0.1325
  0
CIRCLE
  5
14EC
330
17
100
AcDbEntity
  8
0
100
AcDbCircle
 10
10.47691362440082
 20
25.97416300766646
 30
0.0
 40
0.1325
  0
CIRCLE
  5
14ED
330
17
100
AcDbEntity
  8
0
100
AcDbCircle
 10
10.47691362440082
 20
23.72416300766646
 30
0.0
 40
0.1325
  0
LINE
  5
14EE
330
17
100
AcDbEntity
  8
0
100
AcDbLine
 10
9.751231580433682
 20
30.0868693113476
 30
0.0
 11
9.470901494543739
 21
29.80653922545768
 31
0.0
  0
LINE
  5
14EF
330
17
100
AcDbEntity
  8
0
100
AcDbLine
 10
9.857925754257906
 20
30.01678678987521
 30
0.0
 11
9.577595668367906
 21
29.73645670398516
 31
0.0
  0
LINE
  5
14F0
330
17
100
AcDbEntity
  8
0
100
AcDbLine
 10
9.351913624400822
 20
27.26927709560061
 30
0.0
 11
9.351913624400822
 21
26.92904891973228
 31
0.0
  0
ARC
  5
14F1
330
17
100
AcDbEntity
  8
0
100
AcDbCircle
 10
9.758163624400424
 20
27.2692770956008
 30
0.0
 40
0.4062499999995963
100
AcDbArc
 50
134.9999999999758
 51
180.0000000000261
  0
LINE
  5
14F2
330
17
100
AcDbEntity
  8
0
100
AcDbLine
 10
9.751231580433682
 20
27.83686931134756
 30
0.0
 11
9.470901494543796
 21
27.55653922545767
 31
0.0
  0
ARC
  5
14F3
330
17
100
AcDbEntity
  8
0
100
AcDbCircle
 10
9.508163624400552
 20
28.07993726738056
 30
0.0
 40
0.34375000000027
100
AcDbArc
 50
315.000000000015
 51
359.9999999999813
  0
LINE
  5
14F4
330
17
100
AcDbEntity
  8
0
100
AcDbLine
 10
9.851913624400822
 20
28.36838874795249
 30
0.0
 11
9.851913624400822
 21
28.07993726738044
 31
0.0
  0
ARC
  5
14F5
330
17
100
AcDbEntity
  8
0
100
AcDbCircle
 10
9.50816362440122
 20
28.36838874795263
 30
0.0
 40
0.3437499999996008
100
AcDbArc
 50
359.9999999999772
 51
45.00000000003109
  0
LINE
  5
14F6
330
17
100
AcDbEntity
  8
0
100
AcDbLine
 10
9.470901494543796
 20
28.89178678987524
 30
0.0
 11
9.751231580433682
 21
28.61145670398535
 31
0.0
  0
ARC
  5
14F7
330
17
100
AcDbEntity
  8
0
100
AcDbCircle
 10
9.758163624401121
 20
29.17904891973241
 30
0.0
 40
0.4062500000002984
100
AcDbArc
 50
180.0000000000179
 51
224.9999999999845
  0
LINE
  5
14F8
330
17
100
AcDbEntity
  8
0
100
AcDbLine
 10
9.351913624400822
 20
29.51927709560064
 30
0.0
 11
9.351913624400822
 21
29.17904891973228
 31
0.0
  0
ARC
  5
14F9
330
17
100
AcDbEntity
  8
0
100
AcDbCircle
 10
9.758163624400652
 20
29.51927709560077
 30
0.0
 40
0.4062499999998274
100
AcDbArc
 50
135.0
 51
180.0000000000179
  0
ARC
  5
14FA
330
17
100
AcDbEntity
  8
0
100
AcDbCircle
 10
9.820663624400552
 20
26.95493726738057
 30
0.0
 40
0.34374999999973
100
AcDbArc
 50
179.9999999999813
 51
225.0000000000236
  0
LINE
  5
14FB
330
17
100
AcDbEntity
  8
0
100
AcDbLine
 10
9.476913624400822
 20
27.24338874795238
 30
0.0
 11
9.476913624400822
 21
26.95493726738069
 31
0.0
  0
ARC
  5
14FC
330
17
100
AcDbEntity
  8
0
100
AcDbCircle
 10
9.820663624400723
 20
27.24338874795232
 30
0.0
 40
0.3437499999999073
100
AcDbArc
 50
134.9999999999752
 51
179.9999999999902
  0
LINE
  5
14FD
330
17
100
AcDbEntity
  8
0
100
AcDbLine
 10
9.857925754257849
 20
27.76678678987516
 30
0.0
 11
9.577595668368019
 21
27.48645670398524
 31
0.0
  0
ARC
  5
14FE
330
17
100
AcDbEntity
  8
0
100
AcDbCircle
 10
9.570663624400467
 20
28.05404891973235
 30
0.0
 40
0.4062500000003553
100
AcDbArc
 50
315.0000000000184
 51
359.9999999999797
  0
LINE
  5
14FF
330
17
100
AcDbEntity
  8
0
100
AcDbLine
 10
9.976913624400822
 20
28.39427709560076
 30
0.0
 11
9.976913624400822
 21
28.05404891973221
 31
0.0
  0
ARC
  5
1500
330
17
100
AcDbEntity
  8
0
100
AcDbCircle
 10
9.570663624400524
 20
28.3942770956006
 30
0.0
 40
0.4062500000002997
100
AcDbArc
 50
0.000000000021984
 51
44.99999999998445
  0
LINE
  5
1501
330
17
100
AcDbEntity
  8
0
100
AcDbLine
 10
9.577595668367906
 20
28.96186931134776
 30
0.0
 11
9.857925754257849
 21
28.68153922545777
 31
0.0
  0
ARC
  5
1502
330
17
100
AcDbEntity
  8
0
100
AcDbCircle
 10
9.820663624400922
 20
29.20493726738071
 30
0.0
 40
0.3437500000001563
100
AcDbArc
 50
180.0000000000138
 51
224.9999999999936
  0
LINE
  5
1503
330
17
100
AcDbEntity
  8
0
100
AcDbLine
 10
9.476913624400822
 20
29.49338874795234
 30
0.0
 11
9.476913624400766
 21
29.20493726738063
 31
0.0
  0
ARC
  5
1504
330
17
100
AcDbEntity
  8
0
100
AcDbCircle
 10
9.820663624400609
 20
29.49338874795241
 30
0.0
 40
0.3437499999997867
100
AcDbArc
 50
134.9999999999948
 51
180.0000000000123
  0
CIRCLE
  5
1505
330
17
100
AcDbEntity
  8
0
100
AcDbCircle
 10
8.851913624400822
 20
29.34916300766646
 30
0.0
 40
0.1325
  0
CIRCLE
  5
1506
330
17
100
AcDbEntity
  8
0
100
AcDbCircle
 10
9.914413624400822
 20
29.34916300766646
 30
0.0
 40
0.1325
  0
CIRCLE
  5
1507
330
17
100
AcDbEntity
  8
0
100
AcDbCircle
 10
9.414413624400822
 20
28.22416300766646
 30
0.0
 40
0.1325
  0
CIRCLE
  5
1508
330
17
100
AcDbEntity
  8
0
100
AcDbCircle
 10
8.851913624400822
 20
27.09916300766646
 30
0.0
 40
0.1325
  0
CIRCLE
  5
1509
330
17
100
AcDbEntity
  8
0
100
AcDbCircle
 10
9.914413624400822
 20
27.09916300766646
 30
0.0
 40
0.1325
  0
CIRCLE
  5
150A
330
17
100
AcDbEntity
  8
0
100
AcDbCircle
 10
10.47691362440082
 20
28.22416300766646
 30
0.0
 40
0.1325
  0
ARC
  5
150B
330
17
100
AcDbEntity
  8
0
100
AcDbCircle
 10
9.508163624400552
 20
30.3299372673806
 30
0.0
 40
0.34375000000027
100
AcDbArc
 50
315.000000000015
 51
359.9999999999813
  0
LINE
  5
150C
330
17
100
AcDbEntity
  8
0
100
AcDbLine
 10
9.851913624400822
 20
30.61838874795244
 30
0.0
 11
9.851913624400822
 21
30.32993726738049
 31
0.0
  0
ARC
  5
150D
330
17
100
AcDbEntity
  8
0
100
AcDbCircle
 10
9.508163624400567
 20
30.61838874795232
 30
0.0
 40
0.343750000000259
100
AcDbArc
 50
0.0000000000187271
 51
44.99999999998676
  0
LINE
  5
150E
330
17
100
AcDbEntity
  8
0
100
AcDbLine
 10
9.470901494543796
 20
31.14178678987527
 30
0.0
 11
9.751231580433682
 21
30.86145670398533
 31
0.0
  0
ARC
  5
150F
330
17
100
AcDbEntity
  8
0
100
AcDbCircle
 10
9.758163624401121
 20
31.42904891973244
 30
0.0
 40
0.4062500000002984
100
AcDbArc
 50
180.0000000000204
 51
224.9999999999845
  0
LINE
  5
1510
330
17
100
AcDbEntity
  8
0
100
AcDbLine
 10
9.351913624400822
 20
31.76927709560061
 30
0.0
 11
9.351913624400822
 21
31.4290489197323
 31
0.0
  0
ARC
  5
1511
330
17
100
AcDbEntity
  8
0
100
AcDbCircle
 10
9.758163624400652
 20
31.76927709560074
 30
0.0
 40
0.4062499999998274
100
AcDbArc
 50
135.0
 51
180.0000000000179
  0
LINE
  5
1512
330
17
100
AcDbEntity
  8
0
100
AcDbLine
 10
9.751231580433682
 20
32.33686931134758
 30
0.0
 11
9.470901494543739
 21
32.05653922545766
 31
0.0
  0
ARC
  5
1513
330
17
100
AcDbEntity
  8
0
100
AcDbCircle
 10
9.508163624400552
 20
32.57993726738059
 30
0.0
 40
0.34375000000027
100
AcDbArc
 50
315.000000000015
 51
359.9999999999813
  0
LINE
  5
1514
330
17
100
AcDbEntity
  8
0
100
AcDbLine
 10
9.851913624400822
 20
32.86838874795251
 30
0.0
 11
9.851913624400822
 21
32.57993726738047
 31
0.0
  0
ARC
  5
1515
330
17
100
AcDbEntity
  8
0
100
AcDbCircle
 10
9.50816362440122
 20
32.86838874795264
 30
0.0
 40
0.3437499999996008
100
AcDbArc
 50
359.9999999999772
 51
45.00000000003109
  0
ARC
  5
1516
330
17
100
AcDbEntity
  8
0
100
AcDbCircle
 10
9.570663624401007
 20
30.30404891973213
 30
0.0
 40
0.4062499999998153
100
AcDbArc
 50
314.9999999999983
 51
0.0000000000122133
  0
LINE
  5
1517
330
17
100
AcDbEntity
  8
0
100
AcDbLine
 10
9.976913624400822
 20
30.64427709560076
 30
0.0
 11
9.976913624400822
 21
30.30404891973221
 31
0.0
  0
ARC
  5
1518
330
17
100
AcDbEntity
  8
0
100
AcDbCircle
 10
9.570663624400993
 20
30.64427709560088
 30
0.0
 40
0.4062499999998274
100
AcDbArc
 50
359.9999999999821
 51
45.0
  0
LINE
  5
1519
330
17
100
AcDbEntity
  8
0
100
AcDbLine
 10
9.577595668367962
 20
31.2118693113477
 30
0.0
 11
9.857925754257906
 21
30.9315392254578
 31
0.0
  0
ARC
  5
151A
330
17
100
AcDbEntity
  8
0
100
AcDbCircle
 10
9.820663624401092
 20
31.4549372673807
 30
0.0
 40
0.34375000000027
100
AcDbArc
 50
180.0000000000188
 51
224.9999999999851
  0
LINE
  5
151B
330
17
100
AcDbEntity
  8
0
100
AcDbLine
 10
9.476913624400766
 20
31.74338874795237
 30
0.0
 11
9.476913624400822
 21
31.45493726738059
 31
0.0
  0
ARC
  5
151C
330
17
100
AcDbEntity
  8
0
100
AcDbCircle
 10
9.820663624400609
 20
31.74338874795238
 30
0.0
 40
0.343749999999847
100
AcDbArc
 50
134.9999999999845
 51
180.0000000000024
  0
LINE
  5
151D
330
17
100
AcDbEntity
  8
0
100
AcDbLine
 10
9.857925754257849
 20
32.26678678987513
 30
0.0
 11
9.577595668367906
 21
31.98645670398521
 31
0.0
  0
ARC
  5
151E
330
17
100
AcDbEntity
  8
0
100
AcDbCircle
 10
9.570663624400467
 20
32.55404891973232
 30
0.0
 40
0.4062500000003553
100
AcDbArc
 50
315.000000000019
 51
359.9999999999813
  0
LINE
  5
151F
330
17
100
AcDbEntity
  8
0
100
AcDbLine
 10
9.976913624400822
 20
32.89427709560074
 30
0.0
 11
9.976913624400822
 21
32.55404891973218
 31
0.0
  0
ARC
  5
1520
330
17
100
AcDbEntity
  8
0
100
AcDbCircle
 10
9.570663624400595
 20
32.89427709560059
 30
0.0
 40
0.4062500000002294
100
AcDbArc
 50
0.000000000021984
 51
44.99999999998907
  0
CIRCLE
  5
1521
330
17
100
AcDbEntity
  8
0
100
AcDbCircle
 10
8.851913624400822
 20
31.59916300766646
 30
0.0
 40
0.1325
  0
CIRCLE
  5
1522
330
17
100
AcDbEntity
  8
0
100
AcDbCircle
 10
9.914413624400822
 20
31.59916300766646
 30
0.0
 40
0.1325
  0
CIRCLE
  5
1523
330
17
100
AcDbEntity
  8
0
100
AcDbCircle
 10
9.414413624400822
 20
32.72416300766646
 30
0.0
 40
0.1325
  0
CIRCLE
  5
1524
330
17
100
AcDbEntity
  8
0
100
AcDbCircle
 10
9.414413624400822
 20
30.47416300766646
 30
0.0
 40
0.1325
  0
CIRCLE
  5
1525
330
17
100
AcDbEntity
  8
0
100
AcDbCircle
 10
10.47691362440082
 20
32.72416300766646
 30
0.0
 40
0.1325
  0
CIRCLE
  5
1526
330
17
100
AcDbEntity
  8
0
100
AcDbCircle
 10
10.47691362440082
 20
30.47416300766646
 30
0.0
 40
0.1325
  0
ARC
  5
152B
330
17
100
AcDbEntity
  8
0
100
AcDbCircle
 10
9.758163624401178
 20
33.6790489197324
 30
0.0
 40
0.4062500000003553
100
AcDbArc
 50
180.0000000000188
 51
224.999999999981
  0
LINE
  5
152C
330
17
100
AcDbEntity
  8
0
100
AcDbLine
 10
9.351913624400822
 20
34.01927709560064
 30
0.0
 11
9.351913624400822
 21
33.67904891973227
 31
0.0
  0
ARC
  5
152D
330
17
100
AcDbEntity
  8
0
100
AcDbCircle
 10
9.758163624401121
 20
34.01927709560049
 30
0.0
 40
0.4062500000002997
100
AcDbArc
 50
135.0000000000156
 51
179.999999999978
  0
LINE
  5
152E
330
17
100
AcDbEntity
  8
0
100
AcDbLine
 10
9.751231580433682
 20
34.58686931134754
 30
0.0
 11
9.470901494543796
 21
34.30653922545766
 31
0.0
  0
ARC
  5
152F
330
17
100
AcDbEntity
  8
0
100
AcDbCircle
 10
9.508163624400552
 20
34.82993726738054
 30
0.0
 40
0.34375000000027
100
AcDbArc
 50
315.000000000015
 51
359.9999999999813
  0
LINE
  5
1530
330
17
100
AcDbEntity
  8
0
100
AcDbLine
 10
9.851913624400822
 20
35.11838874795247
 30
0.0
 11
9.851913624400822
 21
34.82993726738043
 31
0.0
  0
ARC
  5
1531
330
17
100
AcDbEntity
  8
0
100
AcDbCircle
 10
9.508163624400567
 20
35.11838874795235
 30
0.0
 40
0.343750000000259
100
AcDbArc
 50
0.0000000000187271
 51
44.99999999998676
  0
LINE
  5
1532
330
17
100
AcDbEntity
  8
0
100
AcDbLine
 10
9.470901494543796
 20
35.64178678987523
 30
0.0
 11
9.751231580433682
 21
35.36145670398535
 31
0.0
  0
ARC
  5
1533
330
17
100
AcDbEntity
  8
0
100
AcDbCircle
 10
9.758163624401121
 20
35.9290489197324
 30
0.0
 40
0.4062500000002984
100
AcDbArc
 50
180.0000000000179
 51
224.9999999999845
  0
LINE
  5
1534
330
17
100
AcDbEntity
  8
0
100
AcDbLine
 10
9.351913624400822
 20
36.09916300766648
 30
0.0
 11
9.351913624400822
 21
35.92904891973227
 31
0.0
  0
ARC
  5
1535
330
17
100
AcDbEntity
  8
0
100
AcDbCircle
 10
9.820663624400552
 20
33.70493726738057
 30
0.0
 40
0.34374999999973
100
AcDbArc
 50
179.9999999999797
 51
225.0000000000225
  0
LINE
  5
1536
330
17
100
AcDbEntity
  8
0
100
AcDbLine
 10
9.476913624400822
 20
33.99338874795238
 30
0.0
 11
9.476913624400822
 21
33.70493726738069
 31
0.0
  0
ARC
  5
1537
330
17
100
AcDbEntity
  8
0
100
AcDbCircle
 10
9.820663624400666
 20
33.99338874795235
 30
0.0
 40
0.343749999999842
100
AcDbArc
 50
134.9999999999724
 51
179.9999999999943
  0
LINE
  5
1538
330
17
100
AcDbEntity
  8
0
100
AcDbLine
 10
9.857925754257849
 20
34.51678678987517
 30
0.0
 11
9.577595668368019
 21
34.23645670398523
 31
0.0
  0
ARC
  5
1539
330
17
100
AcDbEntity
  8
0
100
AcDbCircle
 10
9.570663624400467
 20
34.80404891973236
 30
0.0
 40
0.4062500000003553
100
AcDbArc
 50
315.000000000019
 51
359.9999999999772
  0
LINE
  5
153A
330
17
100
AcDbEntity
  8
0
100
AcDbLine
 10
9.976913624400822
 20
35.14427709560076
 30
0.0
 11
9.976913624400822
 21
34.8040489197322
 31
0.0
  0
ARC
  5
153B
330
17
100
AcDbEntity
  8
0
100
AcDbCircle
 10
9.570663624400524
 20
35.1442770956006
 30
0.0
 40
0.4062500000002997
100
AcDbArc
 50
0.000000000021984
 51
44.99999999998445
  0
LINE
  5
153C
330
17
100
AcDbEntity
  8
0
100
AcDbLine
 10
9.577595668367906
 20
35.71186931134776
 30
0.0
 11
9.857925754257849
 21
35.43153922545777
 31
0.0
  0
ARC
  5
153D
330
17
100
AcDbEntity
  8
0
100
AcDbCircle
 10
9.820663624400922
 20
35.95493726738071
 30
0.0
 40
0.3437500000001563
100
AcDbArc
 50
180.0000000000138
 51
224.9999999999936
  0
LINE
  5
153E
330
17
100
AcDbEntity
  8
0
100
AcDbLine
 10
9.476913624400766
 20
36.09916300766648
 30
0.0
 11
9.476913624400766
 21
35.95493726738063
 31
0.0
  0
CIRCLE
  5
1540
330
17
100
AcDbEntity
  8
0
100
AcDbCircle
 10
9.414413624400822
 20
34.97416300766646
 30
0.0
 40
0.1325
  0
CIRCLE
  5
1541
330
17
100
AcDbEntity
  8
0
100
AcDbCircle
 10
8.851913624400822
 20
33.84916300766646
 30
0.0
 40
0.1325
  0
CIRCLE
  5
1542
330
17
100
AcDbEntity
  8
0
100
AcDbCircle
 10
9.914413624400822
 20
33.84916300766646
 30
0.0
 40
0.1325
  0
CIRCLE
  5
1545
330
17
100
AcDbEntity
  8
0
100
AcDbCircle
 10
10.47691362440082
 20
34.97416300766646
 30
0.0
 40
0.1325
  0
LINE
  5
1787
330
17
100
AcDbEntity
  8
0
  6
HIDDEN
100
AcDbLine
 10
8.289413443500834
 20
15.1241630076665
 30
0.0
 11
11.03941380530084
 21
15.1241630076665
 31
0.0
  0
ARC
  5
1788
330
17
100
AcDbEntity
  8
0
  6
HIDDEN
100
AcDbCircle
 10
9.664413624400808
 20
15.35916300766647
 30
0.0
 40
0.875
100
AcDbArc
 50
221.0161299651608
 51
318.9838700348408
  0
ARC
  5
1796
330
17
100
AcDbEntity
  8
0
100
AcDbCircle
 10
8.83117495103734
 20
14.20933114464825
 30
0.0
 40
0.3
100
AcDbArc
 50
54.07060958445218
 51
129.4002783514038
  0
ARC
  5
179C
330
17
100
AcDbEntity
  8
0
100
AcDbCircle
 10
8.83117495103734
 20
14.20933114464825
 30
0.0
 40
0.225
100
AcDbArc
 50
54.07060958445218
 51
128.0456346856841
  0
ARC
  5
179E
330
17
100
AcDbEntity
  8
0
100
AcDbCircle
 10
8.83117495103734
 20
14.20933114464825
 30
0.0
 40
0.225
100
AcDbArc
 50
128.0456346856846
 51
146.5932458051436
  0
ARC
  5
179F
330
17
100
AcDbEntity
  8
0
100
AcDbCircle
 10
8.83117495103734
 20
14.20933114464825
 30
0.0
 40
0.3
100
AcDbArc
 50
129.4002783514042
 51
146.5932458051436
  0
ARC
  5
17A0
330
17
100
AcDbEntity
  8
0
100
AcDbCircle
 10
8.935522821684302
 20
14.14050875082586
 30
0.0
 40
0.225
100
AcDbArc
 50
326.5932458051603
 51
345.1408569246204
  0
ARC
  5
17A1
330
17
100
AcDbEntity
  8
0
100
AcDbCircle
 10
8.935522821684302
 20
14.14050875082586
 30
0.0
 40
0.3
100
AcDbArc
 50
343.7862132589009
 51
59.11588202585623
  0
ARC
  5
17A2
330
17
100
AcDbEntity
  8
0
100
AcDbCircle
 10
8.935522821684302
 20
14.14050875082586
 30
0.0
 40
0.225
100
AcDbArc
 50
345.1408569246204
 51
59.11588202585623
  0
ARC
  5
17A3
330
17
100
AcDbEntity
  8
0
100
AcDbCircle
 10
9.664413624400808
 20
15.35916300766647
 30
0.0
 40
1.12
100
AcDbArc
 50
234.0706095844477
 51
239.1158820258582
  0
ARC
  5
17A4
330
17
100
AcDbEntity
  8
0
100
AcDbCircle
 10
9.664413624400808
 20
15.35916300766647
 30
0.0
 40
1.195
100
AcDbArc
 50
234.0706095844477
 51
239.1158820258582
  0
ARC
  5
17A5
330
17
100
AcDbEntity
  8
0
100
AcDbCircle
 10
8.935522821684302
 20
14.14050875082586
 30
0.0
 40
0.3
100
AcDbArc
 50
329.3781523550567
 51
343.7862132589009
  0
ARC
  5
17AD
330
17
100
AcDbEntity
  8
0
100
AcDbCircle
 10
8.08691362440085
 20
15.65040906025115
 30
0.0
 40
0.2619999999999996
100
AcDbArc
 50
0.0000000000004071
 51
39.38490570446512
  0
ARC
  5
17AF
330
17
100
AcDbEntity
  8
0
100
AcDbCircle
 10
8.086913624400765
 20
15.65040906025115
 30
0.0
 40
0.187
100
AcDbArc
 50
0.0
 51
47.01411391979246
  0
ARC
  5
17B0
330
17
100
AcDbEntity
  8
0
100
AcDbCircle
 10
8.838553038955823
 20
14.79528864807163
 30
0.0
 40
0.125
100
AcDbArc
 50
214.3241612918684
 51
315.2820058643694
  0
ARC
  5
17B1
330
17
100
AcDbEntity
  8
0
100
AcDbCircle
 10
9.115309041492409
 20
15.06065143832787
 30
0.0
 40
0.5
100
AcDbArc
 50
161.6293610254284
 51
208.5299783842804
  0
ARC
  5
17B2
330
17
100
AcDbEntity
  8
0
100
AcDbCircle
 10
8.086896129200866
 20
15.52448987565116
 30
0.0
 40
0.2619999999999969
100
AcDbArc
 50
299.4514479890524
 51
320.6150942955361
  0
ARC
  5
17B3
330
17
100
AcDbEntity
  8
0
100
AcDbCircle
 10
8.08691362440085
 20
15.52540906025115
 30
0.0
 40
0.2619999999999969
100
AcDbArc
 50
320.6150942955357
 51
359.9999999999996
  0
LINE
  5
17B4
330
17
100
AcDbEntity
  8
0
100
AcDbLine
 10
8.348913624400851
 20
15.65040906025114
 30
0.0
 11
8.348913624400851
 21
15.52540906025114
 31
0.0
  0
LINE
  5
17B5
330
17
100
AcDbEntity
  8
0
 62
     3
100
AcDbLine
 10
8.289413624400837
 20
15.35916207806649
 30
0.0
 11
8.289396129200824
 21
15.35824382146647
 31
0.0
  0
LINE
  5
17B6
330
17
100
AcDbEntity
  8
0
 62
     3
100
AcDbLine
 10
8.289396129200796
 20
15.3582438230665
 30
0.0
 11
8.28941362440078
 21
15.35916207816648
 31
0.0
  0
LINE
  5
17B7
330
17
100
AcDbEntity
  8
0
100
AcDbLine
 10
8.273913624400763
 20
15.61915906025114
 30
0.0
 11
8.273913624400763
 21
15.55665906025114
 31
0.0
  0
ARC
  5
17B8
330
17
100
AcDbEntity
  8
0
100
AcDbCircle
 10
8.086913624400765
 20
15.52540906025115
 30
0.0
 40
0.187
100
AcDbArc
 50
312.9858860802075
 51
0.0
  0
LINE
  5
17B9
330
17
100
AcDbEntity
  8
0
100
AcDbLine
 10
8.289395976100835
 20
15.12368920056649
 30
0.0
 11
8.289398915100819
 21
15.1237689216665
 31
0.0
  0
LINE
  5
17BA
330
17
100
AcDbEntity
  8
0
100
AcDbLine
 10
8.289413443500834
 20
15.1241630076665
 30
0.0
 11
8.289395976100835
 21
15.12368920036649
 31
0.0
  0
LINE
  5
17BB
330
17
100
AcDbEntity
  8
0
100
AcDbLine
 10
8.289395976200794
 20
15.12368920116647
 30
0.0
 11
8.289413443500777
 21
15.1241630076665
 31
0.0
  0
LINE
  5
17BC
330
17
100
AcDbEntity
  8
0
100
AcDbLine
 10
8.28939891510079
 20
15.12376892096647
 30
0.0
 11
8.289395976100778
 21
15.12368919926648
 31
0.0
  0
LINE
  5
17BD
330
17
100
AcDbEntity
  8
0
100
AcDbLine
 10
8.927375355562575
 20
14.70733641062081
 30
0.0
 11
9.004204375467126
 21
14.78492547177874
 31
0.0
  0
LINE
  5
17BE
330
17
100
AcDbEntity
  8
0
100
AcDbLine
 10
9.195663624400837
 20
15.1241630076665
 30
0.0
 11
9.195663624400837
 21
15.35916300766648
 31
0.0
  0
ARC
  5
17BF
330
17
100
AcDbEntity
  8
0
100
AcDbCircle
 10
8.086896129200866
 20
15.64948987565116
 30
0.0
 40
0.2619999999999996
100
AcDbArc
 50
39.38490570446455
 51
60.87994316726357
  0
ARC
  5
17C4
330
17
100
AcDbEntity
  8
0
100
AcDbCircle
 10
10.49765229776428
 20
14.20933114464825
 30
0.0
 40
0.3
100
AcDbArc
 50
50.59972164859616
 51
125.9293904155478
  0
ARC
  5
17C8
330
17
100
AcDbEntity
  8
0
100
AcDbCircle
 10
10.39330442711732
 20
14.14050875082586
 30
0.0
 40
0.225
100
AcDbArc
 50
120.8841179741438
 51
194.8591430753796
  0
ARC
  5
17C9
330
17
100
AcDbEntity
  8
0
100
AcDbCircle
 10
10.39330442711732
 20
14.14050875082586
 30
0.0
 40
0.3
100
AcDbArc
 50
120.8841179741438
 51
196.2137867410991
  0
ARC
  5
17CA
330
17
100
AcDbEntity
  8
0
100
AcDbCircle
 10
10.39330442711732
 20
14.14050875082586
 30
0.0
 40
0.225
100
AcDbArc
 50
194.8591430753796
 51
213.4067541948396
  0
ARC
  5
17CC
330
17
100
AcDbEntity
  8
0
100
AcDbCircle
 10
10.39330442711732
 20
14.14050875082586
 30
0.0
 40
0.3
100
AcDbArc
 50
196.2137867410991
 51
210.6218476449434
  0
ARC
  5
17CD
330
17
100
AcDbEntity
  8
0
100
AcDbCircle
 10
10.49765229776428
 20
14.20933114464825
 30
0.0
 40
0.225
100
AcDbArc
 50
51.95436531431594
 51
125.9293904155478
  0
ARC
  5
17CE
330
17
100
AcDbEntity
  8
0
100
AcDbCircle
 10
9.664413624400808
 20
15.35916300766647
 30
0.0
 40
1.195
100
AcDbArc
 50
300.8841179741419
 51
305.9293904155523
  0
ARC
  5
17CF
330
17
100
AcDbEntity
  8
0
100
AcDbCircle
 10
9.664413624400808
 20
15.35916300766647
 30
0.0
 40
1.12
100
AcDbArc
 50
300.8841179741419
 51
305.9293904155523
  0
ARC
  5
17D0
330
17
100
AcDbEntity
  8
0
100
AcDbCircle
 10
10.49765229776428
 20
14.20933114464825
 30
0.0
 40
0.3
100
AcDbArc
 50
33.40675419485636
 51
50.59972164859578
  0
ARC
  5
17D1
330
17
100
AcDbEntity
  8
0
100
AcDbCircle
 10
10.49765229776428
 20
14.20933114464825
 30
0.0
 40
0.225
100
AcDbArc
 50
33.40675419485636
 51
51.95436531431542
  0
LINE
  5
17D5
330
17
100
AcDbEntity
  8
0
100
AcDbLine
 10
10.13316362440084
 20
15.1241630076665
 30
0.0
 11
10.13316362440084
 21
15.35916300766648
 31
0.0
  0
ARC
  5
17D6
330
17
100
AcDbEntity
  8
0
100
AcDbCircle
 10
10.21351820731918
 20
15.06065143834621
 30
0.0
 40
0.5
100
AcDbArc
 50
331.4700216176344
 51
18.37063897486504
  0
ARC
  5
17D7
330
17
100
AcDbEntity
  8
0
100
AcDbCircle
 10
10.49027420984579
 20
14.79528864807166
 30
0.0
 40
0.125
100
AcDbArc
 50
224.7179941356441
 51
325.6758387081355
  0
LINE
  5
17D8
330
17
100
AcDbEntity
  8
0
100
AcDbLine
 10
10.40145189323907
 20
14.70733641062081
 30
0.0
 11
10.32462287333449
 21
14.78492547177874
 31
0.0
  0
ARC
  5
17D9
330
17
100
AcDbEntity
  8
0
100
AcDbCircle
 10
11.24191362440085
 20
15.65040906025115
 30
0.0
 40
0.2619999999999996
100
AcDbArc
 50
140.6150942955349
 51
179.9999999999996
  0
ARC
  5
17DB
330
17
100
AcDbEntity
  8
0
100
AcDbCircle
 10
11.24191362440085
 20
15.65040906025115
 30
0.0
 40
0.187
100
AcDbArc
 50
132.9858860802075
 51
180.0
  0
ARC
  5
17DC
330
17
100
AcDbEntity
  8
0
100
AcDbCircle
 10
11.24193111960084
 20
15.52448987565116
 30
0.0
 40
0.2619999999999969
100
AcDbArc
 50
219.3849057044639
 51
240.5485520109477
  0
ARC
  5
17DD
330
17
100
AcDbEntity
  8
0
100
AcDbCircle
 10
11.24191362440085
 20
15.52540906025115
 30
0.0
 40
0.2619999999999969
100
AcDbArc
 50
180.0000000000004
 51
219.3849057044643
  0
LINE
  5
17DE
330
17
100
AcDbEntity
  8
0
 62
     3
100
AcDbLine
 10
11.03943111960079
 20
15.3582438230665
 30
0.0
 11
11.03941362440087
 21
15.35916207816648
 31
0.0
  0
LINE
  5
17DF
330
17
100
AcDbEntity
  8
0
100
AcDbLine
 10
10.97991362440085
 20
15.65040906025114
 30
0.0
 11
10.97991362440085
 21
15.52540906025114
 31
0.0
  0
LINE
  5
17E0
330
17
100
AcDbEntity
  8
0
100
AcDbLine
 10
11.05491362440085
 20
15.61915906025114
 30
0.0
 11
11.05491362440085
 21
15.55665906025114
 31
0.0
  0
ARC
  5
17E1
330
17
100
AcDbEntity
  8
0
100
AcDbCircle
 10
11.24191362440085
 20
15.52540906025115
 30
0.0
 40
0.187
100
AcDbArc
 50
180.0
 51
227.0141139197925
  0
LINE
  5
17E2
330
17
100
AcDbEntity
  8
0
100
AcDbLine
 10
11.03942833370086
 20
15.12376892096647
 30
0.0
 11
11.03943127270081
 21
15.12368919926648
 31
0.0
  0
LINE
  5
17E3
330
17
100
AcDbEntity
  8
0
100
AcDbLine
 10
11.03943127260082
 20
15.12368920116647
 30
0.0
 11
11.03941380530084
 21
15.1241630076665
 31
0.0
  0
ARC
  5
17E4
330
17
100
AcDbEntity
  8
0
100
AcDbCircle
 10
11.24193111960084
 20
15.64948987565116
 30
0.0
 40
0.2619999999999996
100
AcDbArc
 50
119.1200568327364
 51
140.6150942955355
  0
LINE
  5
1C21
330
17
100
AcDbEntity
  8
0
100
AcDbLine
 10
8.154413624400831
 20
36.09916300766648
 30
0.0
 11
9.351913624400822
 21
36.09916300766648
 31
0.0
  0
LINE
  5
1C22
330
17
100
AcDbEntity
  8
0
100
AcDbLine
 10
9.476913624400766
 20
36.09916300766648
 30
0.0
 11
11.17441362440081
 21
36.09916300766647
 31
0.0
  0
LINE
  5
1FA1
330
17
100
AcDbEntity
  8
0
100
AcDbLine
 10
9.555859857172553
 20
17.86382179054888
 30
0.0
 11
8.750091260371629
 21
15.3591630076665
 31
0.0
  0
LINE
  5
1FE9
330
17
100
AcDbEntity
  8
0
100
AcDbLine
 10
10.57873598843012
 20
15.3591630076665
 30
0.0
 11
9.77296739184993
 21
17.8638217854283
 31
0.0
  0
ENDSEC
  0
SECTION
  2
OBJECTS
  0
DICTIONARY
  5
C
330
0
100
AcDbDictionary
281
     1
  3
ACAD_COLOR
350
21E7
  3
ACAD_GROUP
350
D
  3
ACAD_LAYOUT
350
47B
  3
ACAD_MATERIAL
350
21E6
  3
ACAD_MLINESTYLE
350
1A
  3
ACAD_PLOTSETTINGS
350
47C
  3
ACAD_PLOTSTYLENAME
350
479
  3
ACAD_TABLESTYLE
350
21E8
  3
ACDBHEADERROUNDTRIPXREC
350
21F8
  3
ACDBVARIABLEDICTIONARY
350
49
  0
DICTIONARY
  5
21EC
330
2
100
AcDbDictionary
280
     1
281
     1
  3
ACAD_LAYERFILTERS
360
21EE
  3
ACLYDICTIONARY
360
21ED
  0
DICTIONARY
  5
21E7
102
{ACAD_REACTORS
330
C
102
}
330
C
100
AcDbDictionary
281
     1
  0
DICTIONARY
  5
D
102
{ACAD_REACTORS
330
C
102
}
330
C
100
AcDbDictionary
281
     1
  0
DICTIONARY
  5
47B
102
{ACAD_REACTORS
330
C
102
}
330
C
100
AcDbDictionary
281
     1
  3
Layout1
350
47E
  3
Model
350
47D
  0
DICTIONARY
  5
21E6
102
{ACAD_REACTORS
330
C
102
}
330
C
100
AcDbDictionary
281
     1
  0
DICTIONARY
  5
1A
102
{ACAD_REACTORS
330
C
102
}
330
C
100
AcDbDictionary
281
     1
  3
STANDARD
350
1B
  0
DICTIONARY
  5
47C
102
{ACAD_REACTORS
330
C
102
}
330
C
100
AcDbDictionary
281
     1
  0
ACDBDICTIONARYWDFLT
  5
479
102
{ACAD_REACTORS
330
C
102
}
330
C
100
AcDbDictionary
281
     1
  3
Normal
350
47A
100
AcDbDictionaryWithDefault
340
47A
  0
DICTIONARY
  5
21E8
102
{ACAD_REACTORS
330
C
102
}
330
C
100
AcDbDictionary
281
     1
  3
Standard
350
21E9
  0
DICTIONARY
  5
21F8
102
{ACAD_REACTORS
330
C
102
}
330
C
100
AcDbDictionary
281
     1
  3
COLORDICT
350
21F9
  3
MATERIALDICT
350
21FA
  0
DICTIONARY
  5
49
102
{ACAD_REACTORS
330
C
102
}
330
C
100
AcDbDictionary
281
     1
  3
CTABLESTYLE
350
21F5
  3
DIMADEC
350
4A
  0
DICTIONARY
  5
21EE
102
{ACAD_REACTORS
330
21EC
102
}
330
21EC
100
AcDbDictionary
281
     1
  0
DICTIONARY
  5
21ED
102
{ACAD_REACTORS
330
21EC
102
}
330
21EC
100
AcDbDictionary
281
     1
1001
ACAD
1000
<All
  0
LAYOUT
  5
47E
102
{ACAD_REACTORS
330
47B
102
}
102
{ACAD_XDICTIONARY
360
21FB
102
}
330
47B
100
AcDbPlotSettings
  1

  2
hp psc 2100 series
  4

  6

 40
0.0
 41
0.0
 42
0.0
 43
0.0
 44
0.0
 45
0.0
 46
0.0
 47
0.0
 48
0.0
 49
0.0
140
0.0
141
0.0
142
1.0
143
1.0
 70
   688
 72
     0
 73
     0
 74
     5
  7

 75
    16
147
1.0
148
0.0
149
0.0
100
AcDbLayout
  1
Layout1
 70
     0
 71
     1
 10
0.0
 20
0.0
 11
12.0
 21
9.0
 12
0.0
 22
0.0
 32
0.0
 14
1.000000000000000E+20
 24
1.000000000000000E+20
 34
1.000000000000000E+20
 15
-1.000000000000000E+20
 25
-1.000000000000000E+20
 35
-1.000000000000000E+20
146
0.0
 13
0.0
 23
0.0
 33
0.0
 16
1.0
 26
0.0
 36
0.0
 17
0.0
 27
1.0
 37
0.0
 76
     0
330
14
  0
LAYOUT
  5
47D
102
{ACAD_REACTORS
330
47B
102
}
102
{ACAD_XDICTIONARY
360
21FD
102
}
330
47B
100
AcDbPlotSettings
  1

  2
HP LaserJet 2100 Series PS
  4
Letter
  6

 40
5.365749835968018
 41
5.408073902130127
 42
5.132904052734375
 43
5.090576171875
 44
215.8999938964844
 45
279.3999938964844
 46
0.0
 47
0.0
 48
0.0
 49
0.0
140
0.0
141
0.0
142
1.0
143
1.0
 70
 11952
 72
     0
 73
     1
 74
     0
  7

 75
     0
147
1.0
148
-235.8358304326739
149
124.3460344986174
100
AcDbLayout
  1
Model
 70
     1
 71
     0
 10
0.0
 20
0.0
 11
12.0
 21
9.0
 12
0.0
 22
0.0
 32
0.0
 14
0.0
 24
0.0
 34
0.0
 15
0.0
 25
0.0
 35
0.0
146
0.0
 13
0.0
 23
0.0
 33
0.0
 16
1.0
 26
0.0
 36
0.0
 17
0.0
 27
1.0
 37
0.0
 76
     0
330
17
  0
MLINESTYLE
  5
1B
102
{ACAD_REACTORS
330
1A
102
}
330
1A
100
AcDbMlineStyle
  2
STANDARD
 70
     0
  3

 62
   256
 51
90.0
 52
90.0
 71
     2
 49
0.5
 62
   256
  6
BYLAYER
 49
-0.5
 62
   256
  6
BYLAYER
  0
ACDBPLACEHOLDER
  5
47A
102
{ACAD_REACTORS
330
479
102
}
330
479
  0
ACAD_PROXY_OBJECT
  5
21E9
102
{ACAD_REACTORS
330
21E8
102
}
330
21E8
100
AcDbProxyObject
 90
      499
 91
      517
 95
   983063
 70
     0
 93
     1841
310
4214DD185B99185C9928B81E85EB51B8AE3F2E07A17AD46E2B8FC02B5E8DC0F42B1CFD028000000C1008070000C3001FDFF8000000C1003FBFF000000182007F7FE00000030400FEFFC00000060801FDFF8000000C1003FBFF00000018200000000000000681FA0B0000001820100E000186003FBFF000000182007F7FE000
310
00030400FEFFC00000060801FDFF8000000C1003FBFF000000182007F7FE000000304000AD7A3703D0AC73F4160000003040201C00030C007F7FE00000030400FEFFC00000060801FDFF8000000C1003FBFF000000182007F7FE00000030400FEFFC000000608000
340
F
340
F
340
F
 94
        0
  0
XRECORD
  5
21F9
102
{ACAD_REACTORS
330
21F8
102
}
330
21F8
100
AcDbXrecord
340
21E7
  0
XRECORD
  5
21FA
102
{ACAD_REACTORS
330
21F8
102
}
330
21F8
100
AcDbXrecord
340
21E6
  0
DICTIONARYVAR
  5
21F5
102
{ACAD_REACTORS
330
49
102
}
330
49
100
DictionaryVariables
280
     0
  1
STANDARD
  0
DICTIONARYVAR
  5
4A
102
{ACAD_REACTORS
330
49
102
}
330
49
100
DictionaryVariables
280
     0
  1
0
  0
DICTIONARY
  5
21FB
330
47E
100
AcDbDictionary
280
     1
281
     1
  3
ACAD_XREC_ROUNDTRIP
360
21FC
  0
DICTIONARY
  5
21FD
330
47D
100
AcDbDictionary
280
     1
281
     1
  3
ACAD_XREC_ROUNDTRIP
360
21FE
  0
XRECORD
  5
21FC
102
{ACAD_REACTORS
330
21FB
102
}
330
21FB
100
AcDbXrecord
102
SHADEPLOT
 70
     0
102
SHADEPLOTRESLEVEL
 70
     2
102
SHADEPLOTCUSTOMDPI
 70
   300
  0
XRECORD
  5
21FE
102
{ACAD_REACTORS
330
21FD
102
}
330
21FD
100
AcDbXrecord
102
SHADEPLOT
 70
     0
102
SHADEPLOTRESLEVEL
 70
     2
102
SHADEPLOTCUSTOMDPI
 70
   300
  0
ENDSEC
  0
EOF
