  0
SECTION
  2
HEADER
  9
$ACADVER
  1
AC1015
  9
$ACADMAINTVER
 70
     6
  9
$DWGCODEPAGE
  3
ANSI_1252
  9
$INSBASE
 10
0.0
 20
0.0
 30
0.0
  9
$EXTMIN
 10
-8.317620976608673
 20
25.93378258681877
 30
0.0
  9
$EXTMAX
 10
-5.142474873540798
 20
29.33948063835271
 30
0.0
  9
$LIMMIN
 10
0.0
 20
0.0
  9
$LIMMAX
 10
32.0
 20
42.0
  9
$ORTHOMODE
 70
     0
  9
$REGENMODE
 70
     1
  9
$FILLMODE
 70
     1
  9
$QTEXTMODE
 70
     0
  9
$MIRRTEXT
 70
     0
  9
$LTSCALE
 40
0.5
  9
$ATTMODE
 70
     1
  9
$TEXTSIZE
 40
0.36
  9
$TRACEWID
 40
0.05
  9
$TEXTSTYLE
  7
STANDARD
  9
$CLAYER
  8
0
  9
$CELTYPE
  6
BYLAYER
  9
$CECOLOR
 62
   256
  9
$CELTSCALE
 40
1.0
  9
$DISPSILH
 70
     0
  9
$DIMSCALE
 40
4.0
  9
$DIMASZ
 40
0.1
  9
$DIMEXO
 40
0.062
  9
$DIMDLI
 40
0.375
  9
$DIMRND
 40
0.0
  9
$DIMDLE
 40
0.0
  9
$DIMEXE
 40
0.08
  9
$DIMTP
 40
0.0
  9
$DIMTM
 40
0.0
  9
$DIMTXT
 40
0.075
  9
$DIMCEN
 40
-0.0078125
  9
$DIMTSZ
 40
0.0
  9
$DIMTOL
 70
     0
  9
$DIMLIM
 70
     0
  9
$DIMTIH
 70
     1
  9
$DIMTOH
 70
     1
  9
$DIMSE1
 70
     0
  9
$DIMSE2
 70
     0
  9
$DIMTAD
 70
     0
  9
$DIMZIN
 70
     0
  9
$DIMBLK
  1

  9
$DIMASO
 70
     0
  9
$DIMSHO
 70
     0
  9
$DIMPOST
  1

  9
$DIMAPOST
  1

  9
$DIMALT
 70
     0
  9
$DIMALTD
 70
     2
  9
$DIMALTF
 40
25.4
  9
$DIMLFAC
 40
1.0
  9
$DIMTOFL
 70
     0
  9
$DIMTVP
 40
0.0
  9
$DIMTIX
 70
     0
  9
$DIMSOXD
 70
     0
  9
$DIMSAH
 70
     0
  9
$DIMBLK1
  1

  9
$DIMBLK2
  1

  9
$DIMSTYLE
  2
STANDARD
  9
$DIMCLRD
 70
     0
  9
$DIMCLRE
 70
     0
  9
$DIMCLRT
 70
     0
  9
$DIMTFAC
 40
1.0
  9
$DIMGAP
 40
0.09
  9
$DIMJUST
 70
     0
  9
$DIMSD1
 70
     0
  9
$DIMSD2
 70
     0
  9
$DIMTOLJ
 70
     1
  9
$DIMTZIN
 70
     0
  9
$DIMALTZ
 70
     0
  9
$DIMALTTZ
 70
     0
  9
$DIMUPT
 70
     0
  9
$DIMDEC
 70
     5
  9
$DIMTDEC
 70
     5
  9
$DIMALTU
 70
     2
  9
$DIMALTTD
 70
     2
  9
$DIMTXSTY
  7
STANDARD
  9
$DIMAUNIT
 70
     0
  9
$DIMADEC
 70
     0
  9
$DIMALTRND
 40
0.0
  9
$DIMAZIN
 70
     0
  9
$DIMDSEP
 70
    46
  9
$DIMATFIT
 70
     3
  9
$DIMFRAC
 70
     2
  9
$DIMLDRBLK
  1

  9
$DIMLUNIT
 70
     5
  9
$DIMLWD
 70
    -2
  9
$DIMLWE
 70
    -2
  9
$DIMTMOVE
 70
     2
  9
$LUNITS
 70
     2
  9
$LUPREC
 70
     4
  9
$SKETCHINC
 40
0.1
  9
$FILLETRAD
 40
0.0
  9
$AUNITS
 70
     0
  9
$AUPREC
 70
     0
  9
$MENU
  1
qa
  9
$ELEVATION
 40
0.0
  9
$PELEVATION
 40
0.0
  9
$THICKNESS
 40
0.0
  9
$LIMCHECK
 70
     0
  9
$CHAMFERA
 40
0.4375
  9
$CHAMFERB
 40
0.4375
  9
$CHAMFERC
 40
0.0
  9
$CHAMFERD
 40
0.0
  9
$SKPOLY
 70
     0
  9
$TDCREATE
 40
2452872.693529282
  9
$TDUCREATE
 40
2452873.026862616
  9
$TDUPDATE
 40
2454159.852648113
  9
$TDUUPDATE
 40
2454160.185981447
  9
$TDINDWG
 40
0.4548092593
  9
$TDUSRTIMER
 40
0.4548092593
  9
$USRTIMER
 70
     1
  9
$ANGBASE
 50
0.0
  9
$ANGDIR
 70
     0
  9
$PDMODE
 70
     0
  9
$PDSIZE
 40
0.0
  9
$PLINEWID
 40
0.0
  9
$SPLFRAME
 70
     0
  9
$SPLINETYPE
 70
     6
  9
$SPLINESEGS
 70
     8
  9
$HANDSEED
  5
2204
  9
$SURFTAB1
 70
     6
  9
$SURFTAB2
 70
     6
  9
$SURFTYPE
 70
     6
  9
$SURFU
 70
     6
  9
$SURFV
 70
     6
  9
$UCSBASE
  2

  9
$UCSNAME
  2

  9
$UCSORG
 10
0.0
 20
0.0
 30
0.0
  9
$UCSXDIR
 10
1.0
 20
0.0
 30
0.0
  9
$UCSYDIR
 10
0.0
 20
1.0
 30
0.0
  9
$UCSORTHOREF
  2

  9
$UCSORTHOVIEW
 70
     0
  9
$UCSORGTOP
 10
0.0
 20
0.0
 30
0.0
  9
$UCSORGBOTTOM
 10
0.0
 20
0.0
 30
0.0
  9
$UCSORGLEFT
 10
0.0
 20
0.0
 30
0.0
  9
$UCSORGRIGHT
 10
0.0
 20
0.0
 30
0.0
  9
$UCSORGFRONT
 10
0.0
 20
0.0
 30
0.0
  9
$UCSORGBACK
 10
0.0
 20
0.0
 30
0.0
  9
$PUCSBASE
  2

  9
$PUCSNAME
  2

  9
$PUCSORG
 10
0.0
 20
0.0
 30
0.0
  9
$PUCSXDIR
 10
1.0
 20
0.0
 30
0.0
  9
$PUCSYDIR
 10
0.0
 20
1.0
 30
0.0
  9
$PUCSORTHOREF
  2

  9
$PUCSORTHOVIEW
 70
     0
  9
$PUCSORGTOP
 10
0.0
 20
0.0
 30
0.0
  9
$PUCSORGBOTTOM
 10
0.0
 20
0.0
 30
0.0
  9
$PUCSORGLEFT
 10
0.0
 20
0.0
 30
0.0
  9
$PUCSORGRIGHT
 10
0.0
 20
0.0
 30
0.0
  9
$PUCSORGFRONT
 10
0.0
 20
0.0
 30
0.0
  9
$PUCSORGBACK
 10
0.0
 20
0.0
 30
0.0
  9
$USERI1
 70
     0
  9
$USERI2
 70
     0
  9
$USERI3
 70
     0
  9
$USERI4
 70
     0
  9
$USERI5
 70
     0
  9
$USERR1
 40
0.0
  9
$USERR2
 40
0.0
  9
$USERR3
 40
0.0
  9
$USERR4
 40
0.0
  9
$USERR5
 40
0.0
  9
$WORLDVIEW
 70
     1
  9
$SHADEDGE
 70
     3
  9
$SHADEDIF
 70
    70
  9
$TILEMODE
 70
     1
  9
$MAXACTVP
 70
    16
  9
$PINSBASE
 10
0.0
 20
0.0
 30
0.0
  9
$PLIMCHECK
 70
     0
  9
$PEXTMIN
 10
1.000000000000000E+20
 20
1.000000000000000E+20
 30
1.000000000000000E+20
  9
$PEXTMAX
 10
-1.000000000000000E+20
 20
-1.000000000000000E+20
 30
-1.000000000000000E+20
  9
$PLIMMIN
 10
0.0
 20
0.0
  9
$PLIMMAX
 10
12.0
 20
9.0
  9
$UNITMODE
 70
     0
  9
$VISRETAIN
 70
     0
  9
$PLINEGEN
 70
     0
  9
$PSLTSCALE
 70
     0
  9
$TREEDEPTH
 70
  3020
  9
$CMLSTYLE
  2
STANDARD
  9
$CMLJUST
 70
     0
  9
$CMLSCALE
 40
1.0
  9
$PROXYGRAPHICS
 70
     1
  9
$MEASUREMENT
 70
     0
  9
$CELWEIGHT
370
    -1
  9
$ENDCAPS
280
     0
  9
$JOINSTYLE
280
     0
  9
$LWDISPLAY
290
     0
  9
$INSUNITS
 70
     0
  9
$HYPERLINKBASE
  1

  9
$STYLESHEET
  1

  9
$XEDIT
290
     1
  9
$CEPSNTYPE
380
     0
  9
$PSTYLEMODE
290
     1
  9
$FINGERPRINTGUID
  2
{3F8EE252-4A01-453C-A5F5-5678F9528411}
  9
$VERSIONGUID
  2
{BAA77EB2-2B6F-4283-9E43-8483B6A151AE}
  9
$EXTNAMES
290
     1
  9
$PSVPSCALE
 40
0.0
  9
$OLESTARTUP
290
     0
  0
ENDSEC
  0
SECTION
  2
CLASSES
  0
CLASS
  1
DICTIONARYVAR
  2
AcDbDictionaryVar
  3
AutoCAD 2000
 90
        0
280
     0
281
     0
  0
CLASS
  1
LWPOLYLINE
  2
AcDbPolyline
  3
AutoCAD 2000
 90
        0
280
     0
281
     1
  0
CLASS
  1
ACDBDICTIONARYWDFLT
  2
AcDbDictionaryWithDefault
  3
AutoCAD 2000
 90
        0
280
     0
281
     0
  0
CLASS
  1
ACDBPLACEHOLDER
  2
AcDbPlaceHolder
  3
ObjectDBX Classes
 90
        0
280
     0
281
     0
  0
CLASS
  1
LAYOUT
  2
AcDbLayout
  3
ObjectDBX Classes
 90
        0
280
     0
281
     0
  0
CLASS
  1
LONG_TRANSACTION
  2
AcDbLongTransaction
  3
ObjectDBX Classes
 90
   -65536
280
     1
281
     0
  0
CLASS
  1
LWPOLYLINE
  2
AcDbPolyline
  3
AutoCAD 2000
 90
        0
280
     0
281
     1
  0
CLASS
  1
HATCH
  2
AcDbHatch
  3
AutoCAD 2000
 90
        0
280
     0
281
     1
  0
CLASS
  1
XRECORD
  2
AcDbXrecord
  3
AutoCAD 2000
 90
        0
280
     0
281
     0
  0
CLASS
  1
LONG_TRANSACTION
  2
AcDbLongTransaction
  3
ObjectDBX Classes
 90
   -65536
280
     1
281
     0
  0
CLASS
  1
LWPOLYLINE
  2
AcDbPolyline
  3
AutoCAD 2000
 90
        0
280
     0
281
     1
  0
CLASS
  1
HATCH
  2
AcDbHatch
  3
AutoCAD 2000
 90
        0
280
     0
281
     1
  0
CLASS
  1
XRECORD
  2
AcDbXrecord
  3
AutoCAD 2000
 90
        0
280
     0
281
     0
  0
CLASS
  1
LONG_TRANSACTION
  2
AcDbLongTransaction
  3
ObjectDBX Classes
 90
   -65536
280
     1
281
     0
  0
CLASS
  1
LWPOLYLINE
  2
AcDbPolyline
  3
AutoCAD 2000
 90
        0
280
     0
281
     1
  0
CLASS
  1
HATCH
  2
AcDbHatch
  3
AutoCAD 2000
 90
        0
280
     0
281
     1
  0
CLASS
  1
XRECORD
  2
AcDbXrecord
  3
AutoCAD 2000
 90
        0
280
     0
281
     0
  0
CLASS
  1
TABLESTYLE
  2
AcDbTableStyle
  3
ObjectDBX Classes
 90
     2047
280
     1
281
     0
  0
ENDSEC
  0
SECTION
  2
TABLES
  0
TABLE
  2
VPORT
  5
8
330
0
100
AcDbSymbolTable
 70
     2
  0
VPORT
  5
21F4
330
8
100
AcDbSymbolTableRecord
100
AcDbViewportTableRecord
  2
*Active
 70
     0
 10
0.0
 20
0.0
 11
1.0
 21
1.0
 12
-3.724421356507586
 22
28.16281026495327
 13
0.0
 23
0.0
 14
0.063
 24
0.063
 15
0.25
 25
0.25
 16
0.0
 26
0.0
 36
1.0
 17
0.0
 27
0.0
 37
0.0
 40
9.365009678640291
 41
1.814583333333334
 42
50.0
 43
0.0
 44
0.0
 50
0.0
 51
0.0
 71
     0
 72
   100
 73
     1
 74
     0
 75
     0
 76
     0
 77
     0
 78
     0
281
     0
 65
     1
110
0.0
120
0.0
130
0.0
111
1.0
121
0.0
131
0.0
112
0.0
122
1.0
132
0.0
 79
     0
146
0.0
  0
ENDTAB
  0
TABLE
  2
LTYPE
  5
5
330
0
100
AcDbSymbolTable
 70
     3
  0
LTYPE
  5
11
330
5
100
AcDbSymbolTableRecord
100
AcDbLinetypeTableRecord
  2
BYBLOCK
 70
     0
  3

 72
    65
 73
     0
 40
0.0
  0
LTYPE
  5
12
330
5
100
AcDbSymbolTableRecord
100
AcDbLinetypeTableRecord
  2
BYLAYER
 70
     0
  3

 72
    65
 73
     0
 40
0.0
  0
LTYPE
  5
13
330
5
100
AcDbSymbolTableRecord
100
AcDbLinetypeTableRecord
  2
CONTINUOUS
 70
     0
  3
Solid line
 72
    65
 73
     0
 40
0.0
  0
LTYPE
  5
2B
330
5
100
AcDbSymbolTableRecord
100
AcDbLinetypeTableRecord
  2
HIDDEN
 70
     0
  3
_ _ _ _ _ _ _ _ _ _ _ _ _ _ _ _ _ _ _ _ _ _ _
 72
    65
 73
     2
 40
0.375
 49
0.25
 74
     0
 49
-0.125
 74
     0
  0
LTYPE
  5
49E
330
5
100
AcDbSymbolTableRecord
100
AcDbLinetypeTableRecord
  2
HIDDEN2
 70
     0
  3
Hidden (.5x) _ _ _ _ _ _ _ _ _ _ _ _ _ _ _ _ _
 72
    65
 73
     2
 40
0.1875
 49
0.125
 74
     0
 49
-0.0625
 74
     0
  0
ENDTAB
  0
TABLE
  2
LAYER
  5
2
102
{ACAD_XDICTIONARY
360
21F1
102
}
330
0
100
AcDbSymbolTable
 70
     6
  0
LAYER
  5
E
330
2
100
AcDbSymbolTableRecord
100
AcDbLayerTableRecord
  2
0
 70
     0
 62
     7
  6
CONTINUOUS
370
    -3
390
47A
  0
LAYER
  5
37
330
2
100
AcDbSymbolTableRecord
100
AcDbLayerTableRecord
  2
DIM
 70
     0
 62
     5
  6
CONTINUOUS
370
    -3
390
47A
  0
ENDTAB
  0
TABLE
  2
STYLE
  5
3
330
0
100
AcDbSymbolTable
 70
     1
  0
STYLE
  5
F
330
3
100
AcDbSymbolTableRecord
100
AcDbTextStyleTableRecord
  2
STANDARD
 70
     0
 40
0.0
 41
1.0
 50
0.0
 71
     0
 42
0.36
  3
TXT
  4

  0
ENDTAB
  0
TABLE
  2
VIEW
  5
6
330
0
100
AcDbSymbolTable
 70
     0
  0
ENDTAB
  0
TABLE
  2
UCS
  5
7
330
0
100
AcDbSymbolTable
 70
     0
  0
ENDTAB
  0
TABLE
  2
APPID
  5
9
330
0
100
AcDbSymbolTable
 70
     2
  0
APPID
  5
10
330
9
100
AcDbSymbolTableRecord
100
AcDbRegAppTableRecord
  2
ACAD
 70
     0
  0
APPID
  5
DA7
330
9
100
AcDbSymbolTableRecord
100
AcDbRegAppTableRecord
  2
RAK
 70
     0
  0
ENDTAB
  0
TABLE
  2
DIMSTYLE
  5
A
330
0
100
AcDbSymbolTable
 70
     1
100
AcDbDimStyleTable
  0
DIMSTYLE
105
465
330
A
100
AcDbSymbolTableRecord
100
AcDbDimStyleTableRecord
  2
STANDARD
 70
     0
  3

  4

340
F
  0
ENDTAB
  0
TABLE
  2
BLOCK_RECORD
  5
1
330
0
100
AcDbSymbolTable
 70
     0
  0
BLOCK_RECORD
  5
17
330
1
100
AcDbSymbolTableRecord
100
AcDbBlockTableRecord
  2
*MODEL_SPACE
340
47D
  0
BLOCK_RECORD
  5
14
330
1
100
AcDbSymbolTableRecord
100
AcDbBlockTableRecord
  2
*PAPER_SPACE
340
47E
  0
ENDTAB
  0
ENDSEC
  0
SECTION
  2
BLOCKS
  0
BLOCK
  5
47
330
17
100
AcDbEntity
  8
0
100
AcDbBlockBegin
  2
*MODEL_SPACE
 70
     0
 10
0.0
 20
0.0
 30
0.0
  3
*MODEL_SPACE
  1

  4

  0
ENDBLK
  5
48
330
17
100
AcDbEntity
  8
0
100
AcDbBlockEnd
  0
BLOCK
  5
45
330
14
100
AcDbEntity
 67
     1
  8
0
100
AcDbBlockBegin
  2
*PAPER_SPACE
 70
     0
 10
0.0
 20
0.0
 30
0.0
  3
*PAPER_SPACE
  1

  4

  0
ENDBLK
  5
46
330
14
100
AcDbEntity
 67
     1
  8
0
100
AcDbBlockEnd
  0
ENDSEC
  0
SECTION
  2
ENTITIES
  0
TEXT
  5
3A7
330
17
100
AcDbEntity
  8
DIM
100
AcDbText
 10
14.93846334400804
 20
21.0944638759405
 30
0.0
 40
0.36
  1
   
 50
359.9999999999988
 11
14.93846334400805
 21
21.2744638759405
 31
0.0
100
AcDbText
 73
     2
  0
TEXT
  5
400
330
17
100
AcDbEntity
  8
DIM
100
AcDbText
 10
13.55232669162669
 20
10.34149078419337
 30
0.0
 40
0.36
  1
   
 72
     1
 11
14.09232669162669
 21
10.52149078419336
 31
0.0
100
AcDbText
 73
     2
  0
LINE
  5
1BF8
330
17
100
AcDbEntity
  8
0
100
AcDbLine
 10
-5.730047925074736
 20
29.24628258681877
 30
0.0
 11
-7.730047925074732
 21
29.24628258681877
 31
0.0
  0
LINE
  5
1F99
330
17
100
AcDbEntity
  8
0
100
AcDbLine
 10
-8.224422925074727
 20
25.93378258681877
 30
0.0
 11
-5.235672925074745
 21
25.93378258681877
 31
0.0
  0
ELLIPSE
  5
2119
330
17
100
AcDbEntity
  8
0
100
AcDbEllipse
 10
-5.955686733501025
 20
26.46503258681877
 30
0.0
 11
0.0
 21
-0.34375
 31
0.0
210
0.0
220
0.0
230
1.0
 40
0.8181818181818156
 41
0.0
 42
6.283185307179586
  0
ELLIPSE
  5
211A
330
17
100
AcDbEntity
  8
0
100
AcDbEllipse
 10
-5.955686733501025
 20
26.46503258681877
 30
0.0
 11
0.0
 21
-0.2578125
 31
0.0
210
0.0
220
0.0
230
1.0
 40
0.8181818181818156
 41
0.0
 42
6.283185307179586
  0
ELLIPSE
  5
211B
330
17
100
AcDbEntity
  8
0
100
AcDbEllipse
 10
-7.504409116648361
 20
26.46503258681877
 30
0.0
 11
0.0
 21
-0.2578125
 31
0.0
210
0.0
220
0.0
230
-1.0
 40
0.8181818181818156
 41
0.0
 42
6.283185307179586
  0
ELLIPSE
  5
211C
330
17
100
AcDbEntity
  8
0
100
AcDbEllipse
 10
-7.504409116648361
 20
26.46503258681877
 30
0.0
 11
0.0
 21
-0.34375
 31
0.0
210
0.0
220
0.0
230
-1.0
 40
0.8181818181818156
 41
0.0
 42
6.283185307179586
  0
LINE
  5
211E
330
17
100
AcDbEntity
  8
0
100
AcDbLine
 10
-7.992791770774723
 20
28.87128258681877
 30
0.0
 11
-5.467304079374742
 21
28.87128258681877
 31
0.0
  0
LINE
  5
211F
330
17
100
AcDbEntity
  8
0
  6
HIDDEN
100
AcDbLine
 10
-7.948416770774692
 20
28.62128258681877
 30
0.0
 11
-5.511679079374698
 21
28.62128258681877
 31
0.0
  0
LINE
  5
2120
330
17
100
AcDbEntity
  8
0
  6
HIDDEN
100
AcDbLine
 10
-7.962102052174693
 20
27.12276427711876
 30
0.0
 11
-5.511679079374698
 21
27.12128258681877
 31
0.0
  0
LINE
  5
2121
330
17
100
AcDbEntity
  8
0
100
AcDbLine
 10
-7.992791770774723
 20
26.87128258681877
 30
0.0
 11
-5.467304079374742
 21
26.87128258681877
 31
0.0
  0
LINE
  5
2122
330
17
100
AcDbEntity
  8
0
100
AcDbLine
 10
-8.224422925074727
 20
25.93378258681877
 30
0.0
 11
-8.224422925074727
 21
28.79628258681876
 31
0.0
  0
LINE
  5
2123
330
17
100
AcDbEntity
  8
0
100
AcDbLine
 10
-8.086922925074724
 20
28.20628253001877
 30
0.0
 11
-8.086922925074724
 21
28.37128258681877
 31
0.0
  0
ARC
  5
2126
330
17
100
AcDbEntity
  8
0
100
AcDbCircle
 10
-7.774422925074727
 20
28.79628258681876
 30
0.0
 40
0.45
100
AcDbArc
 50
90.00000000000003
 51
180.0
  0
ARC
  5
2127
330
17
100
AcDbEntity
  8
0
100
AcDbCircle
 10
-7.711922925074724
 20
28.73378258681876
 30
0.0
 40
0.375
100
AcDbArc
 50
90.00000000000003
 51
180.0
  0
LWPOLYLINE
  5
2128
330
17
100
AcDbEntity
  8
0
100
AcDbPolyline
 90
       11
 70
     0
 43
0.0
 10
-8.086922925074724
 20
28.37227122651876
 10
-8.086907051474725
 20
28.45229692561877
 10
-8.086680631574723
 20
28.52985604301877
 10
-8.085758093174725
 20
28.60233166141877
 10
-8.083440591474727
 20
28.66832282101876
 10
-8.078802784974727
 20
28.72758065601877
 10
-8.070928238374727
 20
28.77796007291877
 10
-8.059083010374728
 20
28.81794298831876
 10
-8.042331390374727
 20
28.84740437071876
 10
-8.020162330674729
 20
28.86535582701876
 10
-7.992791770774723
 20
28.87128258681877
  0
LWPOLYLINE
  5
2129
330
17
100
AcDbEntity
  8
0
100
AcDbPolyline
 90
       10
 70
     0
 43
0.0
 10
-8.086907051474725
 20
28.41178975621877
 10
-8.086680631574723
 20
28.45056931491877
 10
-8.085758093174725
 20
28.48680712411877
 10
-8.083440591474727
 20
28.51980270391876
 10
-8.078802784974727
 20
28.54943162141876
 10
-8.070928238374727
 20
28.57462132991876
 10
-8.059083010374728
 20
28.59461278761877
 10
-8.042331390374727
 20
28.60934347881876
 10
-8.020162330674729
 20
28.61831920691876
 10
-7.992791770774723
 20
28.62128258681877
  0
LINE
  5
212B
330
17
100
AcDbEntity
  8
0
100
AcDbLine
 10
-8.086923120274726
 20
28.37128258681877
 30
0.0
 11
-8.086922728074725
 21
28.37227122641876
 31
0.0
  0
LINE
  5
212C
330
17
100
AcDbEntity
  8
0
100
AcDbLine
 10
-8.086922925074724
 20
25.93378258681877
 30
0.0
 11
-8.086922925074724
 21
28.23378258681876
 31
0.0
  0
LWPOLYLINE
  5
212D
330
17
100
AcDbEntity
  8
0
100
AcDbPolyline
 90
       11
 70
     0
 43
0.0
 10
-7.992791770774723
 20
26.87128258681877
 10
-8.020162333574724
 20
26.87720934801877
 10
-8.042331394874722
 20
26.89516080841877
 10
-8.05908301527473
 20
26.92462219741876
 10
-8.070928242874722
 20
26.96460512161876
 10
-8.078802788474725
 20
27.01498454941876
 10
-8.083440593774725
 20
27.07424239611876
 10
-8.085758094374725
 20
27.14023356821876
 10
-8.086680631974723
 20
27.21270920001876
 10
-8.086907051574727
 20
27.29026833011876
 10
-8.086922925074724
 20
27.37029403991876
  0
LWPOLYLINE
  5
212E
330
17
100
AcDbEntity
  8
0
100
AcDbPolyline
 90
       10
 70
     0
 43
0.0
 10
-7.992791770774723
 20
27.12128258681877
 10
-8.020162333574724
 20
27.12424596741877
 10
-8.042331394874722
 20
27.13322169761877
 10
-8.05908301527473
 20
27.14795239211876
 10
-8.070928242874722
 20
27.16794385421876
 10
-8.078802788474725
 20
27.19313356811877
 10
-8.083440593774725
 20
27.22276249151877
 10
-8.085758094374725
 20
27.25575807751876
 10
-8.086680631974723
 20
27.29199589341877
 10
-8.086907051574727
 20
27.33077545851877
  0
LINE
  5
212F
330
17
100
AcDbEntity
  8
0
100
AcDbLine
 10
-8.086922925074724
 20
27.53628253001877
 30
0.0
 11
-8.032547826624722
 21
27.53628253001877
 31
0.0
  0
LINE
  5
2130
330
17
100
AcDbEntity
  8
0
100
AcDbLine
 10
-8.032547826624722
 20
28.20628253001877
 30
0.0
 11
-8.086922925074724
 21
28.20628253001877
 31
0.0
  0
LINE
  5
2132
330
17
100
AcDbEntity
  8
0
100
AcDbLine
 10
-8.086922925074724
 20
27.37029403991876
 30
0.0
 11
-8.086922925074724
 21
27.53628253001877
 31
0.0
  0
LINE
  5
2133
330
17
100
AcDbEntity
  8
0
100
AcDbLine
 10
-8.016922826624722
 20
27.55190753001877
 30
0.0
 11
-8.016922826624722
 21
28.19065753001877
 31
0.0
  0
ARC
  5
2134
330
17
100
AcDbEntity
  8
0
100
AcDbCircle
 10
-8.032547826624722
 20
28.19065753001877
 30
0.0
 40
0.015625
100
AcDbArc
 50
359.9999999999998
 51
89.99999999999982
  0
ARC
  5
2135
330
17
100
AcDbEntity
  8
0
100
AcDbCircle
 10
-8.032547826624722
 20
27.55190753001877
 30
0.0
 40
0.015625
100
AcDbArc
 50
269.9999999999998
 51
359.9999999999998
  0
LINE
  5
2136
330
17
100
AcDbEntity
  8
0
100
AcDbLine
 10
-5.235672925074745
 20
25.93378258681877
 30
0.0
 11
-5.235672925074745
 21
28.79628258681876
 31
0.0
  0
LINE
  5
2137
330
17
100
AcDbEntity
  8
0
100
AcDbLine
 10
-5.373172925074741
 20
28.37227103511876
 30
0.0
 11
-5.373172957693392
 21
28.20628253001877
 31
0.0
  0
ARC
  5
2139
330
17
100
AcDbEntity
  8
0
100
AcDbCircle
 10
-5.685672925074744
 20
28.79628258681876
 30
0.0
 40
0.45
100
AcDbArc
 50
0.0
 51
90.00000000000003
  0
ARC
  5
213A
330
17
100
AcDbEntity
  8
0
100
AcDbCircle
 10
-5.748172925074741
 20
28.73378258681876
 30
0.0
 40
0.375
100
AcDbArc
 50
0.0
 51
90.00000000000003
  0
LWPOLYLINE
  5
213B
330
17
100
AcDbEntity
  8
0
100
AcDbPolyline
 90
       10
 70
     0
 43
0.0
 10
-5.467304079374742
 20
28.62128258681877
 10
-5.439933513574744
 20
28.61831920551876
 10
-5.417764450574737
 20
28.60934347311877
 10
-5.401012829674741
 20
28.59461277511876
 10
-5.389167602474743
 20
28.57462130831877
 10
-5.381293057874743
 20
28.54943158871876
 10
-5.376655253874738
 20
28.51980265911877
 10
-5.374337754474738
 20
28.48680706641876
 10
-5.37341521767474
 20
28.45056924341876
 10
-5.373188798574745
 20
28.41178967161876
  0
LWPOLYLINE
  5
213C
330
17
100
AcDbEntity
  8
0
100
AcDbPolyline
 90
       11
 70
     0
 43
0.0
 10
-5.467304079374742
 20
28.87128258681877
 10
-5.439933513574744
 20
28.86535582421877
 10
-5.417764450574737
 20
28.84740435941876
 10
-5.401012829674741
 20
28.81794296351876
 10
-5.389167602474743
 20
28.77796002981877
 10
-5.381293057874743
 20
28.72758059061876
 10
-5.376655253874738
 20
28.66832273131877
 10
-5.374337754474738
 20
28.60233154591876
 10
-5.37341521767474
 20
28.52985590001877
 10
-5.373188798574745
 20
28.45229675631876
 10
-5.373172925074741
 20
28.37227103511876
  0
CIRCLE
  5
2143
330
17
100
AcDbEntity
  8
0
100
AcDbCircle
 10
-6.730047925074686
 20
27.87128258681877
 30
0.0
 40
0.46875
  0
LINE
  5
2147
330
17
100
AcDbEntity
  8
0
100
AcDbLine
 10
-5.373172925074741
 20
25.93378258681877
 30
0.0
 11
-5.373172925074741
 21
28.23378258681876
 31
0.0
  0
LWPOLYLINE
  5
2148
330
17
100
AcDbEntity
  8
0
100
AcDbPolyline
 90
       11
 70
     0
 43
0.0
 10
-5.373172925074741
 20
27.37029402491876
 10
-5.373188798574745
 20
27.29026831681877
 10
-5.373415218274737
 20
27.21270918871876
 10
-5.374337755874741
 20
27.14023355911877
 10
-5.376655256674738
 20
27.07424238911877
 10
-5.381293062174741
 20
27.01498454421876
 10
-5.389167607974741
 20
26.96460511821876
 10
-5.401012835674742
 20
26.92462219541876
 10
-5.417764456074742
 20
26.89516080751876
 10
-5.439933517074742
 20
26.87720934781876
 10
-5.467304079374742
 20
26.87128258681877
  0
LWPOLYLINE
  5
2149
330
17
100
AcDbEntity
  8
0
100
AcDbPolyline
 90
       10
 70
     0
 43
0.0
 10
-5.373188798574745
 20
27.33077545181877
 10
-5.373415218274737
 20
27.29199588781876
 10
-5.374337755874741
 20
27.25575807301877
 10
-5.376655256674738
 20
27.22276248791876
 10
-5.381293062174741
 20
27.19313356551876
 10
-5.389167607974741
 20
27.16794385251877
 10
-5.401012835674742
 20
27.14795239111876
 10
-5.417764456074742
 20
27.13322169721877
 10
-5.439933517074742
 20
27.12424596731877
 10
-5.467304079374742
 20
27.12128258681877
  0
LINE
  5
214A
330
17
100
AcDbEntity
  8
0
100
AcDbLine
 10
-5.443173023524743
 20
27.55190753001877
 30
0.0
 11
-5.443173023524743
 21
28.19065753001877
 31
0.0
  0
LINE
  5
214B
330
17
100
AcDbEntity
  8
0
100
AcDbLine
 10
-5.427548023524743
 20
28.20628253001877
 30
0.0
 11
-5.373172957693392
 21
28.20628253001877
 31
0.0
  0
ARC
  5
214C
330
17
100
AcDbEntity
  8
0
100
AcDbCircle
 10
-5.427548023524743
 20
28.19065753001877
 30
0.0
 40
0.015625
100
AcDbArc
 50
90.00000000000003
 51
180.0
  0
LINE
  5
214D
330
17
100
AcDbEntity
  8
0
100
AcDbLine
 10
-5.373173089356094
 20
27.53628253001877
 30
0.0
 11
-5.427548023524743
 21
27.53628253001877
 31
0.0
  0
ARC
  5
214E
330
17
100
AcDbEntity
  8
0
100
AcDbCircle
 10
-5.427548023524743
 20
27.55190753001877
 30
0.0
 40
0.015625
100
AcDbArc
 50
180.0
 51
270.0
  0
LINE
  5
214F
330
17
100
AcDbEntity
  8
0
100
AcDbLine
 10
-5.373173089356094
 20
27.53628253001877
 30
0.0
 11
-5.373173121974737
 21
27.37029402491876
 31
0.0
  0
LINE
  5
2150
330
17
100
AcDbEntity
  8
0
100
AcDbLine
 10
-5.685672925074744
 20
29.24628258681877
 30
0.0
 11
-7.774422925074727
 21
29.24628258681877
 31
0.0
  0
LINE
  5
2151
330
17
100
AcDbEntity
  8
0
100
AcDbLine
 10
-5.748172925074741
 20
29.10878258681876
 30
0.0
 11
-7.711922925074724
 21
29.10878258681876
 31
0.0
  0
ARC
  5
21C7
330
17
100
AcDbEntity
  8
0
100
AcDbCircle
 10
-6.730146795717587
 20
27.79712769630105
 30
0.0
 40
0.5625
100
AcDbArc
 50
180.0
 51
0.0
  0
ARC
  5
21C8
330
17
100
AcDbEntity
  8
0
100
AcDbCircle
 10
-6.730146795717587
 20
27.92212769630106
 30
0.0
 40
0.5625
100
AcDbArc
 50
0.0
 51
180.0
  0
LINE
  5
21C9
330
17
100
AcDbEntity
  8
0
100
AcDbLine
 10
-7.292646795717587
 20
27.79712769630105
 30
0.0
 11
-7.292646795717587
 21
27.92212769630106
 31
0.0
  0
LINE
  5
21CA
330
17
100
AcDbEntity
  8
0
100
AcDbLine
 10
-6.167646795717587
 20
27.79712769630105
 30
0.0
 11
-6.167646795717587
 21
27.92212769630106
 31
0.0
  0
ENDSEC
  0
SECTION
  2
OBJECTS
  0
DICTIONARY
  5
C
330
0
100
AcDbDictionary
281
     1
  3
ACAD_COLOR
350
21EC
  3
ACAD_GROUP
350
D
  3
ACAD_LAYOUT
350
47B
  3
ACAD_MATERIAL
350
21EB
  3
ACAD_MLINESTYLE
350
1A
  3
ACAD_PLOTSETTINGS
350
47C
  3
ACAD_PLOTSTYLENAME
350
479
  3
ACAD_TABLESTYLE
350
21ED
  3
ACDBHEADERROUNDTRIPXREC
350
21FD
  3
ACDBVARIABLEDICTIONARY
350
49
  0
DICTIONARY
  5
21F1
330
2
100
AcDbDictionary
280
     1
281
     1
  3
ACAD_LAYERFILTERS
360
21F3
  3
ACLYDICTIONARY
360
21F2
  0
DICTIONARY
  5
21EC
102
{ACAD_REACTORS
330
C
102
}
330
C
100
AcDbDictionary
281
     1
  0
DICTIONARY
  5
D
102
{ACAD_REACTORS
330
C
102
}
330
C
100
AcDbDictionary
281
     1
  0
DICTIONARY
  5
47B
102
{ACAD_REACTORS
330
C
102
}
330
C
100
AcDbDictionary
281
     1
  3
Layout1
350
47E
  3
Model
350
47D
  0
DICTIONARY
  5
21EB
102
{ACAD_REACTORS
330
C
102
}
330
C
100
AcDbDictionary
281
     1
  0
DICTIONARY
  5
1A
102
{ACAD_REACTORS
330
C
102
}
330
C
100
AcDbDictionary
281
     1
  3
STANDARD
350
1B
  0
DICTIONARY
  5
47C
102
{ACAD_REACTORS
330
C
102
}
330
C
100
AcDbDictionary
281
     1
  0
ACDBDICTIONARYWDFLT
  5
479
102
{ACAD_REACTORS
330
C
102
}
330
C
100
AcDbDictionary
281
     1
  3
Normal
350
47A
100
AcDbDictionaryWithDefault
340
47A
  0
DICTIONARY
  5
21ED
102
{ACAD_REACTORS
330
C
102
}
330
C
100
AcDbDictionary
281
     1
  3
Standard
350
21EE
  0
DICTIONARY
  5
21FD
102
{ACAD_REACTORS
330
C
102
}
330
C
100
AcDbDictionary
281
     1
  3
COLORDICT
350
21FE
  3
MATERIALDICT
350
21FF
  0
DICTIONARY
  5
49
102
{ACAD_REACTORS
330
C
102
}
330
C
100
AcDbDictionary
281
     1
  3
CTABLESTYLE
350
21FA
  3
DIMADEC
350
4A
  0
DICTIONARY
  5
21F3
102
{ACAD_REACTORS
330
21F1
102
}
330
21F1
100
AcDbDictionary
281
     1
  0
DICTIONARY
  5
21F2
102
{ACAD_REACTORS
330
21F1
102
}
330
21F1
100
AcDbDictionary
281
     1
1001
ACAD
1000
<All
  0
LAYOUT
  5
47E
102
{ACAD_REACTORS
330
47B
102
}
102
{ACAD_XDICTIONARY
360
2200
102
}
330
47B
100
AcDbPlotSettings
  1

  2
hp psc 2100 series
  4

  6

 40
0.0
 41
0.0
 42
0.0
 43
0.0
 44
0.0
 45
0.0
 46
0.0
 47
0.0
 48
0.0
 49
0.0
140
0.0
141
0.0
142
1.0
143
1.0
 70
   688
 72
     0
 73
     0
 74
     5
  7

 75
    16
147
1.0
148
0.0
149
0.0
100
AcDbLayout
  1
Layout1
 70
     0
 71
     1
 10
0.0
 20
0.0
 11
12.0
 21
9.0
 12
0.0
 22
0.0
 32
0.0
 14
1.000000000000000E+20
 24
1.000000000000000E+20
 34
1.000000000000000E+20
 15
-1.000000000000000E+20
 25
-1.000000000000000E+20
 35
-1.000000000000000E+20
146
0.0
 13
0.0
 23
0.0
 33
0.0
 16
1.0
 26
0.0
 36
0.0
 17
0.0
 27
1.0
 37
0.0
 76
     0
330
14
  0
LAYOUT
  5
47D
102
{ACAD_REACTORS
330
47B
102
}
102
{ACAD_XDICTIONARY
360
2202
102
}
330
47B
100
AcDbPlotSettings
  1

  2
HP LaserJet 2100 Series PS
  4
Letter
  6

 40
5.365749835968018
 41
5.408073902130127
 42
5.132904052734375
 43
5.090576171875
 44
215.8999938964844
 45
279.3999938964844
 46
0.0
 47
0.0
 48
0.0
 49
0.0
140
0.0
141
0.0
142
1.0
143
1.0
 70
 11952
 72
     0
 73
     1
 74
     0
  7

 75
     0
147
1.0
148
-235.8358304326739
149
124.3460344986174
100
AcDbLayout
  1
Model
 70
     1
 71
     0
 10
0.0
 20
0.0
 11
12.0
 21
9.0
 12
0.0
 22
0.0
 32
0.0
 14
0.0
 24
0.0
 34
0.0
 15
0.0
 25
0.0
 35
0.0
146
0.0
 13
0.0
 23
0.0
 33
0.0
 16
1.0
 26
0.0
 36
0.0
 17
0.0
 27
1.0
 37
0.0
 76
     0
330
17
  0
MLINESTYLE
  5
1B
102
{ACAD_REACTORS
330
1A
102
}
330
1A
100
AcDbMlineStyle
  2
STANDARD
 70
     0
  3

 62
   256
 51
90.0
 52
90.0
 71
     2
 49
0.5
 62
   256
  6
BYLAYER
 49
-0.5
 62
   256
  6
BYLAYER
  0
ACDBPLACEHOLDER
  5
47A
102
{ACAD_REACTORS
330
479
102
}
330
479
  0
ACAD_PROXY_OBJECT
  5
21EE
102
{ACAD_REACTORS
330
21ED
102
}
330
21ED
100
AcDbProxyObject
 90
      499
 91
      517
 95
   983063
 70
     0
 93
     1841
310
4214DD185B99185C9928B81E85EB51B8AE3F2E07A17AD46E2B8FC02B5E8DC0F42B1CFD028000000C1008070000C3001FDFF8000000C1003FBFF000000182007F7FE00000030400FEFFC00000060801FDFF8000000C1003FBFF00000018200000000000000681FA0B0000001820100E000186003FBFF000000182007F7FE000
310
00030400FEFFC00000060801FDFF8000000C1003FBFF000000182007F7FE000000304000AD7A3703D0AC73F4160000003040201C00030C007F7FE00000030400FEFFC00000060801FDFF8000000C1003FBFF000000182007F7FE00000030400FEFFC000000608000
340
F
340
F
340
F
 94
        0
  0
XRECORD
  5
21FE
102
{ACAD_REACTORS
330
21FD
102
}
330
21FD
100
AcDbXrecord
340
21EC
  0
XRECORD
  5
21FF
102
{ACAD_REACTORS
330
21FD
102
}
330
21FD
100
AcDbXrecord
340
21EB
  0
DICTIONARYVAR
  5
21FA
102
{ACAD_REACTORS
330
49
102
}
330
49
100
DictionaryVariables
280
     0
  1
STANDARD
  0
DICTIONARYVAR
  5
4A
102
{ACAD_REACTORS
330
49
102
}
330
49
100
DictionaryVariables
280
     0
  1
0
  0
DICTIONARY
  5
2200
330
47E
100
AcDbDictionary
280
     1
281
     1
  3
ACAD_XREC_ROUNDTRIP
360
2201
  0
DICTIONARY
  5
2202
330
47D
100
AcDbDictionary
280
     1
281
     1
  3
ACAD_XREC_ROUNDTRIP
360
2203
  0
XRECORD
  5
2201
102
{ACAD_REACTORS
330
2200
102
}
330
2200
100
AcDbXrecord
102
SHADEPLOT
 70
     0
102
SHADEPLOTRESLEVEL
 70
     2
102
SHADEPLOTCUSTOMDPI
 70
   300
  0
XRECORD
  5
2203
102
{ACAD_REACTORS
330
2202
102
}
330
2202
100
AcDbXrecord
102
SHADEPLOT
 70
     0
102
SHADEPLOTRESLEVEL
 70
     2
102
SHADEPLOTCUSTOMDPI
 70
   300
  0
ENDSEC
  0
EOF
