  0
SECTION
  2
HEADER
  9
$ACADVER
  1
AC1015
  9
$ACADMAINTVER
 70
     6
  9
$DWGCODEPAGE
  3
ANSI_1252
  9
$INSBASE
 10
0.0
 20
0.0
 30
0.0
  9
$EXTMIN
 10
-8.317620976608673
 20
-1.065803354211847
 30
0.0
  9
$EXTMAX
 10
7.492246778226845
 20
29.33948063835271
 30
0.0
  9
$LIMMIN
 10
0.0
 20
0.0
  9
$LIMMAX
 10
32.0
 20
42.0
  9
$ORTHOMODE
 70
     0
  9
$REGENMODE
 70
     1
  9
$FILLMODE
 70
     1
  9
$QTEXTMODE
 70
     0
  9
$MIRRTEXT
 70
     0
  9
$LTSCALE
 40
0.5
  9
$ATTMODE
 70
     1
  9
$TEXTSIZE
 40
0.36
  9
$TRACEWID
 40
0.05
  9
$TEXTSTYLE
  7
STANDARD
  9
$CLAYER
  8
0
  9
$CELTYPE
  6
BYLAYER
  9
$CECOLOR
 62
   256
  9
$CELTSCALE
 40
1.0
  9
$DISPSILH
 70
     0
  9
$DIMSCALE
 40
4.0
  9
$DIMASZ
 40
0.1
  9
$DIMEXO
 40
0.062
  9
$DIMDLI
 40
0.375
  9
$DIMRND
 40
0.0
  9
$DIMDLE
 40
0.0
  9
$DIMEXE
 40
0.08
  9
$DIMTP
 40
0.0
  9
$DIMTM
 40
0.0
  9
$DIMTXT
 40
0.075
  9
$DIMCEN
 40
-0.0078125
  9
$DIMTSZ
 40
0.0
  9
$DIMTOL
 70
     0
  9
$DIMLIM
 70
     0
  9
$DIMTIH
 70
     1
  9
$DIMTOH
 70
     1
  9
$DIMSE1
 70
     0
  9
$DIMSE2
 70
     0
  9
$DIMTAD
 70
     0
  9
$DIMZIN
 70
     0
  9
$DIMBLK
  1

  9
$DIMASO
 70
     0
  9
$DIMSHO
 70
     0
  9
$DIMPOST
  1

  9
$DIMAPOST
  1

  9
$DIMALT
 70
     0
  9
$DIMALTD
 70
     2
  9
$DIMALTF
 40
25.4
  9
$DIMLFAC
 40
1.0
  9
$DIMTOFL
 70
     0
  9
$DIMTVP
 40
0.0
  9
$DIMTIX
 70
     0
  9
$DIMSOXD
 70
     0
  9
$DIMSAH
 70
     0
  9
$DIMBLK1
  1

  9
$DIMBLK2
  1

  9
$DIMSTYLE
  2
STANDARD
  9
$DIMCLRD
 70
     0
  9
$DIMCLRE
 70
     0
  9
$DIMCLRT
 70
     0
  9
$DIMTFAC
 40
1.0
  9
$DIMGAP
 40
0.09
  9
$DIMJUST
 70
     0
  9
$DIMSD1
 70
     0
  9
$DIMSD2
 70
     0
  9
$DIMTOLJ
 70
     1
  9
$DIMTZIN
 70
     0
  9
$DIMALTZ
 70
     0
  9
$DIMALTTZ
 70
     0
  9
$DIMUPT
 70
     0
  9
$DIMDEC
 70
     5
  9
$DIMTDEC
 70
     5
  9
$DIMALTU
 70
     2
  9
$DIMALTTD
 70
     2
  9
$DIMTXSTY
  7
STANDARD
  9
$DIMAUNIT
 70
     0
  9
$DIMADEC
 70
     0
  9
$DIMALTRND
 40
0.0
  9
$DIMAZIN
 70
     0
  9
$DIMDSEP
 70
    46
  9
$DIMATFIT
 70
     3
  9
$DIMFRAC
 70
     2
  9
$DIMLDRBLK
  1

  9
$DIMLUNIT
 70
     5
  9
$DIMLWD
 70
    -2
  9
$DIMLWE
 70
    -2
  9
$DIMTMOVE
 70
     2
  9
$LUNITS
 70
     2
  9
$LUPREC
 70
     4
  9
$SKETCHINC
 40
0.1
  9
$FILLETRAD
 40
0.0
  9
$AUNITS
 70
     0
  9
$AUPREC
 70
     0
  9
$MENU
  1
qa
  9
$ELEVATION
 40
0.0
  9
$PELEVATION
 40
0.0
  9
$THICKNESS
 40
0.0
  9
$LIMCHECK
 70
     0
  9
$CHAMFERA
 40
0.4375
  9
$CHAMFERB
 40
0.4375
  9
$CHAMFERC
 40
0.0
  9
$CHAMFERD
 40
0.0
  9
$SKPOLY
 70
     0
  9
$TDCREATE
 40
2452872.693529282
  9
$TDUCREATE
 40
2452873.026862616
  9
$TDUPDATE
 40
2454159.85151022
  9
$TDUUPDATE
 40
2454160.184843553
  9
$TDINDWG
 40
0.454975
  9
$TDUSRTIMER
 40
0.454975
  9
$USRTIMER
 70
     1
  9
$ANGBASE
 50
0.0
  9
$ANGDIR
 70
     0
  9
$PDMODE
 70
     0
  9
$PDSIZE
 40
0.0
  9
$PLINEWID
 40
0.0
  9
$SPLFRAME
 70
     0
  9
$SPLINETYPE
 70
     6
  9
$SPLINESEGS
 70
     8
  9
$HANDSEED
  5
2201
  9
$SURFTAB1
 70
     6
  9
$SURFTAB2
 70
     6
  9
$SURFTYPE
 70
     6
  9
$SURFU
 70
     6
  9
$SURFV
 70
     6
  9
$UCSBASE
  2

  9
$UCSNAME
  2

  9
$UCSORG
 10
0.0
 20
0.0
 30
0.0
  9
$UCSXDIR
 10
1.0
 20
0.0
 30
0.0
  9
$UCSYDIR
 10
0.0
 20
1.0
 30
0.0
  9
$UCSORTHOREF
  2

  9
$UCSORTHOVIEW
 70
     0
  9
$UCSORGTOP
 10
0.0
 20
0.0
 30
0.0
  9
$UCSORGBOTTOM
 10
0.0
 20
0.0
 30
0.0
  9
$UCSORGLEFT
 10
0.0
 20
0.0
 30
0.0
  9
$UCSORGRIGHT
 10
0.0
 20
0.0
 30
0.0
  9
$UCSORGFRONT
 10
0.0
 20
0.0
 30
0.0
  9
$UCSORGBACK
 10
0.0
 20
0.0
 30
0.0
  9
$PUCSBASE
  2

  9
$PUCSNAME
  2

  9
$PUCSORG
 10
0.0
 20
0.0
 30
0.0
  9
$PUCSXDIR
 10
1.0
 20
0.0
 30
0.0
  9
$PUCSYDIR
 10
0.0
 20
1.0
 30
0.0
  9
$PUCSORTHOREF
  2

  9
$PUCSORTHOVIEW
 70
     0
  9
$PUCSORGTOP
 10
0.0
 20
0.0
 30
0.0
  9
$PUCSORGBOTTOM
 10
0.0
 20
0.0
 30
0.0
  9
$PUCSORGLEFT
 10
0.0
 20
0.0
 30
0.0
  9
$PUCSORGRIGHT
 10
0.0
 20
0.0
 30
0.0
  9
$PUCSORGFRONT
 10
0.0
 20
0.0
 30
0.0
  9
$PUCSORGBACK
 10
0.0
 20
0.0
 30
0.0
  9
$USERI1
 70
     0
  9
$USERI2
 70
     0
  9
$USERI3
 70
     0
  9
$USERI4
 70
     0
  9
$USERI5
 70
     0
  9
$USERR1
 40
0.0
  9
$USERR2
 40
0.0
  9
$USERR3
 40
0.0
  9
$USERR4
 40
0.0
  9
$USERR5
 40
0.0
  9
$WORLDVIEW
 70
     1
  9
$SHADEDGE
 70
     3
  9
$SHADEDIF
 70
    70
  9
$TILEMODE
 70
     1
  9
$MAXACTVP
 70
    16
  9
$PINSBASE
 10
0.0
 20
0.0
 30
0.0
  9
$PLIMCHECK
 70
     0
  9
$PEXTMIN
 10
1.000000000000000E+20
 20
1.000000000000000E+20
 30
1.000000000000000E+20
  9
$PEXTMAX
 10
-1.000000000000000E+20
 20
-1.000000000000000E+20
 30
-1.000000000000000E+20
  9
$PLIMMIN
 10
0.0
 20
0.0
  9
$PLIMMAX
 10
12.0
 20
9.0
  9
$UNITMODE
 70
     0
  9
$VISRETAIN
 70
     0
  9
$PLINEGEN
 70
     0
  9
$PSLTSCALE
 70
     0
  9
$TREEDEPTH
 70
  3020
  9
$CMLSTYLE
  2
STANDARD
  9
$CMLJUST
 70
     0
  9
$CMLSCALE
 40
1.0
  9
$PROXYGRAPHICS
 70
     1
  9
$MEASUREMENT
 70
     0
  9
$CELWEIGHT
370
    -1
  9
$ENDCAPS
280
     0
  9
$JOINSTYLE
280
     0
  9
$LWDISPLAY
290
     0
  9
$INSUNITS
 70
     0
  9
$HYPERLINKBASE
  1

  9
$STYLESHEET
  1

  9
$XEDIT
290
     1
  9
$CEPSNTYPE
380
     0
  9
$PSTYLEMODE
290
     1
  9
$FINGERPRINTGUID
  2
{3F8EE252-4A01-453C-A5F5-5678F9528411}
  9
$VERSIONGUID
  2
{0D5D0839-3ABB-4D24-BC72-69498066541C}
  9
$EXTNAMES
290
     1
  9
$PSVPSCALE
 40
0.0
  9
$OLESTARTUP
290
     0
  0
ENDSEC
  0
SECTION
  2
CLASSES
  0
CLASS
  1
DICTIONARYVAR
  2
AcDbDictionaryVar
  3
AutoCAD 2000
 90
        0
280
     0
281
     0
  0
CLASS
  1
LWPOLYLINE
  2
AcDbPolyline
  3
AutoCAD 2000
 90
        0
280
     0
281
     1
  0
CLASS
  1
ACDBDICTIONARYWDFLT
  2
AcDbDictionaryWithDefault
  3
AutoCAD 2000
 90
        0
280
     0
281
     0
  0
CLASS
  1
ACDBPLACEHOLDER
  2
AcDbPlaceHolder
  3
ObjectDBX Classes
 90
        0
280
     0
281
     0
  0
CLASS
  1
LAYOUT
  2
AcDbLayout
  3
ObjectDBX Classes
 90
        0
280
     0
281
     0
  0
CLASS
  1
LONG_TRANSACTION
  2
AcDbLongTransaction
  3
ObjectDBX Classes
 90
   -65536
280
     1
281
     0
  0
CLASS
  1
LWPOLYLINE
  2
AcDbPolyline
  3
AutoCAD 2000
 90
        0
280
     0
281
     1
  0
CLASS
  1
HATCH
  2
AcDbHatch
  3
AutoCAD 2000
 90
        0
280
     0
281
     1
  0
CLASS
  1
XRECORD
  2
AcDbXrecord
  3
AutoCAD 2000
 90
        0
280
     0
281
     0
  0
CLASS
  1
LONG_TRANSACTION
  2
AcDbLongTransaction
  3
ObjectDBX Classes
 90
   -65536
280
     1
281
     0
  0
CLASS
  1
LWPOLYLINE
  2
AcDbPolyline
  3
AutoCAD 2000
 90
        0
280
     0
281
     1
  0
CLASS
  1
HATCH
  2
AcDbHatch
  3
AutoCAD 2000
 90
        0
280
     0
281
     1
  0
CLASS
  1
XRECORD
  2
AcDbXrecord
  3
AutoCAD 2000
 90
        0
280
     0
281
     0
  0
CLASS
  1
LONG_TRANSACTION
  2
AcDbLongTransaction
  3
ObjectDBX Classes
 90
   -65536
280
     1
281
     0
  0
CLASS
  1
LWPOLYLINE
  2
AcDbPolyline
  3
AutoCAD 2000
 90
        0
280
     0
281
     1
  0
CLASS
  1
HATCH
  2
AcDbHatch
  3
AutoCAD 2000
 90
        0
280
     0
281
     1
  0
CLASS
  1
XRECORD
  2
AcDbXrecord
  3
AutoCAD 2000
 90
        0
280
     0
281
     0
  0
CLASS
  1
TABLESTYLE
  2
AcDbTableStyle
  3
ObjectDBX Classes
 90
     2047
280
     1
281
     0
  0
ENDSEC
  0
SECTION
  2
TABLES
  0
TABLE
  2
VPORT
  5
8
330
0
100
AcDbSymbolTable
 70
     2
  0
VPORT
  5
21F1
330
8
100
AcDbSymbolTableRecord
100
AcDbViewportTableRecord
  2
*Active
 70
     0
 10
0.0
 20
0.0
 11
1.0
 21
1.0
 12
3.513190953399914
 22
13.08373608488004
 13
0.0
 23
0.0
 14
0.063
 24
0.063
 15
0.25
 25
0.25
 16
0.0
 26
0.0
 36
1.0
 17
0.0
 27
0.0
 37
0.0
 40
38.0469926379359
 41
1.814583333333333
 42
50.0
 43
0.0
 44
0.0
 50
0.0
 51
0.0
 71
     0
 72
   100
 73
     1
 74
     0
 75
     0
 76
     0
 77
     0
 78
     0
281
     0
 65
     1
110
0.0
120
0.0
130
0.0
111
1.0
121
0.0
131
0.0
112
0.0
122
1.0
132
0.0
 79
     0
146
0.0
  0
ENDTAB
  0
TABLE
  2
LTYPE
  5
5
330
0
100
AcDbSymbolTable
 70
     3
  0
LTYPE
  5
11
330
5
100
AcDbSymbolTableRecord
100
AcDbLinetypeTableRecord
  2
BYBLOCK
 70
     0
  3

 72
    65
 73
     0
 40
0.0
  0
LTYPE
  5
12
330
5
100
AcDbSymbolTableRecord
100
AcDbLinetypeTableRecord
  2
BYLAYER
 70
     0
  3

 72
    65
 73
     0
 40
0.0
  0
LTYPE
  5
13
330
5
100
AcDbSymbolTableRecord
100
AcDbLinetypeTableRecord
  2
CONTINUOUS
 70
     0
  3
Solid line
 72
    65
 73
     0
 40
0.0
  0
LTYPE
  5
2B
330
5
100
AcDbSymbolTableRecord
100
AcDbLinetypeTableRecord
  2
HIDDEN
 70
     0
  3
_ _ _ _ _ _ _ _ _ _ _ _ _ _ _ _ _ _ _ _ _ _ _
 72
    65
 73
     2
 40
0.375
 49
0.25
 74
     0
 49
-0.125
 74
     0
  0
LTYPE
  5
49E
330
5
100
AcDbSymbolTableRecord
100
AcDbLinetypeTableRecord
  2
HIDDEN2
 70
     0
  3
Hidden (.5x) _ _ _ _ _ _ _ _ _ _ _ _ _ _ _ _ _
 72
    65
 73
     2
 40
0.1875
 49
0.125
 74
     0
 49
-0.0625
 74
     0
  0
ENDTAB
  0
TABLE
  2
LAYER
  5
2
102
{ACAD_XDICTIONARY
360
21EE
102
}
330
0
100
AcDbSymbolTable
 70
     6
  0
LAYER
  5
E
330
2
100
AcDbSymbolTableRecord
100
AcDbLayerTableRecord
  2
0
 70
     0
 62
     7
  6
CONTINUOUS
370
    -3
390
47A
  0
LAYER
  5
37
330
2
100
AcDbSymbolTableRecord
100
AcDbLayerTableRecord
  2
DIM
 70
     0
 62
     5
  6
CONTINUOUS
370
    -3
390
47A
  0
ENDTAB
  0
TABLE
  2
STYLE
  5
3
330
0
100
AcDbSymbolTable
 70
     1
  0
STYLE
  5
F
330
3
100
AcDbSymbolTableRecord
100
AcDbTextStyleTableRecord
  2
STANDARD
 70
     0
 40
0.0
 41
1.0
 50
0.0
 71
     0
 42
0.36
  3
TXT
  4

  0
ENDTAB
  0
TABLE
  2
VIEW
  5
6
330
0
100
AcDbSymbolTable
 70
     0
  0
ENDTAB
  0
TABLE
  2
UCS
  5
7
330
0
100
AcDbSymbolTable
 70
     0
  0
ENDTAB
  0
TABLE
  2
APPID
  5
9
330
0
100
AcDbSymbolTable
 70
     2
  0
APPID
  5
10
330
9
100
AcDbSymbolTableRecord
100
AcDbRegAppTableRecord
  2
ACAD
 70
     0
  0
APPID
  5
DA7
330
9
100
AcDbSymbolTableRecord
100
AcDbRegAppTableRecord
  2
RAK
 70
     0
  0
ENDTAB
  0
TABLE
  2
DIMSTYLE
  5
A
330
0
100
AcDbSymbolTable
 70
     1
100
AcDbDimStyleTable
  0
DIMSTYLE
105
465
330
A
100
AcDbSymbolTableRecord
100
AcDbDimStyleTableRecord
  2
STANDARD
 70
     0
  3

  4

340
F
  0
ENDTAB
  0
TABLE
  2
BLOCK_RECORD
  5
1
330
0
100
AcDbSymbolTable
 70
     0
  0
BLOCK_RECORD
  5
17
330
1
100
AcDbSymbolTableRecord
100
AcDbBlockTableRecord
  2
*MODEL_SPACE
340
47D
  0
BLOCK_RECORD
  5
14
330
1
100
AcDbSymbolTableRecord
100
AcDbBlockTableRecord
  2
*PAPER_SPACE
340
47E
  0
ENDTAB
  0
ENDSEC
  0
SECTION
  2
BLOCKS
  0
BLOCK
  5
47
330
17
100
AcDbEntity
  8
0
100
AcDbBlockBegin
  2
*MODEL_SPACE
 70
     0
 10
0.0
 20
0.0
 30
0.0
  3
*MODEL_SPACE
  1

  4

  0
ENDBLK
  5
48
330
17
100
AcDbEntity
  8
0
100
AcDbBlockEnd
  0
BLOCK
  5
45
330
14
100
AcDbEntity
 67
     1
  8
0
100
AcDbBlockBegin
  2
*PAPER_SPACE
 70
     0
 10
0.0
 20
0.0
 30
0.0
  3
*PAPER_SPACE
  1

  4

  0
ENDBLK
  5
46
330
14
100
AcDbEntity
 67
     1
  8
0
100
AcDbBlockEnd
  0
ENDSEC
  0
SECTION
  2
ENTITIES
  0
TEXT
  5
3A7
330
17
100
AcDbEntity
  8
DIM
100
AcDbText
 10
14.93846334400804
 20
21.0944638759405
 30
0.0
 40
0.36
  1
   
 50
359.9999999999988
 11
14.93846334400805
 21
21.2744638759405
 31
0.0
100
AcDbText
 73
     2
  0
TEXT
  5
400
330
17
100
AcDbEntity
  8
DIM
100
AcDbText
 10
13.55232669162669
 20
10.34149078419337
 30
0.0
 40
0.36
  1
   
 72
     1
 11
14.09232669162669
 21
10.52149078419336
 31
0.0
100
AcDbText
 73
     2
  0
LINE
  5
1432
330
17
100
AcDbEntity
  8
0
100
AcDbLine
 10
-8.105047925074757
 20
0.500115476708487
 30
0.0
 11
-5.3550479250747
 21
0.500115476708487
 31
0.0
  0
ARC
  5
1435
330
17
100
AcDbEntity
  8
0
100
AcDbCircle
 10
-6.730047925074757
 20
0.500115476708487
 30
0.0
 40
1.374999999999999
100
AcDbArc
 50
180.0
 51
0.0
  0
ARC
  5
1436
330
17
100
AcDbEntity
  8
0
100
AcDbCircle
 10
-6.730047925074757
 20
0.500115476708487
 30
0.0
 40
1.51
100
AcDbArc
 50
180.0
 51
0.0
  0
LINE
  5
1437
330
17
100
AcDbEntity
  8
0
100
AcDbLine
 10
-8.105047925074757
 20
1.826978198500058
 30
0.0
 11
-8.105047925074757
 21
21.24011547670848
 31
0.0
  0
LINE
  5
1438
330
17
100
AcDbEntity
  8
0
100
AcDbLine
 10
-8.240047925074748
 20
0.500115476708487
 30
0.0
 11
-8.240047925074748
 21
21.24011547670848
 31
0.0
  0
LINE
  5
1448
330
17
100
AcDbEntity
  8
0
100
AcDbLine
 10
-8.105047925074757
 20
0.500115476708487
 30
0.0
 11
-8.105047925074757
 21
1.826978198500058
 31
0.0
  0
ARC
  5
144A
330
17
100
AcDbEntity
  8
0
100
AcDbCircle
 10
-6.636297925074459
 20
5.320001388774429
 30
0.0
 40
0.4062500000002984
100
AcDbArc
 50
180.0000000000179
 51
224.9999999999845
  0
ARC
  5
144B
330
17
100
AcDbEntity
  8
0
100
AcDbCircle
 10
-6.573797925074544
 20
5.345889736422663
 30
0.0
 40
0.3437500000002132
100
AcDbArc
 50
180.0000000000123
 51
224.9999999999753
  0
LINE
  5
144D
330
17
100
AcDbEntity
  8
0
100
AcDbLine
 10
-5.355047925074757
 20
1.826978198500086
 30
0.0
 11
-5.355047925074757
 21
21.24011547670849
 31
0.0
  0
LINE
  5
144E
330
17
100
AcDbEntity
  8
0
100
AcDbLine
 10
-5.220047925074766
 20
0.500115476708487
 30
0.0
 11
-5.220047925074766
 21
21.24011547670848
 31
0.0
  0
LINE
  5
1481
330
17
100
AcDbEntity
  8
0
100
AcDbLine
 10
-5.355047925074757
 20
0.500115476708487
 30
0.0
 11
-5.355047925074757
 21
1.826978198500058
 31
0.0
  0
ARC
  5
1483
330
17
100
AcDbEntity
  8
0
100
AcDbCircle
 10
-7.136297925074416
 20
3.176649259208304
 30
0.0
 40
0.3437499999996589
100
AcDbArc
 50
330.0000000736003
 51
0.0
  0
LINE
  5
1484
330
17
100
AcDbEntity
  8
0
100
AcDbLine
 10
-6.792547925074757
 20
3.66022956464262
 30
0.0
 11
-6.792547925074757
 21
3.176649259208304
 31
0.0
  0
ARC
  5
1485
330
17
100
AcDbEntity
  8
0
100
AcDbCircle
 10
-6.386297925074928
 20
3.660229564642748
 30
0.0
 40
0.4062499999998274
100
AcDbArc
 50
135.0
 51
180.0000000000179
  0
LINE
  5
1486
330
17
100
AcDbEntity
  8
0
100
AcDbLine
 10
-6.643229969041897
 20
3.977821780389562
 30
0.0
 11
-6.673560054931841
 21
3.947491694499661
 31
0.0
  0
ARC
  5
1487
330
17
100
AcDbEntity
  8
0
100
AcDbCircle
 10
-6.886297925075027
 20
4.220889736422564
 30
0.0
 40
0.34375000000027
100
AcDbArc
 50
315.000000000015
 51
359.9999999999813
  0
LINE
  5
1488
330
17
100
AcDbEntity
  8
0
100
AcDbLine
 10
-6.5425479250747
 20
4.509341216994486
 30
0.0
 11
-6.542547925074757
 21
4.22088973642245
 31
0.0
  0
ARC
  5
1489
330
17
100
AcDbEntity
  8
0
100
AcDbCircle
 10
-6.886297925074601
 20
4.5093412169945
 30
0.0
 40
0.3437499999999073
100
AcDbArc
 50
359.9999999999976
 51
45.00000000001209
  0
LINE
  5
148A
330
17
100
AcDbEntity
  8
0
100
AcDbLine
 10
-6.923560054931784
 20
5.03273925891726
 30
0.0
 11
-6.64322996904184
 21
4.75240917302736
 31
0.0
  0
ARC
  5
148B
330
17
100
AcDbEntity
  8
0
100
AcDbCircle
 10
-6.323797925075297
 20
3.176649254470178
 30
0.0
 40
0.34374999999946
100
AcDbArc
 50
179.9999999999837
 51
210.000000000027
  0
LINE
  5
148C
330
17
100
AcDbEntity
  8
0
100
AcDbLine
 10
-6.667547925074757
 20
3.634341216994372
 30
0.0
 11
-6.667547925074757
 21
3.176649259208308
 31
0.0
  0
ARC
  5
148D
330
17
100
AcDbEntity
  8
0
100
AcDbCircle
 10
-6.323797925074942
 20
3.634341216994457
 30
0.0
 40
0.3437499999998169
100
AcDbArc
 50
134.9999999999965
 51
180.0000000000138
  0
LINE
  5
148E
330
17
100
AcDbEntity
  8
0
100
AcDbLine
 10
-6.536535795217731
 20
3.907739258917204
 30
0.0
 11
-6.566865881107674
 21
3.877409173027218
 31
0.0
  0
ARC
  5
148F
330
17
100
AcDbEntity
  8
0
100
AcDbCircle
 10
-6.823797925075112
 20
4.195001388774386
 30
0.0
 40
0.4062500000003553
100
AcDbArc
 50
315.0000000000201
 51
359.999999999978
  0
LINE
  5
1490
330
17
100
AcDbEntity
  8
0
100
AcDbLine
 10
-6.417547925074757
 20
4.535229564642791
 30
0.0
 11
-6.417547925074757
 21
4.19500138877423
 31
0.0
  0
ARC
  5
1491
330
17
100
AcDbEntity
  8
0
100
AcDbCircle
 10
-6.823797925075056
 20
4.535229564642634
 30
0.0
 40
0.4062500000002997
100
AcDbArc
 50
0.000000000021984
 51
44.99999999998445
  0
LINE
  5
1492
330
17
100
AcDbEntity
  8
0
100
AcDbLine
 10
-6.816865881107674
 20
5.102821780389746
 30
0.0
 11
-6.536535795217731
 21
4.822491694499803
 31
0.0
  0
CIRCLE
  5
1493
330
17
100
AcDbEntity
  8
0
100
AcDbCircle
 10
-6.980047925074757
 20
4.365115476708468
 30
0.0
 40
0.1325
  0
CIRCLE
  5
1494
330
17
100
AcDbEntity
  8
0
100
AcDbCircle
 10
-5.917547925074757
 20
4.365115476708468
 30
0.0
 40
0.1325
  0
LINE
  5
14B1
330
17
100
AcDbEntity
  8
0
100
AcDbLine
 10
-6.923560054931784
 20
18.53273925891722
 30
0.0
 11
-6.643229969041897
 21
18.25240917302737
 31
0.0
  0
LINE
  5
14B2
330
17
100
AcDbEntity
  8
0
100
AcDbLine
 10
-6.816865881107617
 20
18.60282178038979
 30
0.0
 11
-6.536535795217731
 21
18.32249169449973
 31
0.0
  0
ARC
  5
14B3
330
17
100
AcDbEntity
  8
0
100
AcDbCircle
 10
-6.636297925074402
 20
12.07000138877442
 30
0.0
 40
0.4062500000003553
100
AcDbArc
 50
180.0000000000179
 51
224.9999999999799
  0
LINE
  5
14B4
330
17
100
AcDbEntity
  8
0
100
AcDbLine
 10
-6.816865881107617
 20
11.85282178038979
 30
0.0
 11
-6.536535795217731
 21
11.57249169449975
 31
0.0
  0
ARC
  5
14B5
330
17
100
AcDbEntity
  8
0
100
AcDbCircle
 10
-6.886297925075027
 20
8.720889736422549
 30
0.0
 40
0.34375000000027
100
AcDbArc
 50
315.000000000015
 51
359.9999999999813
  0
ARC
  5
14B6
330
17
100
AcDbEntity
  8
0
100
AcDbCircle
 10
-6.823797925075112
 20
8.695001388774358
 30
0.0
 40
0.4062500000003553
100
AcDbArc
 50
315.0000000000184
 51
359.9999999999797
  0
LINE
  5
14B7
330
17
100
AcDbEntity
  8
0
100
AcDbLine
 10
-7.042547925074757
 20
5.660229564642663
 30
0.0
 11
-7.042547925074757
 21
5.320001388774301
 31
0.0
  0
ARC
  5
14B8
330
17
100
AcDbEntity
  8
0
100
AcDbCircle
 10
-6.636297925074459
 20
5.660229564642521
 30
0.0
 40
0.4062500000002997
100
AcDbArc
 50
135.0000000000156
 51
179.9999999999797
  0
LINE
  5
14B9
330
17
100
AcDbEntity
  8
0
100
AcDbLine
 10
-6.643229969041897
 20
6.227821780389562
 30
0.0
 11
-6.923560054931784
 21
5.947491694499689
 31
0.0
  0
ARC
  5
14BA
330
17
100
AcDbEntity
  8
0
100
AcDbCircle
 10
-6.886297925075027
 20
6.470889736422564
 30
0.0
 40
0.34375000000027
100
AcDbArc
 50
315.000000000015
 51
359.9999999999813
  0
LINE
  5
14BB
330
17
100
AcDbEntity
  8
0
100
AcDbLine
 10
-6.542547925074757
 20
6.759341216994486
 30
0.0
 11
-6.542547925074757
 21
6.47088973642245
 31
0.0
  0
ARC
  5
14BC
330
17
100
AcDbEntity
  8
0
100
AcDbCircle
 10
-6.886297925075013
 20
6.759341216994386
 30
0.0
 40
0.343750000000249
100
AcDbArc
 50
0.0000000000162844
 51
44.99999999998503
  0
LINE
  5
14BD
330
17
100
AcDbEntity
  8
0
100
AcDbLine
 10
-6.923560054931784
 20
7.282739258917246
 30
0.0
 11
-6.643229969041897
 21
7.002409173027374
 31
0.0
  0
ARC
  5
14BE
330
17
100
AcDbEntity
  8
0
100
AcDbCircle
 10
-6.636297925074402
 20
7.570001388774443
 30
0.0
 40
0.4062500000003553
100
AcDbArc
 50
180.0000000000204
 51
224.9999999999816
  0
LINE
  5
14BF
330
17
100
AcDbEntity
  8
0
100
AcDbLine
 10
-7.042547925074814
 20
7.910229564642663
 30
0.0
 11
-7.042547925074757
 21
7.570001388774301
 31
0.0
  0
ARC
  5
14C0
330
17
100
AcDbEntity
  8
0
100
AcDbCircle
 10
-6.636297925074928
 20
7.910229564642577
 30
0.0
 40
0.4062499999998878
100
AcDbArc
 50
134.9999999999689
 51
179.9999999999878
  0
LINE
  5
14C1
330
17
100
AcDbEntity
  8
0
100
AcDbLine
 10
-6.643229969041897
 20
8.477821780389547
 30
0.0
 11
-6.923560054931727
 21
8.197491694499689
 31
0.0
  0
LINE
  5
14C2
330
17
100
AcDbEntity
  8
0
100
AcDbLine
 10
-6.917547925074814
 20
5.634341216994372
 30
0.0
 11
-6.917547925074757
 21
5.345889736422592
 31
0.0
  0
ARC
  5
14C3
330
17
100
AcDbEntity
  8
0
100
AcDbCircle
 10
-6.573797925074643
 20
5.634341216994244
 30
0.0
 40
0.3437500000001786
100
AcDbArc
 50
135.0000000000063
 51
179.9999999999788
  0
LINE
  5
14C4
330
17
100
AcDbEntity
  8
0
100
AcDbLine
 10
-6.536535795217731
 20
6.157739258917161
 30
0.0
 11
-6.816865881107674
 21
5.877409173027218
 31
0.0
  0
ARC
  5
14C5
330
17
100
AcDbEntity
  8
0
100
AcDbCircle
 10
-6.823797925075112
 20
6.445001388774358
 30
0.0
 40
0.4062500000003553
100
AcDbArc
 50
315.0000000000184
 51
359.9999999999797
  0
LINE
  5
14C6
330
17
100
AcDbEntity
  8
0
100
AcDbLine
 10
-6.417547925074757
 20
6.785229564642734
 30
0.0
 11
-6.417547925074757
 21
6.445001388774216
 31
0.0
  0
ARC
  5
14C7
330
17
100
AcDbEntity
  8
0
100
AcDbCircle
 10
-6.823797925074359
 20
6.785229564642918
 30
0.0
 40
0.4062499999995963
100
AcDbArc
 50
359.999999999974
 51
45.00000000002418
  0
LINE
  5
14C8
330
17
100
AcDbEntity
  8
0
100
AcDbLine
 10
-6.816865881107617
 20
7.352821780389746
 30
0.0
 11
-6.536535795217731
 21
7.072491694499789
 31
0.0
  0
ARC
  5
14C9
330
17
100
AcDbEntity
  8
0
100
AcDbCircle
 10
-6.57379792507443
 20
7.595889736422777
 30
0.0
 40
0.3437500000003269
100
AcDbArc
 50
180.0000000000261
 51
224.9999999999816
  0
LINE
  5
14CA
330
17
100
AcDbEntity
  8
0
100
AcDbLine
 10
-6.917547925074757
 20
7.884341216994358
 30
0.0
 11
-6.917547925074757
 21
7.59588973642262
 31
0.0
  0
ARC
  5
14CB
330
17
100
AcDbEntity
  8
0
100
AcDbCircle
 10
-6.573797925074544
 20
7.884341216994244
 30
0.0
 40
0.3437500000002088
100
AcDbArc
 50
135.0000000000121
 51
179.9999999999813
  0
LINE
  5
14CC
330
17
100
AcDbEntity
  8
0
100
AcDbLine
 10
-6.536535795217731
 20
8.407739258917161
 30
0.0
 11
-6.816865881107617
 21
8.127409173027218
 31
0.0
  0
CIRCLE
  5
14CD
330
17
100
AcDbEntity
  8
0
100
AcDbCircle
 10
-7.542547925074757
 20
7.740115476708468
 30
0.0
 40
0.1325
  0
CIRCLE
  5
14CE
330
17
100
AcDbEntity
  8
0
100
AcDbCircle
 10
-6.480047925074757
 20
7.740115476708468
 30
0.0
 40
0.1325
  0
CIRCLE
  5
14CF
330
17
100
AcDbEntity
  8
0
100
AcDbCircle
 10
-7.542547925074757
 20
5.490115476708468
 30
0.0
 40
0.1325
  0
CIRCLE
  5
14D0
330
17
100
AcDbEntity
  8
0
100
AcDbCircle
 10
-6.480047925074757
 20
5.490115476708468
 30
0.0
 40
0.1325
  0
CIRCLE
  5
14D1
330
17
100
AcDbEntity
  8
0
100
AcDbCircle
 10
-6.980047925074757
 20
6.615115476708468
 30
0.0
 40
0.1325
  0
CIRCLE
  5
14D2
330
17
100
AcDbEntity
  8
0
100
AcDbCircle
 10
-5.917547925074757
 20
6.615115476708468
 30
0.0
 40
0.1325
  0
LINE
  5
14D3
330
17
100
AcDbEntity
  8
0
100
AcDbLine
 10
-6.542547925074757
 20
9.009341216994514
 30
0.0
 11
-6.542547925074757
 21
8.720889736422436
 31
0.0
  0
ARC
  5
14D4
330
17
100
AcDbEntity
  8
0
100
AcDbCircle
 10
-6.886297925074587
 20
9.009341216994585
 30
0.0
 40
0.343749999999837
100
AcDbArc
 50
359.9999999999878
 51
45.00000000000288
  0
LINE
  5
14D5
330
17
100
AcDbEntity
  8
0
100
AcDbLine
 10
-6.923560054931784
 20
9.53273925891726
 30
0.0
 11
-6.64322996904184
 21
9.25240917302736
 31
0.0
  0
ARC
  5
14D6
330
17
100
AcDbEntity
  8
0
100
AcDbCircle
 10
-6.636297925074459
 20
9.820001388774429
 30
0.0
 40
0.4062500000002984
100
AcDbArc
 50
180.0000000000179
 51
224.9999999999845
  0
LINE
  5
14D7
330
17
100
AcDbEntity
  8
0
100
AcDbLine
 10
-7.042547925074757
 20
10.16022956464263
 30
0.0
 11
-7.042547925074757
 21
9.820001388774301
 31
0.0
  0
ARC
  5
14D8
330
17
100
AcDbEntity
  8
0
100
AcDbCircle
 10
-6.636297925074871
 20
10.16022956464273
 30
0.0
 40
0.4062499999998878
100
AcDbArc
 50
135.0000000000029
 51
180.0000000000138
  0
LINE
  5
14D9
330
17
100
AcDbEntity
  8
0
100
AcDbLine
 10
-6.643229969041897
 20
10.7278217803896
 30
0.0
 11
-6.923560054931841
 21
10.44749169449968
 31
0.0
  0
ARC
  5
14DA
330
17
100
AcDbEntity
  8
0
100
AcDbCircle
 10
-6.886297925075027
 20
10.97088973642261
 30
0.0
 40
0.34375000000027
100
AcDbArc
 50
315.000000000015
 51
359.9999999999813
  0
LINE
  5
14DB
330
17
100
AcDbEntity
  8
0
100
AcDbLine
 10
-6.542547925074757
 20
11.25934121699449
 30
0.0
 11
-6.542547925074757
 21
10.97088973642249
 31
0.0
  0
ARC
  5
14DC
330
17
100
AcDbEntity
  8
0
100
AcDbCircle
 10
-6.88629792507507
 20
11.25934121699436
 30
0.0
 40
0.3437500000003193
100
AcDbArc
 50
0.0000000000211698
 51
44.9999999999833
  0
LINE
  5
14DD
330
17
100
AcDbEntity
  8
0
100
AcDbLine
 10
-6.923560054931784
 20
11.78273925891723
 30
0.0
 11
-6.643229969041897
 21
11.50240917302739
 31
0.0
  0
LINE
  5
14DE
330
17
100
AcDbEntity
  8
0
100
AcDbLine
 10
-6.417547925074757
 20
9.035229564642705
 30
0.0
 11
-6.417547925074757
 21
8.695001388774216
 31
0.0
  0
ARC
  5
14DF
330
17
100
AcDbEntity
  8
0
100
AcDbCircle
 10
-6.823797925074345
 20
9.035229564642876
 30
0.0
 40
0.4062499999995862
100
AcDbArc
 50
359.9999999999756
 51
45.00000000002591
  0
LINE
  5
14E0
330
17
100
AcDbEntity
  8
0
100
AcDbLine
 10
-6.816865881107674
 20
9.602821780389732
 30
0.0
 11
-6.536535795217731
 21
9.322491694499746
 31
0.0
  0
ARC
  5
14E1
330
17
100
AcDbEntity
  8
0
100
AcDbCircle
 10
-6.573797925074487
 20
9.845889736422677
 30
0.0
 40
0.34375000000027
100
AcDbArc
 50
180.0000000000123
 51
224.9999999999718
  0
LINE
  5
14E2
330
17
100
AcDbEntity
  8
0
100
AcDbLine
 10
-6.917547925074757
 20
10.13434121699439
 30
0.0
 11
-6.917547925074757
 21
9.845889736422606
 31
0.0
  0
ARC
  5
14E3
330
17
100
AcDbEntity
  8
0
100
AcDbCircle
 10
-6.573797925074928
 20
10.13434121699447
 30
0.0
 40
0.3437499999998269
100
AcDbArc
 50
134.9999999999983
 51
180.0000000000138
  0
LINE
  5
14E4
330
17
100
AcDbEntity
  8
0
100
AcDbLine
 10
-6.536535795217731
 20
10.65773925891715
 30
0.0
 11
-6.816865881107674
 21
10.37740917302723
 31
0.0
  0
ARC
  5
14E5
330
17
100
AcDbEntity
  8
0
100
AcDbCircle
 10
-6.823797925075056
 20
10.94500138877432
 30
0.0
 40
0.4062500000002984
100
AcDbArc
 50
315.0000000000155
 51
359.9999999999821
  0
LINE
  5
14E6
330
17
100
AcDbEntity
  8
0
100
AcDbLine
 10
-6.417547925074757
 20
11.28522956464276
 30
0.0
 11
-6.417547925074757
 21
10.94500138877419
 31
0.0
  0
ARC
  5
14E7
330
17
100
AcDbEntity
  8
0
100
AcDbCircle
 10
-6.823797925074928
 20
11.28522956464263
 30
0.0
 40
0.4062500000001691
100
AcDbArc
 50
0.0000000000179129
 51
44.99999999999137
  0
CIRCLE
  5
14E8
330
17
100
AcDbEntity
  8
0
100
AcDbCircle
 10
-7.542547925074757
 20
9.990115476708468
 30
0.0
 40
0.1325
  0
CIRCLE
  5
14E9
330
17
100
AcDbEntity
  8
0
100
AcDbCircle
 10
-6.980047925074757
 20
11.11511547670847
 30
0.0
 40
0.1325
  0
CIRCLE
  5
14EA
330
17
100
AcDbEntity
  8
0
100
AcDbCircle
 10
-6.480047925074757
 20
9.990115476708468
 30
0.0
 40
0.1325
  0
CIRCLE
  5
14EB
330
17
100
AcDbEntity
  8
0
100
AcDbCircle
 10
-6.980047925074757
 20
8.865115476708468
 30
0.0
 40
0.1325
  0
CIRCLE
  5
14EC
330
17
100
AcDbEntity
  8
0
100
AcDbCircle
 10
-5.917547925074757
 20
11.11511547670847
 30
0.0
 40
0.1325
  0
CIRCLE
  5
14ED
330
17
100
AcDbEntity
  8
0
100
AcDbCircle
 10
-5.917547925074757
 20
8.865115476708468
 30
0.0
 40
0.1325
  0
LINE
  5
14EE
330
17
100
AcDbEntity
  8
0
100
AcDbLine
 10
-6.643229969041897
 20
15.2278217803896
 30
0.0
 11
-6.923560054931841
 21
14.94749169449969
 31
0.0
  0
LINE
  5
14EF
330
17
100
AcDbEntity
  8
0
100
AcDbLine
 10
-6.536535795217674
 20
15.15773925891722
 30
0.0
 11
-6.816865881107674
 21
14.87740917302716
 31
0.0
  0
LINE
  5
14F0
330
17
100
AcDbEntity
  8
0
100
AcDbLine
 10
-7.042547925074757
 20
12.41022956464262
 30
0.0
 11
-7.042547925074757
 21
12.07000138877429
 31
0.0
  0
ARC
  5
14F1
330
17
100
AcDbEntity
  8
0
100
AcDbCircle
 10
-6.636297925075155
 20
12.41022956464281
 30
0.0
 40
0.4062499999995963
100
AcDbArc
 50
134.9999999999758
 51
180.0000000000261
  0
LINE
  5
14F2
330
17
100
AcDbEntity
  8
0
100
AcDbLine
 10
-6.643229969041897
 20
12.97782178038956
 30
0.0
 11
-6.923560054931784
 21
12.69749169449968
 31
0.0
  0
ARC
  5
14F3
330
17
100
AcDbEntity
  8
0
100
AcDbCircle
 10
-6.886297925075027
 20
13.22088973642256
 30
0.0
 40
0.34375000000027
100
AcDbArc
 50
315.000000000015
 51
359.9999999999813
  0
LINE
  5
14F4
330
17
100
AcDbEntity
  8
0
100
AcDbLine
 10
-6.542547925074757
 20
13.5093412169945
 30
0.0
 11
-6.542547925074757
 21
13.22088973642245
 31
0.0
  0
ARC
  5
14F5
330
17
100
AcDbEntity
  8
0
100
AcDbCircle
 10
-6.886297925074359
 20
13.50934121699464
 30
0.0
 40
0.3437499999996008
100
AcDbArc
 50
359.9999999999772
 51
45.00000000003109
  0
LINE
  5
14F6
330
17
100
AcDbEntity
  8
0
100
AcDbLine
 10
-6.923560054931784
 20
14.03273925891725
 30
0.0
 11
-6.643229969041897
 21
13.75240917302736
 31
0.0
  0
ARC
  5
14F7
330
17
100
AcDbEntity
  8
0
100
AcDbCircle
 10
-6.636297925074459
 20
14.32000138877442
 30
0.0
 40
0.4062500000002984
100
AcDbArc
 50
180.0000000000179
 51
224.9999999999845
  0
LINE
  5
14F8
330
17
100
AcDbEntity
  8
0
100
AcDbLine
 10
-7.042547925074757
 20
14.66022956464265
 30
0.0
 11
-7.042547925074757
 21
14.32000138877429
 31
0.0
  0
ARC
  5
14F9
330
17
100
AcDbEntity
  8
0
100
AcDbCircle
 10
-6.636297925074928
 20
14.66022956464278
 30
0.0
 40
0.4062499999998274
100
AcDbArc
 50
135.0
 51
180.0000000000179
  0
ARC
  5
14FA
330
17
100
AcDbEntity
  8
0
100
AcDbCircle
 10
-6.573797925075027
 20
12.09588973642258
 30
0.0
 40
0.34374999999973
100
AcDbArc
 50
179.9999999999813
 51
225.0000000000236
  0
LINE
  5
14FB
330
17
100
AcDbEntity
  8
0
100
AcDbLine
 10
-6.917547925074757
 20
12.38434121699439
 30
0.0
 11
-6.917547925074757
 21
12.09588973642269
 31
0.0
  0
ARC
  5
14FC
330
17
100
AcDbEntity
  8
0
100
AcDbCircle
 10
-6.573797925074857
 20
12.38434121699433
 30
0.0
 40
0.3437499999999073
100
AcDbArc
 50
134.9999999999752
 51
179.9999999999902
  0
LINE
  5
14FD
330
17
100
AcDbEntity
  8
0
100
AcDbLine
 10
-6.536535795217731
 20
12.90773925891716
 30
0.0
 11
-6.81686588110756
 21
12.62740917302725
 31
0.0
  0
ARC
  5
14FE
330
17
100
AcDbEntity
  8
0
100
AcDbCircle
 10
-6.823797925075112
 20
13.19500138877436
 30
0.0
 40
0.4062500000003553
100
AcDbArc
 50
315.0000000000184
 51
359.9999999999797
  0
LINE
  5
14FF
330
17
100
AcDbEntity
  8
0
100
AcDbLine
 10
-6.417547925074757
 20
13.53522956464276
 30
0.0
 11
-6.417547925074757
 21
13.19500138877422
 31
0.0
  0
ARC
  5
1500
330
17
100
AcDbEntity
  8
0
100
AcDbCircle
 10
-6.823797925075056
 20
13.53522956464261
 30
0.0
 40
0.4062500000002997
100
AcDbArc
 50
0.000000000021984
 51
44.99999999998445
  0
LINE
  5
1501
330
17
100
AcDbEntity
  8
0
100
AcDbLine
 10
-6.816865881107674
 20
14.10282178038976
 30
0.0
 11
-6.536535795217731
 21
13.82249169449977
 31
0.0
  0
ARC
  5
1502
330
17
100
AcDbEntity
  8
0
100
AcDbCircle
 10
-6.573797925074658
 20
14.34588973642272
 30
0.0
 40
0.3437500000001563
100
AcDbArc
 50
180.0000000000138
 51
224.9999999999936
  0
LINE
  5
1503
330
17
100
AcDbEntity
  8
0
100
AcDbLine
 10
-6.917547925074757
 20
14.63434121699434
 30
0.0
 11
-6.917547925074814
 21
14.34588973642264
 31
0.0
  0
ARC
  5
1504
330
17
100
AcDbEntity
  8
0
100
AcDbCircle
 10
-6.57379792507497
 20
14.63434121699441
 30
0.0
 40
0.3437499999997867
100
AcDbArc
 50
134.9999999999948
 51
180.0000000000123
  0
CIRCLE
  5
1505
330
17
100
AcDbEntity
  8
0
100
AcDbCircle
 10
-7.542547925074757
 20
14.49011547670847
 30
0.0
 40
0.1325
  0
CIRCLE
  5
1506
330
17
100
AcDbEntity
  8
0
100
AcDbCircle
 10
-6.480047925074757
 20
14.49011547670847
 30
0.0
 40
0.1325
  0
CIRCLE
  5
1507
330
17
100
AcDbEntity
  8
0
100
AcDbCircle
 10
-6.980047925074757
 20
13.36511547670847
 30
0.0
 40
0.1325
  0
CIRCLE
  5
1508
330
17
100
AcDbEntity
  8
0
100
AcDbCircle
 10
-7.542547925074757
 20
12.24011547670847
 30
0.0
 40
0.1325
  0
CIRCLE
  5
1509
330
17
100
AcDbEntity
  8
0
100
AcDbCircle
 10
-6.480047925074757
 20
12.24011547670847
 30
0.0
 40
0.1325
  0
CIRCLE
  5
150A
330
17
100
AcDbEntity
  8
0
100
AcDbCircle
 10
-5.917547925074757
 20
13.36511547670847
 30
0.0
 40
0.1325
  0
ARC
  5
150B
330
17
100
AcDbEntity
  8
0
100
AcDbCircle
 10
-6.886297925075027
 20
15.47088973642261
 30
0.0
 40
0.34375000000027
100
AcDbArc
 50
315.000000000015
 51
359.9999999999813
  0
LINE
  5
150C
330
17
100
AcDbEntity
  8
0
100
AcDbLine
 10
-6.542547925074757
 20
15.75934121699444
 30
0.0
 11
-6.542547925074757
 21
15.47088973642249
 31
0.0
  0
ARC
  5
150D
330
17
100
AcDbEntity
  8
0
100
AcDbCircle
 10
-6.886297925075013
 20
15.75934121699433
 30
0.0
 40
0.343750000000259
100
AcDbArc
 50
0.0000000000187271
 51
44.99999999998676
  0
LINE
  5
150E
330
17
100
AcDbEntity
  8
0
100
AcDbLine
 10
-6.923560054931784
 20
16.28273925891728
 30
0.0
 11
-6.643229969041897
 21
16.00240917302733
 31
0.0
  0
ARC
  5
150F
330
17
100
AcDbEntity
  8
0
100
AcDbCircle
 10
-6.636297925074459
 20
16.57000138877444
 30
0.0
 40
0.4062500000002984
100
AcDbArc
 50
180.0000000000204
 51
224.9999999999845
  0
LINE
  5
1510
330
17
100
AcDbEntity
  8
0
100
AcDbLine
 10
-7.042547925074757
 20
16.91022956464262
 30
0.0
 11
-7.042547925074757
 21
16.5700013887743
 31
0.0
  0
ARC
  5
1511
330
17
100
AcDbEntity
  8
0
100
AcDbCircle
 10
-6.636297925074928
 20
16.91022956464275
 30
0.0
 40
0.4062499999998274
100
AcDbArc
 50
135.0
 51
180.0000000000179
  0
LINE
  5
1512
330
17
100
AcDbEntity
  8
0
100
AcDbLine
 10
-6.643229969041897
 20
17.47782178038959
 30
0.0
 11
-6.923560054931841
 21
17.19749169449966
 31
0.0
  0
ARC
  5
1513
330
17
100
AcDbEntity
  8
0
100
AcDbCircle
 10
-6.886297925075027
 20
17.72088973642259
 30
0.0
 40
0.34375000000027
100
AcDbArc
 50
315.000000000015
 51
359.9999999999813
  0
LINE
  5
1514
330
17
100
AcDbEntity
  8
0
100
AcDbLine
 10
-6.542547925074757
 20
18.00934121699451
 30
0.0
 11
-6.542547925074757
 21
17.72088973642248
 31
0.0
  0
ARC
  5
1515
330
17
100
AcDbEntity
  8
0
100
AcDbCircle
 10
-6.886297925074359
 20
18.00934121699465
 30
0.0
 40
0.3437499999996008
100
AcDbArc
 50
359.9999999999772
 51
45.00000000003109
  0
ARC
  5
1516
330
17
100
AcDbEntity
  8
0
100
AcDbCircle
 10
-6.823797925074572
 20
15.44500138877413
 30
0.0
 40
0.4062499999998153
100
AcDbArc
 50
314.9999999999983
 51
0.0000000000122133
  0
LINE
  5
1517
330
17
100
AcDbEntity
  8
0
100
AcDbLine
 10
-6.417547925074757
 20
15.78522956464276
 30
0.0
 11
-6.417547925074757
 21
15.44500138877422
 31
0.0
  0
ARC
  5
1518
330
17
100
AcDbEntity
  8
0
100
AcDbCircle
 10
-6.823797925074587
 20
15.78522956464289
 30
0.0
 40
0.4062499999998274
100
AcDbArc
 50
359.9999999999821
 51
45.0
  0
LINE
  5
1519
330
17
100
AcDbEntity
  8
0
100
AcDbLine
 10
-6.816865881107617
 20
16.3528217803897
 30
0.0
 11
-6.536535795217674
 21
16.0724916944998
 31
0.0
  0
ARC
  5
151A
330
17
100
AcDbEntity
  8
0
100
AcDbCircle
 10
-6.573797925074487
 20
16.59588973642271
 30
0.0
 40
0.34375000000027
100
AcDbArc
 50
180.0000000000188
 51
224.9999999999851
  0
LINE
  5
151B
330
17
100
AcDbEntity
  8
0
100
AcDbLine
 10
-6.917547925074814
 20
16.88434121699437
 30
0.0
 11
-6.917547925074757
 21
16.59588973642259
 31
0.0
  0
ARC
  5
151C
330
17
100
AcDbEntity
  8
0
100
AcDbCircle
 10
-6.57379792507497
 20
16.88434121699439
 30
0.0
 40
0.343749999999847
100
AcDbArc
 50
134.9999999999845
 51
180.0000000000024
  0
LINE
  5
151D
330
17
100
AcDbEntity
  8
0
100
AcDbLine
 10
-6.536535795217731
 20
17.40773925891713
 30
0.0
 11
-6.816865881107674
 21
17.12740917302722
 31
0.0
  0
ARC
  5
151E
330
17
100
AcDbEntity
  8
0
100
AcDbCircle
 10
-6.823797925075112
 20
17.69500138877432
 30
0.0
 40
0.4062500000003553
100
AcDbArc
 50
315.000000000019
 51
359.9999999999813
  0
LINE
  5
151F
330
17
100
AcDbEntity
  8
0
100
AcDbLine
 10
-6.417547925074757
 20
18.03522956464275
 30
0.0
 11
-6.417547925074757
 21
17.69500138877419
 31
0.0
  0
ARC
  5
1520
330
17
100
AcDbEntity
  8
0
100
AcDbCircle
 10
-6.823797925074985
 20
18.03522956464259
 30
0.0
 40
0.4062500000002294
100
AcDbArc
 50
0.000000000021984
 51
44.99999999998907
  0
CIRCLE
  5
1521
330
17
100
AcDbEntity
  8
0
100
AcDbCircle
 10
-7.542547925074757
 20
16.74011547670847
 30
0.0
 40
0.1325
  0
CIRCLE
  5
1522
330
17
100
AcDbEntity
  8
0
100
AcDbCircle
 10
-6.480047925074757
 20
16.74011547670847
 30
0.0
 40
0.1325
  0
CIRCLE
  5
1523
330
17
100
AcDbEntity
  8
0
100
AcDbCircle
 10
-6.980047925074757
 20
17.86511547670847
 30
0.0
 40
0.1325
  0
CIRCLE
  5
1524
330
17
100
AcDbEntity
  8
0
100
AcDbCircle
 10
-6.980047925074757
 20
15.61511547670847
 30
0.0
 40
0.1325
  0
CIRCLE
  5
1525
330
17
100
AcDbEntity
  8
0
100
AcDbCircle
 10
-5.917547925074757
 20
17.86511547670847
 30
0.0
 40
0.1325
  0
CIRCLE
  5
1526
330
17
100
AcDbEntity
  8
0
100
AcDbCircle
 10
-5.917547925074757
 20
15.61511547670847
 30
0.0
 40
0.1325
  0
ARC
  5
152B
330
17
100
AcDbEntity
  8
0
100
AcDbCircle
 10
-6.636297925074402
 20
18.82000138877441
 30
0.0
 40
0.4062500000003553
100
AcDbArc
 50
180.0000000000188
 51
224.999999999981
  0
LINE
  5
152C
330
17
100
AcDbEntity
  8
0
100
AcDbLine
 10
-7.042547925074757
 20
19.16022956464265
 30
0.0
 11
-7.042547925074757
 21
18.82000138877427
 31
0.0
  0
ARC
  5
152D
330
17
100
AcDbEntity
  8
0
100
AcDbCircle
 10
-6.636297925074459
 20
19.16022956464249
 30
0.0
 40
0.4062500000002997
100
AcDbArc
 50
135.0000000000156
 51
179.999999999978
  0
LINE
  5
152E
330
17
100
AcDbEntity
  8
0
100
AcDbLine
 10
-6.643229969041897
 20
19.72782178038955
 30
0.0
 11
-6.923560054931784
 21
19.44749169449966
 31
0.0
  0
ARC
  5
152F
330
17
100
AcDbEntity
  8
0
100
AcDbCircle
 10
-6.886297925075027
 20
19.97088973642255
 30
0.0
 40
0.34375000000027
100
AcDbArc
 50
315.000000000015
 51
359.9999999999813
  0
LINE
  5
1530
330
17
100
AcDbEntity
  8
0
100
AcDbLine
 10
-6.542547925074757
 20
20.25934121699447
 30
0.0
 11
-6.542547925074757
 21
19.97088973642244
 31
0.0
  0
ARC
  5
1531
330
17
100
AcDbEntity
  8
0
100
AcDbCircle
 10
-6.886297925075013
 20
20.25934121699436
 30
0.0
 40
0.343750000000259
100
AcDbArc
 50
0.0000000000187271
 51
44.99999999998676
  0
LINE
  5
1532
330
17
100
AcDbEntity
  8
0
100
AcDbLine
 10
-6.923560054931784
 20
20.78273925891723
 30
0.0
 11
-6.643229969041897
 21
20.50240917302736
 31
0.0
  0
ARC
  5
1533
330
17
100
AcDbEntity
  8
0
100
AcDbCircle
 10
-6.636297925074459
 20
21.0700013887744
 30
0.0
 40
0.4062500000002984
100
AcDbArc
 50
180.0000000000179
 51
224.9999999999845
  0
LINE
  5
1534
330
17
100
AcDbEntity
  8
0
100
AcDbLine
 10
-7.042547925074757
 20
21.24011547670848
 30
0.0
 11
-7.042547925074757
 21
21.07000138877427
 31
0.0
  0
ARC
  5
1535
330
17
100
AcDbEntity
  8
0
100
AcDbCircle
 10
-6.573797925075027
 20
18.84588973642257
 30
0.0
 40
0.34374999999973
100
AcDbArc
 50
179.9999999999797
 51
225.0000000000225
  0
LINE
  5
1536
330
17
100
AcDbEntity
  8
0
100
AcDbLine
 10
-6.917547925074757
 20
19.13434121699439
 30
0.0
 11
-6.917547925074757
 21
18.84588973642269
 31
0.0
  0
ARC
  5
1537
330
17
100
AcDbEntity
  8
0
100
AcDbCircle
 10
-6.573797925074914
 20
19.13434121699435
 30
0.0
 40
0.343749999999842
100
AcDbArc
 50
134.9999999999724
 51
179.9999999999943
  0
LINE
  5
1538
330
17
100
AcDbEntity
  8
0
100
AcDbLine
 10
-6.536535795217731
 20
19.65773925891718
 30
0.0
 11
-6.81686588110756
 21
19.37740917302723
 31
0.0
  0
ARC
  5
1539
330
17
100
AcDbEntity
  8
0
100
AcDbCircle
 10
-6.823797925075112
 20
19.94500138877437
 30
0.0
 40
0.4062500000003553
100
AcDbArc
 50
315.000000000019
 51
359.9999999999772
  0
LINE
  5
153A
330
17
100
AcDbEntity
  8
0
100
AcDbLine
 10
-6.417547925074757
 20
20.28522956464276
 30
0.0
 11
-6.417547925074757
 21
19.9450013887742
 31
0.0
  0
ARC
  5
153B
330
17
100
AcDbEntity
  8
0
100
AcDbCircle
 10
-6.823797925075056
 20
20.28522956464261
 30
0.0
 40
0.4062500000002997
100
AcDbArc
 50
0.000000000021984
 51
44.99999999998445
  0
LINE
  5
153C
330
17
100
AcDbEntity
  8
0
100
AcDbLine
 10
-6.816865881107674
 20
20.85282178038976
 30
0.0
 11
-6.536535795217731
 21
20.57249169449977
 31
0.0
  0
ARC
  5
153D
330
17
100
AcDbEntity
  8
0
100
AcDbCircle
 10
-6.573797925074658
 20
21.09588973642272
 30
0.0
 40
0.3437500000001563
100
AcDbArc
 50
180.0000000000138
 51
224.9999999999936
  0
LINE
  5
153E
330
17
100
AcDbEntity
  8
0
100
AcDbLine
 10
-6.917547925074814
 20
21.24011547670848
 30
0.0
 11
-6.917547925074814
 21
21.09588973642264
 31
0.0
  0
CIRCLE
  5
1540
330
17
100
AcDbEntity
  8
0
100
AcDbCircle
 10
-6.980047925074757
 20
20.11511547670847
 30
0.0
 40
0.1325
  0
CIRCLE
  5
1541
330
17
100
AcDbEntity
  8
0
100
AcDbCircle
 10
-7.542547925074757
 20
18.99011547670847
 30
0.0
 40
0.1325
  0
CIRCLE
  5
1542
330
17
100
AcDbEntity
  8
0
100
AcDbCircle
 10
-6.480047925074757
 20
18.99011547670847
 30
0.0
 40
0.1325
  0
CIRCLE
  5
1545
330
17
100
AcDbEntity
  8
0
100
AcDbCircle
 10
-5.917547925074757
 20
20.11511547670847
 30
0.0
 40
0.1325
  0
LINE
  5
1787
330
17
100
AcDbEntity
  8
0
  6
HIDDEN
100
AcDbLine
 10
-8.105048105974746
 20
0.2651154767085018
 30
0.0
 11
-5.35504774417474
 21
0.2651154767085018
 31
0.0
  0
ARC
  5
1788
330
17
100
AcDbEntity
  8
0
  6
HIDDEN
100
AcDbCircle
 10
-6.730047925074771
 20
0.5001154767084728
 30
0.0
 40
0.875
100
AcDbArc
 50
221.0161299651608
 51
318.9838700348408
  0
ARC
  5
1796
330
17
100
AcDbEntity
  8
0
100
AcDbCircle
 10
-7.563286598438239
 20
-0.6497163863097484
 30
0.0
 40
0.3
100
AcDbArc
 50
54.07060958445218
 51
129.4002783514038
  0
ARC
  5
179C
330
17
100
AcDbEntity
  8
0
100
AcDbCircle
 10
-7.563286598438239
 20
-0.6497163863097484
 30
0.0
 40
0.225
100
AcDbArc
 50
54.07060958445218
 51
128.0456346856841
  0
ARC
  5
179E
330
17
100
AcDbEntity
  8
0
100
AcDbCircle
 10
-7.563286598438239
 20
-0.6497163863097484
 30
0.0
 40
0.225
100
AcDbArc
 50
128.0456346856846
 51
146.5932458051436
  0
ARC
  5
179F
330
17
100
AcDbEntity
  8
0
100
AcDbCircle
 10
-7.563286598438239
 20
-0.6497163863097484
 30
0.0
 40
0.3
100
AcDbArc
 50
129.4002783514042
 51
146.5932458051436
  0
ARC
  5
17A0
330
17
100
AcDbEntity
  8
0
100
AcDbCircle
 10
-7.458938727791278
 20
-0.7185387801321355
 30
0.0
 40
0.225
100
AcDbArc
 50
326.5932458051603
 51
345.1408569246204
  0
ARC
  5
17A1
330
17
100
AcDbEntity
  8
0
100
AcDbCircle
 10
-7.458938727791278
 20
-0.7185387801321355
 30
0.0
 40
0.3
100
AcDbArc
 50
343.7862132589009
 51
59.11588202585623
  0
ARC
  5
17A2
330
17
100
AcDbEntity
  8
0
100
AcDbCircle
 10
-7.458938727791278
 20
-0.7185387801321355
 30
0.0
 40
0.225
100
AcDbArc
 50
345.1408569246204
 51
59.11588202585623
  0
ARC
  5
17A3
330
17
100
AcDbEntity
  8
0
100
AcDbCircle
 10
-6.730047925074771
 20
0.5001154767084728
 30
0.0
 40
1.12
100
AcDbArc
 50
234.0706095844477
 51
239.1158820258582
  0
ARC
  5
17A4
330
17
100
AcDbEntity
  8
0
100
AcDbCircle
 10
-6.730047925074771
 20
0.5001154767084728
 30
0.0
 40
1.195
100
AcDbArc
 50
234.0706095844477
 51
239.1158820258582
  0
ARC
  5
17A5
330
17
100
AcDbEntity
  8
0
100
AcDbCircle
 10
-7.458938727791278
 20
-0.7185387801321355
 30
0.0
 40
0.3
100
AcDbArc
 50
329.3781523550567
 51
343.7862132589009
  0
ARC
  5
17AD
330
17
100
AcDbEntity
  8
0
100
AcDbCircle
 10
-8.307547925074729
 20
0.7913615292931553
 30
0.0
 40
0.2619999999999996
100
AcDbArc
 50
0.0000000000004071
 51
39.38490570446512
  0
ARC
  5
17AF
330
17
100
AcDbEntity
  8
0
100
AcDbCircle
 10
-8.307547925074815
 20
0.7913615292931553
 30
0.0
 40
0.187
100
AcDbArc
 50
0.0
 51
47.01411391979246
  0
ARC
  5
17B0
330
17
100
AcDbEntity
  8
0
100
AcDbCircle
 10
-7.555908510519757
 20
-0.0637588828863613
 30
0.0
 40
0.125
100
AcDbArc
 50
214.3241612918684
 51
315.2820058643694
  0
ARC
  5
17B1
330
17
100
AcDbEntity
  8
0
100
AcDbCircle
 10
-7.27915250798317
 20
0.2016039073698721
 30
0.0
 40
0.5
100
AcDbArc
 50
161.6293610254284
 51
208.5299783842804
  0
ARC
  5
17B2
330
17
100
AcDbEntity
  8
0
100
AcDbCircle
 10
-8.307565420274713
 20
0.6654423446931688
 30
0.0
 40
0.2619999999999969
100
AcDbArc
 50
299.4514479890524
 51
320.6150942955361
  0
ARC
  5
17B3
330
17
100
AcDbEntity
  8
0
100
AcDbCircle
 10
-8.307547925074729
 20
0.6663615292931553
 30
0.0
 40
0.2619999999999969
100
AcDbArc
 50
320.6150942955357
 51
359.9999999999996
  0
LINE
  5
17B4
330
17
100
AcDbEntity
  8
0
100
AcDbLine
 10
-8.045547925074729
 20
0.7913615292931411
 30
0.0
 11
-8.045547925074729
 21
0.6663615292931411
 31
0.0
  0
LINE
  5
17B5
330
17
100
AcDbEntity
  8
0
 62
     3
100
AcDbLine
 10
-8.105047925074743
 20
0.5001145471084953
 30
0.0
 11
-8.105065420274755
 21
0.499196290508479
 31
0.0
  0
LINE
  5
17B6
330
17
100
AcDbEntity
  8
0
 62
     3
100
AcDbLine
 10
-8.105065420274784
 20
0.4991962921085076
 30
0.0
 11
-8.1050479250748
 21
0.5001145472084829
 31
0.0
  0
LINE
  5
17B7
330
17
100
AcDbEntity
  8
0
100
AcDbLine
 10
-8.120547925074817
 20
0.7601115292931411
 30
0.0
 11
-8.120547925074817
 21
0.6976115292931411
 31
0.0
  0
ARC
  5
17B8
330
17
100
AcDbEntity
  8
0
100
AcDbCircle
 10
-8.307547925074815
 20
0.6663615292931553
 30
0.0
 40
0.187
100
AcDbArc
 50
312.9858860802075
 51
0.0
  0
LINE
  5
17B9
330
17
100
AcDbEntity
  8
0
100
AcDbLine
 10
-8.105065573374745
 20
0.2646416696084941
 30
0.0
 11
-8.105062634374761
 21
0.2647213907085018
 31
0.0
  0
LINE
  5
17BA
330
17
100
AcDbEntity
  8
0
100
AcDbLine
 10
-8.105048105974746
 20
0.2651154767085018
 30
0.0
 11
-8.105065573374745
 21
0.2646416694084905
 31
0.0
  0
LINE
  5
17BB
330
17
100
AcDbEntity
  8
0
100
AcDbLine
 10
-8.105065573274786
 20
0.2646416702084764
 30
0.0
 11
-8.105048105974802
 21
0.2651154767085018
 31
0.0
  0
LINE
  5
17BC
330
17
100
AcDbEntity
  8
0
100
AcDbLine
 10
-8.105062634374789
 20
0.2647213900084751
 30
0.0
 11
-8.105065573374802
 21
0.2646416683084851
 31
0.0
  0
LINE
  5
17BD
330
17
100
AcDbEntity
  8
0
100
AcDbLine
 10
-7.467086193913005
 20
-0.1517111203371826
 30
0.0
 11
-7.390257174008454
 21
-0.0741220591792597
 31
0.0
  0
LINE
  5
17BE
330
17
100
AcDbEntity
  8
0
100
AcDbLine
 10
-7.198797925074743
 20
0.2651154767085018
 30
0.0
 11
-7.198797925074743
 21
0.500115476708487
 31
0.0
  0
ARC
  5
17BF
330
17
100
AcDbEntity
  8
0
100
AcDbCircle
 10
-8.307565420274713
 20
0.7904423446931688
 30
0.0
 40
0.2619999999999996
100
AcDbArc
 50
39.38490570446455
 51
60.87994316726357
  0
ARC
  5
17C4
330
17
100
AcDbEntity
  8
0
100
AcDbCircle
 10
-5.896809251711304
 20
-0.6497163863097484
 30
0.0
 40
0.3
100
AcDbArc
 50
50.59972164859616
 51
125.9293904155478
  0
ARC
  5
17C8
330
17
100
AcDbEntity
  8
0
100
AcDbCircle
 10
-6.001157122358265
 20
-0.7185387801321355
 30
0.0
 40
0.225
100
AcDbArc
 50
120.8841179741438
 51
194.8591430753796
  0
ARC
  5
17C9
330
17
100
AcDbEntity
  8
0
100
AcDbCircle
 10
-6.001157122358265
 20
-0.7185387801321355
 30
0.0
 40
0.3
100
AcDbArc
 50
120.8841179741438
 51
196.2137867410991
  0
ARC
  5
17CA
330
17
100
AcDbEntity
  8
0
100
AcDbCircle
 10
-6.001157122358265
 20
-0.7185387801321355
 30
0.0
 40
0.225
100
AcDbArc
 50
194.8591430753796
 51
213.4067541948396
  0
ARC
  5
17CC
330
17
100
AcDbEntity
  8
0
100
AcDbCircle
 10
-6.001157122358265
 20
-0.7185387801321355
 30
0.0
 40
0.3
100
AcDbArc
 50
196.2137867410991
 51
210.6218476449434
  0
ARC
  5
17CD
330
17
100
AcDbEntity
  8
0
100
AcDbCircle
 10
-5.896809251711304
 20
-0.6497163863097484
 30
0.0
 40
0.225
100
AcDbArc
 50
51.95436531431594
 51
125.9293904155478
  0
ARC
  5
17CE
330
17
100
AcDbEntity
  8
0
100
AcDbCircle
 10
-6.730047925074771
 20
0.5001154767084728
 30
0.0
 40
1.195
100
AcDbArc
 50
300.8841179741419
 51
305.9293904155523
  0
ARC
  5
17CF
330
17
100
AcDbEntity
  8
0
100
AcDbCircle
 10
-6.730047925074771
 20
0.5001154767084728
 30
0.0
 40
1.12
100
AcDbArc
 50
300.8841179741419
 51
305.9293904155523
  0
ARC
  5
17D0
330
17
100
AcDbEntity
  8
0
100
AcDbCircle
 10
-5.896809251711304
 20
-0.6497163863097484
 30
0.0
 40
0.3
100
AcDbArc
 50
33.40675419485636
 51
50.59972164859578
  0
ARC
  5
17D1
330
17
100
AcDbEntity
  8
0
100
AcDbCircle
 10
-5.896809251711304
 20
-0.6497163863097484
 30
0.0
 40
0.225
100
AcDbArc
 50
33.40675419485636
 51
51.95436531431542
  0
LINE
  5
17D5
330
17
100
AcDbEntity
  8
0
100
AcDbLine
 10
-6.261297925074743
 20
0.2651154767085018
 30
0.0
 11
-6.261297925074743
 21
0.500115476708487
 31
0.0
  0
ARC
  5
17D6
330
17
100
AcDbEntity
  8
0
100
AcDbCircle
 10
-6.180943342156397
 20
0.2016039073882183
 30
0.0
 40
0.5
100
AcDbArc
 50
331.4700216176344
 51
18.37063897486504
  0
ARC
  5
17D7
330
17
100
AcDbEntity
  8
0
100
AcDbCircle
 10
-5.904187339629786
 20
-0.0637588828863329
 30
0.0
 40
0.125
100
AcDbArc
 50
224.7179941356441
 51
325.6758387081355
  0
LINE
  5
17D8
330
17
100
AcDbEntity
  8
0
100
AcDbLine
 10
-5.993009656236509
 20
-0.1517111203371826
 30
0.0
 11
-6.069838676141089
 21
-0.0741220591792597
 31
0.0
  0
ARC
  5
17D9
330
17
100
AcDbEntity
  8
0
100
AcDbCircle
 10
-5.152547925074728
 20
0.7913615292931553
 30
0.0
 40
0.2619999999999996
100
AcDbArc
 50
140.6150942955349
 51
179.9999999999996
  0
ARC
  5
17DB
330
17
100
AcDbEntity
  8
0
100
AcDbCircle
 10
-5.152547925074728
 20
0.7913615292931553
 30
0.0
 40
0.187
100
AcDbArc
 50
132.9858860802075
 51
180.0
  0
ARC
  5
17DC
330
17
100
AcDbEntity
  8
0
100
AcDbCircle
 10
-5.152530429874744
 20
0.6654423446931688
 30
0.0
 40
0.2619999999999969
100
AcDbArc
 50
219.3849057044639
 51
240.5485520109477
  0
ARC
  5
17DD
330
17
100
AcDbEntity
  8
0
100
AcDbCircle
 10
-5.152547925074728
 20
0.6663615292931553
 30
0.0
 40
0.2619999999999969
100
AcDbArc
 50
180.0000000000004
 51
219.3849057044643
  0
LINE
  5
17DE
330
17
100
AcDbEntity
  8
0
 62
     3
100
AcDbLine
 10
-5.355030429874788
 20
0.4991962921085076
 30
0.0
 11
-5.355047925074715
 21
0.5001145472084829
 31
0.0
  0
LINE
  5
17DF
330
17
100
AcDbEntity
  8
0
100
AcDbLine
 10
-5.414547925074729
 20
0.7913615292931411
 30
0.0
 11
-5.414547925074729
 21
0.6663615292931411
 31
0.0
  0
LINE
  5
17E0
330
17
100
AcDbEntity
  8
0
100
AcDbLine
 10
-5.339547925074726
 20
0.7601115292931411
 30
0.0
 11
-5.339547925074726
 21
0.6976115292931411
 31
0.0
  0
ARC
  5
17E1
330
17
100
AcDbEntity
  8
0
100
AcDbCircle
 10
-5.152547925074728
 20
0.6663615292931553
 30
0.0
 40
0.187
100
AcDbArc
 50
180.0
 51
227.0141139197925
  0
LINE
  5
17E2
330
17
100
AcDbEntity
  8
0
100
AcDbLine
 10
-5.355033215774725
 20
0.2647213900084751
 30
0.0
 11
-5.35503027677477
 21
0.2646416683084851
 31
0.0
  0
LINE
  5
17E3
330
17
100
AcDbEntity
  8
0
100
AcDbLine
 10
-5.355030276874757
 20
0.2646416702084764
 30
0.0
 11
-5.35504774417474
 21
0.2651154767085018
 31
0.0
  0
ARC
  5
17E4
330
17
100
AcDbEntity
  8
0
100
AcDbCircle
 10
-5.152530429874744
 20
0.7904423446931688
 30
0.0
 40
0.2619999999999996
100
AcDbArc
 50
119.1200568327364
 51
140.6150942955355
  0
CIRCLE
  5
18BB
330
17
100
AcDbEntity
  8
0
100
AcDbCircle
 10
6.18036110906997
 20
0.7288615292931695
 30
0.0
 40
0.1489496572372531
  0
CIRCLE
  5
18BC
330
17
100
AcDbEntity
  8
0
100
AcDbCircle
 10
6.18036110906997
 20
0.7288615292931695
 30
0.0
 40
0.1992945539851405
  0
LINE
  5
1A44
330
17
100
AcDbEntity
  8
0
100
AcDbLine
 10
3.839509127149462
 20
0.3166657667756994
 30
0.0
 11
5.025142311316195
 21
3.886918054286738
 31
0.0
  0
LINE
  5
1A45
330
17
100
AcDbEntity
  8
0
100
AcDbLine
 10
7.166327947306478
 20
-1.009884523291504
 30
0.0
 11
3.814027947306407
 21
-1.009884523291461
 31
0.0
  0
LINE
  5
1A4B
330
17
100
AcDbEntity
  8
0
  6
HIDDEN
100
AcDbLine
 10
7.166327947306478
 20
-0.8748845232914988
 30
0.0
 11
3.814027947306407
 21
-0.8748845232914562
 31
0.0
  0
LINE
  5
1ACD
330
17
100
AcDbEntity
  8
0
100
AcDbLine
 10
3.814027947306535
 20
-1.009884523291447
 30
0.0
 11
3.814027947306549
 21
0.1590843931405885
 31
0.0
  0
ARC
  5
1ACE
330
17
100
AcDbEntity
  8
0
100
AcDbCircle
 10
4.314027947306578
 20
0.1590843931405885
 30
0.0
 40
0.5000000000000284
100
AcDbArc
 50
161.6293610254274
 51
180.0
  0
LINE
  5
1B3B
330
17
100
AcDbEntity
  8
0
100
AcDbLine
 10
5.122195131207512
 20
4.377730601338939
 30
0.0
 11
6.301327947306525
 21
21.24011547670848
 31
0.0
  0
LINE
  5
1B3C
330
17
100
AcDbEntity
  8
0
100
AcDbLine
 10
7.436327947306488
 20
21.24011547670848
 30
0.0
 11
7.436327947306459
 21
-0.7398845232914795
 31
0.0
  0
LINE
  5
1B3D
330
17
100
AcDbEntity
  8
0
  6
HIDDEN
100
AcDbLine
 10
7.301327947306525
 20
21.24011547670848
 30
0.0
 11
7.301327947306469
 21
-0.7398845232914795
 31
0.0
  0
LINE
  5
1B3E
330
17
100
AcDbEntity
  8
0
  6
HIDDEN
100
AcDbLine
 10
5.197501088284632
 20
0.0151069178085095
 30
0.0
 11
5.197501088284632
 21
-0.8748845232914988
 31
0.0
  0
LINE
  5
1B3F
330
17
100
AcDbEntity
  8
0
  6
HIDDEN
100
AcDbLine
 10
4.962501088284618
 20
0.0151069178085095
 30
0.0
 11
4.962501088284618
 21
-0.8748845232914988
 31
0.0
  0
LINE
  5
1B40
330
17
100
AcDbEntity
  8
0
  6
HIDDEN
100
AcDbLine
 10
6.932501088284617
 20
0.0151069178085095
 30
0.0
 11
6.932501088284617
 21
-0.8748845232914988
 31
0.0
  0
LINE
  5
1B41
330
17
100
AcDbEntity
  8
0
  6
HIDDEN
100
AcDbLine
 10
6.697501088284632
 20
0.0151069178085095
 30
0.0
 11
6.697501088284632
 21
-0.8748845232914988
 31
0.0
  0
LINE
  5
1B42
330
17
100
AcDbEntity
  8
0
100
AcDbLine
 10
5.197501088284632
 20
-0.8748930821914911
 30
0.0
 11
4.962501088284618
 21
-0.8748930821914911
 31
0.0
  0
LINE
  5
1B43
330
17
100
AcDbEntity
  8
0
100
AcDbLine
 10
5.498827947306516
 20
-0.9748845232914789
 30
0.0
 11
5.498827947306459
 21
-0.8748845232914846
 31
0.0
  0
LINE
  5
1B44
330
17
100
AcDbEntity
  8
0
100
AcDbLine
 10
6.932501088284617
 20
-0.8748930821914911
 30
0.0
 11
6.697501088284632
 21
-0.8748930821914911
 31
0.0
  0
ARC
  5
1B45
330
17
100
AcDbEntity
  8
0
100
AcDbCircle
 10
7.166327947306478
 20
-0.7398845232914795
 30
0.0
 40
0.27
100
AcDbArc
 50
270.0
 51
0.0
  0
LINE
  5
1B46
330
17
100
AcDbEntity
  8
0
100
AcDbLine
 10
6.623827947306459
 20
-0.9748845232914931
 30
0.0
 11
6.623827947306459
 21
-0.8748845232914846
 31
0.0
  0
ARC
  5
1B47
330
17
100
AcDbEntity
  8
0
  6
HIDDEN
100
AcDbCircle
 10
7.166327947306478
 20
-0.7398845232914795
 30
0.0
 40
0.135
100
AcDbArc
 50
270.0
 51
0.0
  0
LINE
  5
1B48
330
17
100
AcDbEntity
  8
0
  6
HIDDEN
100
AcDbLine
 10
6.447501088284632
 20
0.5001069178085089
 30
0.0
 11
5.447501088284632
 21
0.5001069178085089
 31
0.0
  0
LINE
  5
1B49
330
17
100
AcDbEntity
  8
0
  6
HIDDEN
100
AcDbLine
 10
6.447501088284632
 20
0.2651069178085095
 30
0.0
 11
5.447501088284632
 21
0.2651069178085095
 31
0.0
  0
ARC
  5
1B4A
330
17
100
AcDbEntity
  8
0
  6
HIDDEN
100
AcDbCircle
 10
5.447501088284632
 20
0.0151069178085095
 30
0.0
 40
0.25
100
AcDbArc
 50
90.0
 51
180.0
  0
LINE
  5
1B4B
330
17
100
AcDbEntity
  8
0
  6
HIDDEN
100
AcDbLine
 10
5.478751088284632
 20
0.2651069178085095
 30
0.0
 11
5.478751088284632
 21
0.5001069178085089
 31
0.0
  0
ARC
  5
1B4D
330
17
100
AcDbEntity
  8
0
  6
HIDDEN
100
AcDbCircle
 10
5.447501088284632
 20
0.0151069178085095
 30
0.0
 40
0.485
100
AcDbArc
 50
90.0
 51
180.0
  0
ARC
  5
1B4E
330
17
100
AcDbEntity
  8
0
  6
HIDDEN
100
AcDbCircle
 10
6.447501088284632
 20
0.0151069178085095
 30
0.0
 40
0.25
100
AcDbArc
 50
0.0
 51
90.0
  0
LINE
  5
1B4F
330
17
100
AcDbEntity
  8
0
  6
HIDDEN
100
AcDbLine
 10
6.416251088284632
 20
0.2651069178085095
 30
0.0
 11
6.416251088284632
 21
0.5001069178085089
 31
0.0
  0
ARC
  5
1B51
330
17
100
AcDbEntity
  8
0
  6
HIDDEN
100
AcDbCircle
 10
6.447501088284632
 20
0.0151069178085095
 30
0.0
 40
0.485
100
AcDbArc
 50
0.0
 51
90.0
  0
LINE
  5
1B52
330
17
100
AcDbEntity
  8
0
100
AcDbLine
 10
7.301327947306469
 20
-0.6248845232914846
 30
0.0
 11
7.401327947306491
 21
-0.6248845232914846
 31
0.0
  0
ARC
  5
1B53
330
17
100
AcDbEntity
  8
0
100
AcDbCircle
 10
3.127067030687833
 20
4.51724354882721
 30
0.0
 40
2.000000000000031
100
AcDbArc
 50
341.6293610254257
 51
355.9999999999994
  0
LINE
  5
1B55
330
17
100
AcDbEntity
  8
0
100
AcDbLine
 10
6.301327947306525
 20
21.24011547670848
 30
0.0
 11
7.436327947306488
 21
21.24011547670848
 31
0.0
  0
LINE
  5
1BF8
330
17
100
AcDbEntity
  8
0
100
AcDbLine
 10
-5.730047925074736
 20
29.24628258681877
 30
0.0
 11
-7.730047925074732
 21
29.24628258681877
 31
0.0
  0
LINE
  5
1C21
330
17
100
AcDbEntity
  8
0
100
AcDbLine
 10
-8.240047925074748
 20
21.24011547670848
 30
0.0
 11
-7.042547925074757
 21
21.24011547670848
 31
0.0
  0
LINE
  5
1C22
330
17
100
AcDbEntity
  8
0
100
AcDbLine
 10
-6.917547925074814
 20
21.24011547670848
 30
0.0
 11
-5.220047925074766
 21
21.24011547670848
 31
0.0
  0
ARC
  5
1F85
330
17
100
AcDbEntity
  8
0
100
AcDbCircle
 10
4.565077947306087
 20
-0.7288848133403434
 30
0.0
 40
0.2875
100
AcDbArc
 50
184.3718307981646
 51
355.6281692018354
  0
ARC
  5
1F86
330
17
100
AcDbEntity
  8
0
100
AcDbCircle
 10
4.565077947306087
 20
-0.7727163863096962
 30
0.0
 40
0.2875
100
AcDbArc
 50
4.371830798164571
 51
175.6281692018354
  0
ARC
  5
1F87
330
17
100
AcDbEntity
  8
0
100
AcDbCircle
 10
4.565077947306087
 20
-0.7727163863096962
 30
0.0
 40
0.1875
100
AcDbArc
 50
6.7123144673341
 51
173.2876855326667
  0
ARC
  5
1F88
330
17
100
AcDbEntity
  8
0
100
AcDbCircle
 10
4.565077947306087
 20
-0.7288848133403434
 30
0.0
 40
0.1875
100
AcDbArc
 50
186.7123144673349
 51
353.2876855326651
  0
LINE
  5
1F99
330
17
100
AcDbEntity
  8
0
100
AcDbLine
 10
-8.224422925074727
 20
25.93378258681877
 30
0.0
 11
-5.235672925074745
 21
25.93378258681877
 31
0.0
  0
LINE
  5
1FA1
330
17
100
AcDbEntity
  8
0
100
AcDbLine
 10
-6.838601692303026
 20
3.004774259590885
 30
0.0
 11
-7.64437028910395
 21
0.5001154767085012
 31
0.0
  0
LINE
  5
1FE9
330
17
100
AcDbEntity
  8
0
100
AcDbLine
 10
-5.815725561045458
 20
0.5001154767085012
 30
0.0
 11
-6.62149415762565
 21
3.004774254470306
 31
0.0
  0
CIRCLE
  5
210A
330
17
100
AcDbEntity
  8
0
100
AcDbCircle
 10
6.301327947306525
 20
10.55261547670808
 30
0.0
 40
0.3435
  0
ELLIPSE
  5
2119
330
17
100
AcDbEntity
  8
0
100
AcDbEllipse
 10
-5.955686733501025
 20
26.46503258681877
 30
0.0
 11
0.0
 21
-0.34375
 31
0.0
210
0.0
220
0.0
230
1.0
 40
0.8181818181818156
 41
0.0
 42
6.283185307179586
  0
ELLIPSE
  5
211A
330
17
100
AcDbEntity
  8
0
100
AcDbEllipse
 10
-5.955686733501025
 20
26.46503258681877
 30
0.0
 11
0.0
 21
-0.2578125
 31
0.0
210
0.0
220
0.0
230
1.0
 40
0.8181818181818156
 41
0.0
 42
6.283185307179586
  0
ELLIPSE
  5
211B
330
17
100
AcDbEntity
  8
0
100
AcDbEllipse
 10
-7.504409116648361
 20
26.46503258681877
 30
0.0
 11
0.0
 21
-0.2578125
 31
0.0
210
0.0
220
0.0
230
-1.0
 40
0.8181818181818156
 41
0.0
 42
6.283185307179586
  0
ELLIPSE
  5
211C
330
17
100
AcDbEntity
  8
0
100
AcDbEllipse
 10
-7.504409116648361
 20
26.46503258681877
 30
0.0
 11
0.0
 21
-0.34375
 31
0.0
210
0.0
220
0.0
230
-1.0
 40
0.8181818181818156
 41
0.0
 42
6.283185307179586
  0
LINE
  5
211E
330
17
100
AcDbEntity
  8
0
100
AcDbLine
 10
-7.992791770774723
 20
28.87128258681877
 30
0.0
 11
-5.467304079374742
 21
28.87128258681877
 31
0.0
  0
LINE
  5
211F
330
17
100
AcDbEntity
  8
0
  6
HIDDEN
100
AcDbLine
 10
-7.948416770774692
 20
28.62128258681877
 30
0.0
 11
-5.511679079374698
 21
28.62128258681877
 31
0.0
  0
LINE
  5
2120
330
17
100
AcDbEntity
  8
0
  6
HIDDEN
100
AcDbLine
 10
-7.962102052174693
 20
27.12276427711876
 30
0.0
 11
-5.511679079374698
 21
27.12128258681877
 31
0.0
  0
LINE
  5
2121
330
17
100
AcDbEntity
  8
0
100
AcDbLine
 10
-7.992791770774723
 20
26.87128258681877
 30
0.0
 11
-5.467304079374742
 21
26.87128258681877
 31
0.0
  0
LINE
  5
2122
330
17
100
AcDbEntity
  8
0
100
AcDbLine
 10
-8.224422925074727
 20
25.93378258681877
 30
0.0
 11
-8.224422925074727
 21
28.79628258681876
 31
0.0
  0
LINE
  5
2123
330
17
100
AcDbEntity
  8
0
100
AcDbLine
 10
-8.086922925074724
 20
28.20628253001877
 30
0.0
 11
-8.086922925074724
 21
28.37128258681877
 31
0.0
  0
ARC
  5
2126
330
17
100
AcDbEntity
  8
0
100
AcDbCircle
 10
-7.774422925074727
 20
28.79628258681876
 30
0.0
 40
0.45
100
AcDbArc
 50
90.00000000000003
 51
180.0
  0
ARC
  5
2127
330
17
100
AcDbEntity
  8
0
100
AcDbCircle
 10
-7.711922925074724
 20
28.73378258681876
 30
0.0
 40
0.375
100
AcDbArc
 50
90.00000000000003
 51
180.0
  0
LWPOLYLINE
  5
2128
330
17
100
AcDbEntity
  8
0
100
AcDbPolyline
 90
       11
 70
     0
 43
0.0
 10
-8.086922925074724
 20
28.37227122651876
 10
-8.086907051474725
 20
28.45229692561877
 10
-8.086680631574723
 20
28.52985604301877
 10
-8.085758093174725
 20
28.60233166141877
 10
-8.083440591474727
 20
28.66832282101876
 10
-8.078802784974727
 20
28.72758065601877
 10
-8.070928238374727
 20
28.77796007291877
 10
-8.059083010374728
 20
28.81794298831876
 10
-8.042331390374727
 20
28.84740437071876
 10
-8.020162330674729
 20
28.86535582701876
 10
-7.992791770774723
 20
28.87128258681877
  0
LWPOLYLINE
  5
2129
330
17
100
AcDbEntity
  8
0
100
AcDbPolyline
 90
       10
 70
     0
 43
0.0
 10
-8.086907051474725
 20
28.41178975621877
 10
-8.086680631574723
 20
28.45056931491877
 10
-8.085758093174725
 20
28.48680712411877
 10
-8.083440591474727
 20
28.51980270391876
 10
-8.078802784974727
 20
28.54943162141876
 10
-8.070928238374727
 20
28.57462132991876
 10
-8.059083010374728
 20
28.59461278761877
 10
-8.042331390374727
 20
28.60934347881876
 10
-8.020162330674729
 20
28.61831920691876
 10
-7.992791770774723
 20
28.62128258681877
  0
LINE
  5
212B
330
17
100
AcDbEntity
  8
0
100
AcDbLine
 10
-8.086923120274726
 20
28.37128258681877
 30
0.0
 11
-8.086922728074725
 21
28.37227122641876
 31
0.0
  0
LINE
  5
212C
330
17
100
AcDbEntity
  8
0
100
AcDbLine
 10
-8.086922925074724
 20
25.93378258681877
 30
0.0
 11
-8.086922925074724
 21
28.23378258681876
 31
0.0
  0
LWPOLYLINE
  5
212D
330
17
100
AcDbEntity
  8
0
100
AcDbPolyline
 90
       11
 70
     0
 43
0.0
 10
-7.992791770774723
 20
26.87128258681877
 10
-8.020162333574724
 20
26.87720934801877
 10
-8.042331394874722
 20
26.89516080841877
 10
-8.05908301527473
 20
26.92462219741876
 10
-8.070928242874722
 20
26.96460512161876
 10
-8.078802788474725
 20
27.01498454941876
 10
-8.083440593774725
 20
27.07424239611876
 10
-8.085758094374725
 20
27.14023356821876
 10
-8.086680631974723
 20
27.21270920001876
 10
-8.086907051574727
 20
27.29026833011876
 10
-8.086922925074724
 20
27.37029403991876
  0
LWPOLYLINE
  5
212E
330
17
100
AcDbEntity
  8
0
100
AcDbPolyline
 90
       10
 70
     0
 43
0.0
 10
-7.992791770774723
 20
27.12128258681877
 10
-8.020162333574724
 20
27.12424596741877
 10
-8.042331394874722
 20
27.13322169761877
 10
-8.05908301527473
 20
27.14795239211876
 10
-8.070928242874722
 20
27.16794385421876
 10
-8.078802788474725
 20
27.19313356811877
 10
-8.083440593774725
 20
27.22276249151877
 10
-8.085758094374725
 20
27.25575807751876
 10
-8.086680631974723
 20
27.29199589341877
 10
-8.086907051574727
 20
27.33077545851877
  0
LINE
  5
212F
330
17
100
AcDbEntity
  8
0
  6
HIDDEN
100
AcDbLine
 10
-8.086922925074724
 20
27.53628253001877
 30
0.0
 11
-8.032547826624722
 21
27.53628253001877
 31
0.0
  0
LINE
  5
2130
330
17
100
AcDbEntity
  8
0
  6
HIDDEN
100
AcDbLine
 10
-8.032547826624722
 20
28.20628253001877
 30
0.0
 11
-8.086922925074724
 21
28.20628253001877
 31
0.0
  0
LINE
  5
2132
330
17
100
AcDbEntity
  8
0
  6
HIDDEN
100
AcDbLine
 10
-8.086922925074724
 20
27.37029403991876
 30
0.0
 11
-8.086922925074724
 21
27.53628253001877
 31
0.0
  0
LINE
  5
2133
330
17
100
AcDbEntity
  8
0
  6
HIDDEN
100
AcDbLine
 10
-8.016922826624722
 20
27.55190753001877
 30
0.0
 11
-8.016922826624722
 21
28.19065753001877
 31
0.0
  0
ARC
  5
2134
330
17
100
AcDbEntity
  8
0
  6
HIDDEN
100
AcDbCircle
 10
-8.032547826624722
 20
28.19065753001877
 30
0.0
 40
0.015625
100
AcDbArc
 50
359.9999999999998
 51
89.99999999999982
  0
ARC
  5
2135
330
17
100
AcDbEntity
  8
0
  6
HIDDEN
100
AcDbCircle
 10
-8.032547826624722
 20
27.55190753001877
 30
0.0
 40
0.015625
100
AcDbArc
 50
269.9999999999998
 51
359.9999999999998
  0
LINE
  5
2136
330
17
100
AcDbEntity
  8
0
100
AcDbLine
 10
-5.235672925074745
 20
25.93378258681877
 30
0.0
 11
-5.235672925074745
 21
28.79628258681876
 31
0.0
  0
LINE
  5
2137
330
17
100
AcDbEntity
  8
0
100
AcDbLine
 10
-5.373172925074741
 20
28.37227103511876
 30
0.0
 11
-5.373172957693392
 21
28.20628253001877
 31
0.0
  0
ARC
  5
2139
330
17
100
AcDbEntity
  8
0
100
AcDbCircle
 10
-5.685672925074744
 20
28.79628258681876
 30
0.0
 40
0.45
100
AcDbArc
 50
0.0
 51
90.00000000000003
  0
ARC
  5
213A
330
17
100
AcDbEntity
  8
0
100
AcDbCircle
 10
-5.748172925074741
 20
28.73378258681876
 30
0.0
 40
0.375
100
AcDbArc
 50
0.0
 51
90.00000000000003
  0
LWPOLYLINE
  5
213B
330
17
100
AcDbEntity
  8
0
100
AcDbPolyline
 90
       10
 70
     0
 43
0.0
 10
-5.467304079374742
 20
28.62128258681877
 10
-5.439933513574744
 20
28.61831920551876
 10
-5.417764450574737
 20
28.60934347311877
 10
-5.401012829674741
 20
28.59461277511876
 10
-5.389167602474743
 20
28.57462130831877
 10
-5.381293057874743
 20
28.54943158871876
 10
-5.376655253874738
 20
28.51980265911877
 10
-5.374337754474738
 20
28.48680706641876
 10
-5.37341521767474
 20
28.45056924341876
 10
-5.373188798574745
 20
28.41178967161876
  0
LWPOLYLINE
  5
213C
330
17
100
AcDbEntity
  8
0
100
AcDbPolyline
 90
       11
 70
     0
 43
0.0
 10
-5.467304079374742
 20
28.87128258681877
 10
-5.439933513574744
 20
28.86535582421877
 10
-5.417764450574737
 20
28.84740435941876
 10
-5.401012829674741
 20
28.81794296351876
 10
-5.389167602474743
 20
28.77796002981877
 10
-5.381293057874743
 20
28.72758059061876
 10
-5.376655253874738
 20
28.66832273131877
 10
-5.374337754474738
 20
28.60233154591876
 10
-5.37341521767474
 20
28.52985590001877
 10
-5.373188798574745
 20
28.45229675631876
 10
-5.373172925074741
 20
28.37227103511876
  0
CIRCLE
  5
2143
330
17
100
AcDbEntity
  8
0
100
AcDbCircle
 10
-6.730047925074686
 20
27.87128258681877
 30
0.0
 40
0.46875
  0
LINE
  5
2147
330
17
100
AcDbEntity
  8
0
100
AcDbLine
 10
-5.373172925074741
 20
25.93378258681877
 30
0.0
 11
-5.373172925074741
 21
28.23378258681876
 31
0.0
  0
LWPOLYLINE
  5
2148
330
17
100
AcDbEntity
  8
0
100
AcDbPolyline
 90
       11
 70
     0
 43
0.0
 10
-5.373172925074741
 20
27.37029402491876
 10
-5.373188798574745
 20
27.29026831681877
 10
-5.373415218274737
 20
27.21270918871876
 10
-5.374337755874741
 20
27.14023355911877
 10
-5.376655256674738
 20
27.07424238911877
 10
-5.381293062174741
 20
27.01498454421876
 10
-5.389167607974741
 20
26.96460511821876
 10
-5.401012835674742
 20
26.92462219541876
 10
-5.417764456074742
 20
26.89516080751876
 10
-5.439933517074742
 20
26.87720934781876
 10
-5.467304079374742
 20
26.87128258681877
  0
LWPOLYLINE
  5
2149
330
17
100
AcDbEntity
  8
0
100
AcDbPolyline
 90
       10
 70
     0
 43
0.0
 10
-5.373188798574745
 20
27.33077545181877
 10
-5.373415218274737
 20
27.29199588781876
 10
-5.374337755874741
 20
27.25575807301877
 10
-5.376655256674738
 20
27.22276248791876
 10
-5.381293062174741
 20
27.19313356551876
 10
-5.389167607974741
 20
27.16794385251877
 10
-5.401012835674742
 20
27.14795239111876
 10
-5.417764456074742
 20
27.13322169721877
 10
-5.439933517074742
 20
27.12424596731877
 10
-5.467304079374742
 20
27.12128258681877
  0
LINE
  5
214A
330
17
100
AcDbEntity
  8
0
  6
HIDDEN
100
AcDbLine
 10
-5.443173023524743
 20
27.55190753001877
 30
0.0
 11
-5.443173023524743
 21
28.19065753001877
 31
0.0
  0
LINE
  5
214B
330
17
100
AcDbEntity
  8
0
  6
HIDDEN
100
AcDbLine
 10
-5.427548023524743
 20
28.20628253001877
 30
0.0
 11
-5.373172957693392
 21
28.20628253001877
 31
0.0
  0
ARC
  5
214C
330
17
100
AcDbEntity
  8
0
  6
HIDDEN
100
AcDbCircle
 10
-5.427548023524743
 20
28.19065753001877
 30
0.0
 40
0.015625
100
AcDbArc
 50
90.00000000000003
 51
180.0
  0
LINE
  5
214D
330
17
100
AcDbEntity
  8
0
  6
HIDDEN
100
AcDbLine
 10
-5.373173089356094
 20
27.53628253001877
 30
0.0
 11
-5.427548023524743
 21
27.53628253001877
 31
0.0
  0
ARC
  5
214E
330
17
100
AcDbEntity
  8
0
  6
HIDDEN
100
AcDbCircle
 10
-5.427548023524743
 20
27.55190753001877
 30
0.0
 40
0.015625
100
AcDbArc
 50
180.0
 51
270.0
  0
LINE
  5
214F
330
17
100
AcDbEntity
  8
0
100
AcDbLine
 10
-5.373173089356094
 20
27.53628253001877
 30
0.0
 11
-5.373173121974737
 21
27.37029402491876
 31
0.0
  0
LINE
  5
2150
330
17
100
AcDbEntity
  8
0
100
AcDbLine
 10
-5.685672925074744
 20
29.24628258681877
 30
0.0
 11
-7.774422925074727
 21
29.24628258681877
 31
0.0
  0
LINE
  5
2151
330
17
100
AcDbEntity
  8
0
100
AcDbLine
 10
-5.748172925074741
 20
29.10878258681876
 30
0.0
 11
-7.711922925074724
 21
29.10878258681876
 31
0.0
  0
ARC
  5
21C7
330
17
100
AcDbEntity
  8
0
100
AcDbCircle
 10
-6.730146795717587
 20
27.79712769630105
 30
0.0
 40
0.5625
100
AcDbArc
 50
180.0
 51
0.0
  0
ARC
  5
21C8
330
17
100
AcDbEntity
  8
0
100
AcDbCircle
 10
-6.730146795717587
 20
27.92212769630106
 30
0.0
 40
0.5625
100
AcDbArc
 50
0.0
 51
180.0
  0
LINE
  5
21C9
330
17
100
AcDbEntity
  8
0
100
AcDbLine
 10
-7.292646795717587
 20
27.79712769630105
 30
0.0
 11
-7.292646795717587
 21
27.92212769630106
 31
0.0
  0
LINE
  5
21CA
330
17
100
AcDbEntity
  8
0
100
AcDbLine
 10
-6.167646795717587
 20
27.79712769630105
 30
0.0
 11
-6.167646795717587
 21
27.92212769630106
 31
0.0
  0
ENDSEC
  0
SECTION
  2
OBJECTS
  0
DICTIONARY
  5
C
330
0
100
AcDbDictionary
281
     1
  3
ACAD_COLOR
350
21E9
  3
ACAD_GROUP
350
D
  3
ACAD_LAYOUT
350
47B
  3
ACAD_MATERIAL
350
21E8
  3
ACAD_MLINESTYLE
350
1A
  3
ACAD_PLOTSETTINGS
350
47C
  3
ACAD_PLOTSTYLENAME
350
479
  3
ACAD_TABLESTYLE
350
21EA
  3
ACDBHEADERROUNDTRIPXREC
350
21FA
  3
ACDBVARIABLEDICTIONARY
350
49
  0
DICTIONARY
  5
21EE
330
2
100
AcDbDictionary
280
     1
281
     1
  3
ACAD_LAYERFILTERS
360
21F0
  3
ACLYDICTIONARY
360
21EF
  0
DICTIONARY
  5
21E9
102
{ACAD_REACTORS
330
C
102
}
330
C
100
AcDbDictionary
281
     1
  0
DICTIONARY
  5
D
102
{ACAD_REACTORS
330
C
102
}
330
C
100
AcDbDictionary
281
     1
  0
DICTIONARY
  5
47B
102
{ACAD_REACTORS
330
C
102
}
330
C
100
AcDbDictionary
281
     1
  3
Layout1
350
47E
  3
Model
350
47D
  0
DICTIONARY
  5
21E8
102
{ACAD_REACTORS
330
C
102
}
330
C
100
AcDbDictionary
281
     1
  0
DICTIONARY
  5
1A
102
{ACAD_REACTORS
330
C
102
}
330
C
100
AcDbDictionary
281
     1
  3
STANDARD
350
1B
  0
DICTIONARY
  5
47C
102
{ACAD_REACTORS
330
C
102
}
330
C
100
AcDbDictionary
281
     1
  0
ACDBDICTIONARYWDFLT
  5
479
102
{ACAD_REACTORS
330
C
102
}
330
C
100
AcDbDictionary
281
     1
  3
Normal
350
47A
100
AcDbDictionaryWithDefault
340
47A
  0
DICTIONARY
  5
21EA
102
{ACAD_REACTORS
330
C
102
}
330
C
100
AcDbDictionary
281
     1
  3
Standard
350
21EB
  0
DICTIONARY
  5
21FA
102
{ACAD_REACTORS
330
C
102
}
330
C
100
AcDbDictionary
281
     1
  3
COLORDICT
350
21FB
  3
MATERIALDICT
350
21FC
  0
DICTIONARY
  5
49
102
{ACAD_REACTORS
330
C
102
}
330
C
100
AcDbDictionary
281
     1
  3
CTABLESTYLE
350
21F7
  3
DIMADEC
350
4A
  0
DICTIONARY
  5
21F0
102
{ACAD_REACTORS
330
21EE
102
}
330
21EE
100
AcDbDictionary
281
     1
  0
DICTIONARY
  5
21EF
102
{ACAD_REACTORS
330
21EE
102
}
330
21EE
100
AcDbDictionary
281
     1
1001
ACAD
1000
<All
  0
LAYOUT
  5
47E
102
{ACAD_REACTORS
330
47B
102
}
102
{ACAD_XDICTIONARY
360
21FD
102
}
330
47B
100
AcDbPlotSettings
  1

  2
hp psc 2100 series
  4

  6

 40
0.0
 41
0.0
 42
0.0
 43
0.0
 44
0.0
 45
0.0
 46
0.0
 47
0.0
 48
0.0
 49
0.0
140
0.0
141
0.0
142
1.0
143
1.0
 70
   688
 72
     0
 73
     0
 74
     5
  7

 75
    16
147
1.0
148
0.0
149
0.0
100
AcDbLayout
  1
Layout1
 70
     0
 71
     1
 10
0.0
 20
0.0
 11
12.0
 21
9.0
 12
0.0
 22
0.0
 32
0.0
 14
1.000000000000000E+20
 24
1.000000000000000E+20
 34
1.000000000000000E+20
 15
-1.000000000000000E+20
 25
-1.000000000000000E+20
 35
-1.000000000000000E+20
146
0.0
 13
0.0
 23
0.0
 33
0.0
 16
1.0
 26
0.0
 36
0.0
 17
0.0
 27
1.0
 37
0.0
 76
     0
330
14
  0
LAYOUT
  5
47D
102
{ACAD_REACTORS
330
47B
102
}
102
{ACAD_XDICTIONARY
360
21FF
102
}
330
47B
100
AcDbPlotSettings
  1

  2
HP LaserJet 2100 Series PS
  4
Letter
  6

 40
5.365749835968018
 41
5.408073902130127
 42
5.132904052734375
 43
5.090576171875
 44
215.8999938964844
 45
279.3999938964844
 46
0.0
 47
0.0
 48
0.0
 49
0.0
140
0.0
141
0.0
142
1.0
143
1.0
 70
 11952
 72
     0
 73
     1
 74
     0
  7

 75
     0
147
1.0
148
-235.8358304326739
149
124.3460344986174
100
AcDbLayout
  1
Model
 70
     1
 71
     0
 10
0.0
 20
0.0
 11
12.0
 21
9.0
 12
0.0
 22
0.0
 32
0.0
 14
0.0
 24
0.0
 34
0.0
 15
0.0
 25
0.0
 35
0.0
146
0.0
 13
0.0
 23
0.0
 33
0.0
 16
1.0
 26
0.0
 36
0.0
 17
0.0
 27
1.0
 37
0.0
 76
     0
330
17
  0
MLINESTYLE
  5
1B
102
{ACAD_REACTORS
330
1A
102
}
330
1A
100
AcDbMlineStyle
  2
STANDARD
 70
     0
  3

 62
   256
 51
90.0
 52
90.0
 71
     2
 49
0.5
 62
   256
  6
BYLAYER
 49
-0.5
 62
   256
  6
BYLAYER
  0
ACDBPLACEHOLDER
  5
47A
102
{ACAD_REACTORS
330
479
102
}
330
479
  0
ACAD_PROXY_OBJECT
  5
21EB
102
{ACAD_REACTORS
330
21EA
102
}
330
21EA
100
AcDbProxyObject
 90
      499
 91
      517
 95
   983063
 70
     0
 93
     1841
310
4214DD185B99185C9928B81E85EB51B8AE3F2E07A17AD46E2B8FC02B5E8DC0F42B1CFD028000000C1008070000C3001FDFF8000000C1003FBFF000000182007F7FE00000030400FEFFC00000060801FDFF8000000C1003FBFF00000018200000000000000681FA0B0000001820100E000186003FBFF000000182007F7FE000
310
00030400FEFFC00000060801FDFF8000000C1003FBFF000000182007F7FE000000304000AD7A3703D0AC73F4160000003040201C00030C007F7FE00000030400FEFFC00000060801FDFF8000000C1003FBFF000000182007F7FE00000030400FEFFC000000608000
340
F
340
F
340
F
 94
        0
  0
XRECORD
  5
21FB
102
{ACAD_REACTORS
330
21FA
102
}
330
21FA
100
AcDbXrecord
340
21E9
  0
XRECORD
  5
21FC
102
{ACAD_REACTORS
330
21FA
102
}
330
21FA
100
AcDbXrecord
340
21E8
  0
DICTIONARYVAR
  5
21F7
102
{ACAD_REACTORS
330
49
102
}
330
49
100
DictionaryVariables
280
     0
  1
STANDARD
  0
DICTIONARYVAR
  5
4A
102
{ACAD_REACTORS
330
49
102
}
330
49
100
DictionaryVariables
280
     0
  1
0
  0
DICTIONARY
  5
21FD
330
47E
100
AcDbDictionary
280
     1
281
     1
  3
ACAD_XREC_ROUNDTRIP
360
21FE
  0
DICTIONARY
  5
21FF
330
47D
100
AcDbDictionary
280
     1
281
     1
  3
ACAD_XREC_ROUNDTRIP
360
2200
  0
XRECORD
  5
21FE
102
{ACAD_REACTORS
330
21FD
102
}
330
21FD
100
AcDbXrecord
102
SHADEPLOT
 70
     0
102
SHADEPLOTRESLEVEL
 70
     2
102
SHADEPLOTCUSTOMDPI
 70
   300
  0
XRECORD
  5
2200
102
{ACAD_REACTORS
330
21FF
102
}
330
21FF
100
AcDbXrecord
102
SHADEPLOT
 70
     0
102
SHADEPLOTRESLEVEL
 70
     2
102
SHADEPLOTCUSTOMDPI
 70
   300
  0
ENDSEC
  0
EOF
