  0
SECTION
  2
HEADER
  9
$ACADVER
  1
AC1018
  9
$ACADMAINTVER
 70
     6
  9
$DWGCODEPAGE
  3
ANSI_1252
  9
$INSBASE
 10
0.0
 20
0.0
 30
0.0
  9
$EXTMIN
 10
-12.50379377255133
 20
-0.0880203820042842
 30
0.0
  9
$EXTMAX
 10
12.50379377255137
 20
32.5813084406653
 30
0.0
  9
$LIMMIN
 10
0.0
 20
0.0
  9
$LIMMAX
 10
32.0
 20
42.0
  9
$ORTHOMODE
 70
     1
  9
$REGENMODE
 70
     1
  9
$FILLMODE
 70
     1
  9
$QTEXTMODE
 70
     0
  9
$MIRRTEXT
 70
     0
  9
$LTSCALE
 40
0.5
  9
$ATTMODE
 70
     1
  9
$TEXTSIZE
 40
0.36
  9
$TRACEWID
 40
0.05
  9
$TEXTSTYLE
  7
STANDARD
  9
$CLAYER
  8
0
  9
$CELTYPE
  6
BYLAYER
  9
$CECOLOR
 62
   256
  9
$CELTSCALE
 40
1.0
  9
$DISPSILH
 70
     0
  9
$DIMSCALE
 40
4.0
  9
$DIMASZ
 40
0.125
  9
$DIMEXO
 40
0.062
  9
$DIMDLI
 40
0.375
  9
$DIMRND
 40
0.0
  9
$DIMDLE
 40
0.0
  9
$DIMEXE
 40
0.08
  9
$DIMTP
 40
0.0
  9
$DIMTM
 40
0.0
  9
$DIMTXT
 40
0.09
  9
$DIMCEN
 40
-0.0078125
  9
$DIMTSZ
 40
0.0
  9
$DIMTOL
 70
     0
  9
$DIMLIM
 70
     0
  9
$DIMTIH
 70
     1
  9
$DIMTOH
 70
     1
  9
$DIMSE1
 70
     0
  9
$DIMSE2
 70
     0
  9
$DIMTAD
 70
     0
  9
$DIMZIN
 70
     0
  9
$DIMBLK
  1

  9
$DIMASO
 70
     0
  9
$DIMSHO
 70
     0
  9
$DIMPOST
  1

  9
$DIMAPOST
  1

  9
$DIMALT
 70
     0
  9
$DIMALTD
 70
     2
  9
$DIMALTF
 40
25.4
  9
$DIMLFAC
 40
1.0
  9
$DIMTOFL
 70
     0
  9
$DIMTVP
 40
0.0
  9
$DIMTIX
 70
     0
  9
$DIMSOXD
 70
     0
  9
$DIMSAH
 70
     0
  9
$DIMBLK1
  1

  9
$DIMBLK2
  1

  9
$DIMSTYLE
  2
STANDARD
  9
$DIMCLRD
 70
     0
  9
$DIMCLRE
 70
     0
  9
$DIMCLRT
 70
     0
  9
$DIMTFAC
 40
1.0
  9
$DIMGAP
 40
0.09
  9
$DIMJUST
 70
     0
  9
$DIMSD1
 70
     0
  9
$DIMSD2
 70
     0
  9
$DIMTOLJ
 70
     1
  9
$DIMTZIN
 70
     0
  9
$DIMALTZ
 70
     0
  9
$DIMALTTZ
 70
     0
  9
$DIMUPT
 70
     0
  9
$DIMDEC
 70
     5
  9
$DIMTDEC
 70
     5
  9
$DIMALTU
 70
     2
  9
$DIMALTTD
 70
     2
  9
$DIMTXSTY
  7
STANDARD
  9
$DIMAUNIT
 70
     0
  9
$DIMADEC
 70
     0
  9
$DIMALTRND
 40
0.0
  9
$DIMAZIN
 70
     0
  9
$DIMDSEP
 70
    46
  9
$DIMATFIT
 70
     3
  9
$DIMFRAC
 70
     2
  9
$DIMLDRBLK
  1

  9
$DIMLUNIT
 70
     5
  9
$DIMLWD
 70
    -2
  9
$DIMLWE
 70
    -2
  9
$DIMTMOVE
 70
     2
  9
$LUNITS
 70
     2
  9
$LUPREC
 70
     4
  9
$SKETCHINC
 40
0.1
  9
$FILLETRAD
 40
0.0
  9
$AUNITS
 70
     0
  9
$AUPREC
 70
     0
  9
$MENU
  1
qa
  9
$ELEVATION
 40
0.0
  9
$PELEVATION
 40
0.0
  9
$THICKNESS
 40
0.0
  9
$LIMCHECK
 70
     0
  9
$CHAMFERA
 40
0.4375
  9
$CHAMFERB
 40
0.4375
  9
$CHAMFERC
 40
0.0
  9
$CHAMFERD
 40
0.0
  9
$SKPOLY
 70
     0
  9
$TDCREATE
 40
2452872.693529282
  9
$TDUCREATE
 40
2452873.026862616
  9
$TDUPDATE
 40
2454417.826187732
  9
$TDUUPDATE
 40
2454418.159521065
  9
$TDINDWG
 40
0.5230537037
  9
$TDUSRTIMER
 40
0.5230537037
  9
$USRTIMER
 70
     1
  9
$ANGBASE
 50
0.0
  9
$ANGDIR
 70
     0
  9
$PDMODE
 70
     0
  9
$PDSIZE
 40
0.0
  9
$PLINEWID
 40
0.0
  9
$SPLFRAME
 70
     0
  9
$SPLINETYPE
 70
     6
  9
$SPLINESEGS
 70
     8
  9
$HANDSEED
  5
1ED6
  9
$SURFTAB1
 70
     6
  9
$SURFTAB2
 70
     6
  9
$SURFTYPE
 70
     6
  9
$SURFU
 70
     6
  9
$SURFV
 70
     6
  9
$UCSBASE
  2

  9
$UCSNAME
  2

  9
$UCSORG
 10
0.0
 20
0.0
 30
0.0
  9
$UCSXDIR
 10
1.0
 20
0.0
 30
0.0
  9
$UCSYDIR
 10
0.0
 20
1.0
 30
0.0
  9
$UCSORTHOREF
  2

  9
$UCSORTHOVIEW
 70
     0
  9
$UCSORGTOP
 10
0.0
 20
0.0
 30
0.0
  9
$UCSORGBOTTOM
 10
0.0
 20
0.0
 30
0.0
  9
$UCSORGLEFT
 10
0.0
 20
0.0
 30
0.0
  9
$UCSORGRIGHT
 10
0.0
 20
0.0
 30
0.0
  9
$UCSORGFRONT
 10
0.0
 20
0.0
 30
0.0
  9
$UCSORGBACK
 10
0.0
 20
0.0
 30
0.0
  9
$PUCSBASE
  2

  9
$PUCSNAME
  2

  9
$PUCSORG
 10
0.0
 20
0.0
 30
0.0
  9
$PUCSXDIR
 10
1.0
 20
0.0
 30
0.0
  9
$PUCSYDIR
 10
0.0
 20
1.0
 30
0.0
  9
$PUCSORTHOREF
  2

  9
$PUCSORTHOVIEW
 70
     0
  9
$PUCSORGTOP
 10
0.0
 20
0.0
 30
0.0
  9
$PUCSORGBOTTOM
 10
0.0
 20
0.0
 30
0.0
  9
$PUCSORGLEFT
 10
0.0
 20
0.0
 30
0.0
  9
$PUCSORGRIGHT
 10
0.0
 20
0.0
 30
0.0
  9
$PUCSORGFRONT
 10
0.0
 20
0.0
 30
0.0
  9
$PUCSORGBACK
 10
0.0
 20
0.0
 30
0.0
  9
$USERI1
 70
     0
  9
$USERI2
 70
     0
  9
$USERI3
 70
     0
  9
$USERI4
 70
     0
  9
$USERI5
 70
     0
  9
$USERR1
 40
0.0
  9
$USERR2
 40
0.0
  9
$USERR3
 40
0.0
  9
$USERR4
 40
0.0
  9
$USERR5
 40
0.0
  9
$WORLDVIEW
 70
     1
  9
$SHADEDGE
 70
     3
  9
$SHADEDIF
 70
    70
  9
$TILEMODE
 70
     1
  9
$MAXACTVP
 70
    16
  9
$PINSBASE
 10
0.0
 20
0.0
 30
0.0
  9
$PLIMCHECK
 70
     0
  9
$PEXTMIN
 10
1.000000000000000E+20
 20
1.000000000000000E+20
 30
1.000000000000000E+20
  9
$PEXTMAX
 10
-1.000000000000000E+20
 20
-1.000000000000000E+20
 30
-1.000000000000000E+20
  9
$PLIMMIN
 10
0.0
 20
0.0
  9
$PLIMMAX
 10
12.0
 20
9.0
  9
$UNITMODE
 70
     0
  9
$VISRETAIN
 70
     0
  9
$PLINEGEN
 70
     0
  9
$PSLTSCALE
 70
     0
  9
$TREEDEPTH
 70
  3020
  9
$CMLSTYLE
  2
STANDARD
  9
$CMLJUST
 70
     0
  9
$CMLSCALE
 40
1.0
  9
$PROXYGRAPHICS
 70
     1
  9
$MEASUREMENT
 70
     0
  9
$CELWEIGHT
370
    -1
  9
$ENDCAPS
280
     0
  9
$JOINSTYLE
280
     0
  9
$LWDISPLAY
290
     0
  9
$INSUNITS
 70
     0
  9
$HYPERLINKBASE
  1

  9
$STYLESHEET
  1

  9
$XEDIT
290
     1
  9
$CEPSNTYPE
380
     0
  9
$PSTYLEMODE
290
     1
  9
$FINGERPRINTGUID
  2
{3F8EE252-4A01-453C-A5F5-5678F9528411}
  9
$VERSIONGUID
  2
{FA81A3A5-E38B-42FE-970C-7B22CA435850}
  9
$EXTNAMES
290
     1
  9
$PSVPSCALE
 40
0.0
  9
$OLESTARTUP
290
     0
  9
$SORTENTS
280
   127
  9
$INDEXCTL
280
     0
  9
$HIDETEXT
280
     1
  9
$XCLIPFRAME
290
     0
  9
$HALOGAP
280
     0
  9
$OBSCOLOR
 70
   257
  9
$OBSLTYPE
280
     0
  9
$INTERSECTIONDISPLAY
280
     0
  9
$INTERSECTIONCOLOR
 70
   257
  9
$DIMASSOC
280
     0
  9
$PROJECTNAME
  1

  0
ENDSEC
  0
SECTION
  2
CLASSES
  0
CLASS
  1
DICTIONARYVAR
  2
AcDbDictionaryVar
  3
AutoCAD 2000
 90
        0
 91
        1
280
     0
281
     0
  0
CLASS
  1
LWPOLYLINE
  2
AcDbPolyline
  3
AutoCAD 2000
 90
        0
 91
        6
280
     0
281
     1
  0
CLASS
  1
ACDBDICTIONARYWDFLT
  2
AcDbDictionaryWithDefault
  3
AutoCAD 2000
 90
        0
 91
        1
280
     0
281
     0
  0
CLASS
  1
ACDBPLACEHOLDER
  2
AcDbPlaceHolder
  3
ObjectDBX Classes
 90
        0
 91
        3
280
     0
281
     0
  0
CLASS
  1
LAYOUT
  2
AcDbLayout
  3
ObjectDBX Classes
 90
        0
 91
        3
280
     0
281
     0
  0
CLASS
  1
LONG_TRANSACTION
  2
AcDbLongTransaction
  3
ObjectDBX Classes
 90
   -65536
 91
        3
280
     1
281
     0
  0
CLASS
  1
LWPOLYLINE
  2
AcDbPolyline
  3
AutoCAD 2000
 90
        0
 91
        6
280
     0
281
     1
  0
CLASS
  1
HATCH
  2
AcDbHatch
  3
AutoCAD 2000
 90
        0
 91
        5
280
     0
281
     1
  0
CLASS
  1
XRECORD
  2
AcDbXrecord
  3
AutoCAD 2000
 90
        0
 91
        5
280
     0
281
     0
  0
CLASS
  1
LONG_TRANSACTION
  2
AcDbLongTransaction
  3
ObjectDBX Classes
 90
   -65536
 91
        3
280
     1
281
     0
  0
CLASS
  1
LWPOLYLINE
  2
AcDbPolyline
  3
AutoCAD 2000
 90
        0
 91
        6
280
     0
281
     1
  0
CLASS
  1
HATCH
  2
AcDbHatch
  3
AutoCAD 2000
 90
        0
 91
        5
280
     0
281
     1
  0
CLASS
  1
XRECORD
  2
AcDbXrecord
  3
AutoCAD 2000
 90
        0
 91
        5
280
     0
281
     0
  0
CLASS
  1
LONG_TRANSACTION
  2
AcDbLongTransaction
  3
ObjectDBX Classes
 90
   -65536
 91
        3
280
     1
281
     0
  0
CLASS
  1
LWPOLYLINE
  2
AcDbPolyline
  3
AutoCAD 2000
 90
        0
 91
        6
280
     0
281
     1
  0
CLASS
  1
HATCH
  2
AcDbHatch
  3
AutoCAD 2000
 90
        0
 91
        5
280
     0
281
     1
  0
CLASS
  1
XRECORD
  2
AcDbXrecord
  3
AutoCAD 2000
 90
        0
 91
        5
280
     0
281
     0
  0
CLASS
  1
TABLESTYLE
  2
AcDbTableStyle
  3
ObjectDBX Classes
 90
     2047
 91
        2
280
     1
281
     0
  0
CLASS
  1
SORTENTSTABLE
  2
AcDbSortentsTable
  3
AutoCAD 2000
 90
        0
 91
        1
280
     0
281
     0
  0
ENDSEC
  0
SECTION
  2
TABLES
  0
TABLE
  2
VPORT
  5
8
330
0
100
AcDbSymbolTable
 70
     3
  0
VPORT
  5
1ED0
330
8
100
AcDbSymbolTableRecord
100
AcDbViewportTableRecord
  2
*Active
 70
     0
 10
0.0
 20
0.0
 11
1.0
 21
1.0
 12
10.53221376841908
 22
18.5148678567312
 13
0.0
 23
0.0
 14
0.063
 24
0.063
 15
0.25
 25
0.25
 16
0.0
 26
0.0
 36
1.0
 17
0.0
 27
0.0
 37
0.0
 40
42.60640334110238
 41
1.78118609406953
 42
50.0
 43
0.0
 44
0.0
 50
0.0
 51
0.0
 71
     0
 72
   100
 73
     1
 74
     0
 75
     0
 76
     0
 77
     0
 78
     0
281
     0
 65
     1
110
0.0
120
0.0
130
0.0
111
1.0
121
0.0
131
0.0
112
0.0
122
1.0
132
0.0
 79
     0
146
0.0
  0
ENDTAB
  0
TABLE
  2
LTYPE
  5
5
330
0
100
AcDbSymbolTable
 70
     3
  0
LTYPE
  5
11
330
5
100
AcDbSymbolTableRecord
100
AcDbLinetypeTableRecord
  2
BYBLOCK
 70
     0
  3

 72
    65
 73
     0
 40
0.0
  0
LTYPE
  5
12
330
5
100
AcDbSymbolTableRecord
100
AcDbLinetypeTableRecord
  2
BYLAYER
 70
     0
  3

 72
    65
 73
     0
 40
0.0
  0
LTYPE
  5
13
330
5
100
AcDbSymbolTableRecord
100
AcDbLinetypeTableRecord
  2
CONTINUOUS
 70
     0
  3
Solid line
 72
    65
 73
     0
 40
0.0
  0
LTYPE
  5
2B
330
5
100
AcDbSymbolTableRecord
100
AcDbLinetypeTableRecord
  2
HIDDEN
 70
     0
  3
_ _ _ _ _ _ _ _ _ _ _ _ _ _ _ _ _ _ _ _ _ _ _
 72
    65
 73
     2
 40
0.375
 49
0.25
 74
     0
 49
-0.125
 74
     0
  0
LTYPE
  5
49E
330
5
100
AcDbSymbolTableRecord
100
AcDbLinetypeTableRecord
  2
HIDDEN2
 70
     0
  3
Hidden (.5x) _ _ _ _ _ _ _ _ _ _ _ _ _ _ _ _ _
 72
    65
 73
     2
 40
0.1875
 49
0.125
 74
     0
 49
-0.0625
 74
     0
  0
ENDTAB
  0
TABLE
  2
LAYER
  5
2
102
{ACAD_XDICTIONARY
360
1E6A
102
}
330
0
100
AcDbSymbolTable
 70
     3
  0
LAYER
  5
E
330
2
100
AcDbSymbolTableRecord
100
AcDbLayerTableRecord
  2
0
 70
     0
 62
     7
  6
CONTINUOUS
370
    -3
390
47A
  0
LAYER
  5
37
330
2
100
AcDbSymbolTableRecord
100
AcDbLayerTableRecord
  2
DIM
 70
     0
 62
     5
  6
CONTINUOUS
370
    -3
390
47A
  0
LAYER
  5
43
330
2
100
AcDbSymbolTableRecord
100
AcDbLayerTableRecord
  2
DEFPOINTS
 70
     0
 62
     7
  6
CONTINUOUS
290
     0
370
    -3
390
47A
  0
ENDTAB
  0
TABLE
  2
STYLE
  5
3
330
0
100
AcDbSymbolTable
 70
     1
  0
STYLE
  5
F
330
3
100
AcDbSymbolTableRecord
100
AcDbTextStyleTableRecord
  2
STANDARD
 70
     0
 40
0.0
 41
1.0
 50
0.0
 71
     0
 42
0.36
  3
TXT
  4

  0
ENDTAB
  0
TABLE
  2
VIEW
  5
6
330
0
100
AcDbSymbolTable
 70
     0
  0
ENDTAB
  0
TABLE
  2
UCS
  5
7
330
0
100
AcDbSymbolTable
 70
     0
  0
ENDTAB
  0
TABLE
  2
APPID
  5
9
330
0
100
AcDbSymbolTable
 70
     4
  0
APPID
  5
10
330
9
100
AcDbSymbolTableRecord
100
AcDbRegAppTableRecord
  2
ACAD
 70
     0
  0
APPID
  5
DA7
330
9
100
AcDbSymbolTableRecord
100
AcDbRegAppTableRecord
  2
RAK
 70
     0
  0
APPID
  5
19D8
330
9
100
AcDbSymbolTableRecord
100
AcDbRegAppTableRecord
  2
ACAD_PSEXT
 70
     0
  0
APPID
  5
1DE9
330
9
100
AcDbSymbolTableRecord
100
AcDbRegAppTableRecord
  2
DCO15
 70
     0
  0
ENDTAB
  0
TABLE
  2
DIMSTYLE
  5
A
330
0
100
AcDbSymbolTable
 70
     1
100
AcDbDimStyleTable
  0
DIMSTYLE
105
465
330
A
100
AcDbSymbolTableRecord
100
AcDbDimStyleTableRecord
  2
STANDARD
 70
     0
  3

  4

340
F
  0
ENDTAB
  0
TABLE
  2
BLOCK_RECORD
  5
1
330
0
100
AcDbSymbolTable
 70
     0
  0
BLOCK_RECORD
  5
17
102
{ACAD_XDICTIONARY
360
7D0
102
}
330
1
100
AcDbSymbolTableRecord
100
AcDbBlockTableRecord
  2
*MODEL_SPACE
340
47D
  0
BLOCK_RECORD
  5
14
330
1
100
AcDbSymbolTableRecord
100
AcDbBlockTableRecord
  2
*PAPER_SPACE
340
47E
  0
ENDTAB
  0
ENDSEC
  0
SECTION
  2
BLOCKS
  0
BLOCK
  5
47
330
17
100
AcDbEntity
  8
0
100
AcDbBlockBegin
  2
*MODEL_SPACE
 70
     0
 10
0.0
 20
0.0
 30
0.0
  3
*MODEL_SPACE
  1

  4

  0
ENDBLK
  5
48
330
17
100
AcDbEntity
  8
0
100
AcDbBlockEnd
  0
BLOCK
  5
45
330
14
100
AcDbEntity
 67
     1
  8
0
100
AcDbBlockBegin
  2
*PAPER_SPACE
 70
     0
 10
0.0
 20
0.0
 30
0.0
  3
*PAPER_SPACE
  1

  4

  0
ENDBLK
  5
46
330
14
100
AcDbEntity
 67
     1
  8
0
100
AcDbBlockEnd
  0
ENDSEC
  0
SECTION
  2
ENTITIES
  0
TEXT
  5
3A7
330
17
100
AcDbEntity
  8
DIM
100
AcDbText
 10
14.93846334400804
 20
21.0944638759405
 30
0.0
 40
0.36
  1
   
 50
359.9999999999988
 11
14.93846334400805
 21
21.2744638759405
 31
0.0
100
AcDbText
 73
     2
  0
TEXT
  5
400
330
17
100
AcDbEntity
  8
DIM
100
AcDbText
 10
13.55232669162669
 20
10.34149078419337
 30
0.0
 40
0.36
  1
   
 72
     1
 11
14.09232669162669
 21
10.52149078419336
 31
0.0
100
AcDbText
 73
     2
  0
LINE
  5
1432
330
17
100
AcDbEntity
  8
0
100
AcDbLine
 10
-1.375
 20
1.51
 30
0.0
 11
1.375000000000057
 21
1.51
 31
0.0
  0
ARC
  5
1435
330
17
100
AcDbEntity
  8
0
100
AcDbCircle
 10
-0.0000000000000009
 20
1.51
 30
0.0
 40
1.374999999999999
100
AcDbArc
 50
180.0
 51
0.0
  0
ARC
  5
1436
330
17
100
AcDbEntity
  8
0
100
AcDbCircle
 10
0.0
 20
1.51
 30
0.0
 40
1.51
100
AcDbArc
 50
180.0
 51
0.0
  0
LINE
  5
1437
330
17
100
AcDbEntity
  8
0
100
AcDbLine
 10
-1.375
 20
2.836862721791571
 30
0.0
 11
-1.375
 21
25.66500000000009
 31
0.0
  0
LINE
  5
1438
330
17
100
AcDbEntity
  8
0
100
AcDbLine
 10
-1.509999999999991
 20
1.51
 30
0.0
 11
-1.509999999999991
 21
25.66500000000008
 31
0.0
  0
LINE
  5
1448
330
17
100
AcDbEntity
  8
0
100
AcDbLine
 10
-1.375
 20
1.51
 30
0.0
 11
-1.375
 21
2.836862721791571
 31
0.0
  0
ARC
  5
144A
330
17
100
AcDbEntity
  8
0
100
AcDbCircle
 10
0.0937500000002984
 20
6.329885912065942
 30
0.0
 40
0.4062500000002984
100
AcDbArc
 50
180.0000000000179
 51
224.9999999999845
  0
ARC
  5
144B
330
17
100
AcDbEntity
  8
0
100
AcDbCircle
 10
0.1562500000002132
 20
6.355774259714176
 30
0.0
 40
0.3437500000002132
100
AcDbArc
 50
180.0000000000123
 51
224.9999999999753
  0
LINE
  5
144D
330
17
100
AcDbEntity
  8
0
100
AcDbLine
 10
1.375
 20
2.836862721791599
 30
0.0
 11
1.375
 21
25.66500000000008
 31
0.0
  0
LINE
  5
144E
330
17
100
AcDbEntity
  8
0
100
AcDbLine
 10
1.509999999999991
 20
1.51
 30
0.0
 11
1.509999999999991
 21
25.66500000000008
 31
0.0
  0
LINE
  5
1454
330
17
100
AcDbEntity
  8
0
100
AcDbLine
 10
-0.1085537672282682
 20
3.116105952282316
 30
0.0
 11
-0.9302783281926956
 21
1.461952409636512
 31
0.0
  0
LINE
  5
1455
330
17
100
AcDbEntity
  8
0
100
AcDbLine
 10
0.1085537674491075
 20
3.116105947161737
 30
0.0
 11
0.9302783281929674
 21
1.461952409637103
 31
0.0
  0
LINE
  5
1481
330
17
100
AcDbEntity
  8
0
100
AcDbLine
 10
1.375
 20
1.51
 30
0.0
 11
1.375
 21
2.836862721791571
 31
0.0
  0
ARC
  5
1483
330
17
100
AcDbEntity
  8
0
100
AcDbCircle
 10
-0.4062499999996589
 20
3.287980951899735
 30
0.0
 40
0.3437499999996589
100
AcDbArc
 50
330.0000000736003
 51
0.0
  0
LINE
  5
1484
330
17
100
AcDbEntity
  8
0
100
AcDbLine
 10
-0.0625
 20
4.670114087934133
 30
0.0
 11
-0.0625
 21
3.287980951899735
 31
0.0
  0
ARC
  5
1485
330
17
100
AcDbEntity
  8
0
100
AcDbCircle
 10
0.3437499999998295
 20
4.670114087934261
 30
0.0
 40
0.4062499999998274
100
AcDbArc
 50
135.0
 51
180.0000000000179
  0
LINE
  5
1486
330
17
100
AcDbEntity
  8
0
100
AcDbLine
 10
0.0868179560328599
 20
4.987706303681074
 30
0.0
 11
0.0564878701429166
 21
4.957376217791174
 31
0.0
  0
ARC
  5
1487
330
17
100
AcDbEntity
  8
0
100
AcDbCircle
 10
-0.15625000000027
 20
5.230774259714076
 30
0.0
 40
0.34375000000027
100
AcDbArc
 50
315.000000000015
 51
359.9999999999813
  0
LINE
  5
1488
330
17
100
AcDbEntity
  8
0
100
AcDbLine
 10
0.1875000000000568
 20
5.519225740285998
 30
0.0
 11
0.1875
 21
5.230774259713963
 31
0.0
  0
ARC
  5
1489
330
17
100
AcDbEntity
  8
0
100
AcDbCircle
 10
-0.1562499999998437
 20
5.519225740286013
 30
0.0
 40
0.3437499999999073
100
AcDbArc
 50
359.9999999999976
 51
45.00000000001209
  0
LINE
  5
148A
330
17
100
AcDbEntity
  8
0
100
AcDbLine
 10
-0.1935121298570266
 20
6.042623782208773
 30
0.0
 11
0.0868179560329168
 21
5.762293696318872
 31
0.0
  0
ARC
  5
148B
330
17
100
AcDbEntity
  8
0
100
AcDbCircle
 10
0.40624999999946
 20
3.287980947161609
 30
0.0
 40
0.34374999999946
100
AcDbArc
 50
179.9999999999837
 51
210.000000000027
  0
LINE
  5
148C
330
17
100
AcDbEntity
  8
0
100
AcDbLine
 10
0.0625
 20
4.644225740285885
 30
0.0
 11
0.0625
 21
3.287980947161708
 31
0.0
  0
ARC
  5
148D
330
17
100
AcDbEntity
  8
0
100
AcDbCircle
 10
0.4062499999998153
 20
4.64422574028597
 30
0.0
 40
0.3437499999998169
100
AcDbArc
 50
134.9999999999965
 51
180.0000000000138
  0
LINE
  5
148E
330
17
100
AcDbEntity
  8
0
100
AcDbLine
 10
0.1935121298570266
 20
4.917623782208716
 30
0.0
 11
0.1631820439670833
 21
4.88729369631873
 31
0.0
  0
ARC
  5
148F
330
17
100
AcDbEntity
  8
0
100
AcDbCircle
 10
-0.0937500000003553
 20
5.204885912065899
 30
0.0
 40
0.4062500000003553
100
AcDbArc
 50
315.0000000000201
 51
359.999999999978
  0
LINE
  5
1490
330
17
100
AcDbEntity
  8
0
100
AcDbLine
 10
0.3125
 20
5.545114087934303
 30
0.0
 11
0.3125
 21
5.204885912065743
 31
0.0
  0
ARC
  5
1491
330
17
100
AcDbEntity
  8
0
100
AcDbCircle
 10
-0.0937500000002984
 20
5.545114087934147
 30
0.0
 40
0.4062500000002997
100
AcDbArc
 50
0.000000000021984
 51
44.99999999998445
  0
LINE
  5
1492
330
17
100
AcDbEntity
  8
0
100
AcDbLine
 10
-0.0868179560329168
 20
6.112706303681259
 30
0.0
 11
0.1935121298570266
 21
5.832376217791316
 31
0.0
  0
CIRCLE
  5
1493
330
17
100
AcDbEntity
  8
0
100
AcDbCircle
 10
-0.25
 20
5.374999999999981
 30
0.0
 40
0.1325
  0
CIRCLE
  5
1494
330
17
100
AcDbEntity
  8
0
100
AcDbCircle
 10
0.8125
 20
5.374999999999981
 30
0.0
 40
0.1325
  0
LINE
  5
14B1
330
17
100
AcDbEntity
  8
0
100
AcDbLine
 10
-0.1935121298570266
 20
19.54262378220873
 30
0.0
 11
0.0868179560328599
 21
19.26229369631889
 31
0.0
  0
LINE
  5
14B2
330
17
100
AcDbEntity
  8
0
100
AcDbLine
 10
-0.0868179560328599
 20
19.6127063036813
 30
0.0
 11
0.1935121298570266
 21
19.33237621779124
 31
0.0
  0
ARC
  5
14B3
330
17
100
AcDbEntity
  8
0
100
AcDbCircle
 10
0.0937500000003553
 20
13.07988591206593
 30
0.0
 40
0.4062500000003553
100
AcDbArc
 50
180.0000000000179
 51
224.9999999999799
  0
LINE
  5
14B4
330
17
100
AcDbEntity
  8
0
100
AcDbLine
 10
-0.0868179560328599
 20
12.8627063036813
 30
0.0
 11
0.1935121298570266
 21
12.58237621779126
 31
0.0
  0
ARC
  5
14B5
330
17
100
AcDbEntity
  8
0
100
AcDbCircle
 10
-0.15625000000027
 20
9.730774259714062
 30
0.0
 40
0.34375000000027
100
AcDbArc
 50
315.000000000015
 51
359.9999999999813
  0
ARC
  5
14B6
330
17
100
AcDbEntity
  8
0
100
AcDbCircle
 10
-0.0937500000003553
 20
9.704885912065871
 30
0.0
 40
0.4062500000003553
100
AcDbArc
 50
315.0000000000184
 51
359.9999999999797
  0
LINE
  5
14B7
330
17
100
AcDbEntity
  8
0
100
AcDbLine
 10
-0.3125
 20
6.670114087934175
 30
0.0
 11
-0.3125
 21
6.329885912065814
 31
0.0
  0
ARC
  5
14B8
330
17
100
AcDbEntity
  8
0
100
AcDbCircle
 10
0.0937500000002984
 20
6.670114087934033
 30
0.0
 40
0.4062500000002997
100
AcDbArc
 50
135.0000000000156
 51
179.9999999999797
  0
LINE
  5
14B9
330
17
100
AcDbEntity
  8
0
100
AcDbLine
 10
0.0868179560328599
 20
7.237706303681074
 30
0.0
 11
-0.1935121298570266
 21
6.957376217791202
 31
0.0
  0
ARC
  5
14BA
330
17
100
AcDbEntity
  8
0
100
AcDbCircle
 10
-0.15625000000027
 20
7.480774259714076
 30
0.0
 40
0.34375000000027
100
AcDbArc
 50
315.000000000015
 51
359.9999999999813
  0
LINE
  5
14BB
330
17
100
AcDbEntity
  8
0
100
AcDbLine
 10
0.1875
 20
7.769225740285998
 30
0.0
 11
0.1875
 21
7.480774259713963
 31
0.0
  0
ARC
  5
14BC
330
17
100
AcDbEntity
  8
0
100
AcDbCircle
 10
-0.1562500000002558
 20
7.769225740285899
 30
0.0
 40
0.343750000000249
100
AcDbArc
 50
0.0000000000162844
 51
44.99999999998503
  0
LINE
  5
14BD
330
17
100
AcDbEntity
  8
0
100
AcDbLine
 10
-0.1935121298570266
 20
8.292623782208759
 30
0.0
 11
0.0868179560328599
 21
8.012293696318887
 31
0.0
  0
ARC
  5
14BE
330
17
100
AcDbEntity
  8
0
100
AcDbCircle
 10
0.0937500000003553
 20
8.579885912065956
 30
0.0
 40
0.4062500000003553
100
AcDbArc
 50
180.0000000000204
 51
224.9999999999816
  0
LINE
  5
14BF
330
17
100
AcDbEntity
  8
0
100
AcDbLine
 10
-0.3125000000000568
 20
8.920114087934175
 30
0.0
 11
-0.3125
 21
8.579885912065814
 31
0.0
  0
ARC
  5
14C0
330
17
100
AcDbEntity
  8
0
100
AcDbCircle
 10
0.0937499999998295
 20
8.92011408793409
 30
0.0
 40
0.4062499999998878
100
AcDbArc
 50
134.9999999999689
 51
179.9999999999878
  0
LINE
  5
14C1
330
17
100
AcDbEntity
  8
0
100
AcDbLine
 10
0.0868179560328599
 20
9.48770630368106
 30
0.0
 11
-0.1935121298569698
 21
9.207376217791202
 31
0.0
  0
LINE
  5
14C2
330
17
100
AcDbEntity
  8
0
100
AcDbLine
 10
-0.1875000000000568
 20
6.644225740285885
 30
0.0
 11
-0.1875
 21
6.355774259714105
 31
0.0
  0
ARC
  5
14C3
330
17
100
AcDbEntity
  8
0
100
AcDbCircle
 10
0.1562500000001137
 20
6.644225740285757
 30
0.0
 40
0.3437500000001786
100
AcDbArc
 50
135.0000000000063
 51
179.9999999999788
  0
LINE
  5
14C4
330
17
100
AcDbEntity
  8
0
100
AcDbLine
 10
0.1935121298570266
 20
7.167623782208674
 30
0.0
 11
-0.0868179560329168
 21
6.88729369631873
 31
0.0
  0
ARC
  5
14C5
330
17
100
AcDbEntity
  8
0
100
AcDbCircle
 10
-0.0937500000003553
 20
7.454885912065871
 30
0.0
 40
0.4062500000003553
100
AcDbArc
 50
315.0000000000184
 51
359.9999999999797
  0
LINE
  5
14C6
330
17
100
AcDbEntity
  8
0
100
AcDbLine
 10
0.3125
 20
7.795114087934246
 30
0.0
 11
0.3125
 21
7.454885912065729
 31
0.0
  0
ARC
  5
14C7
330
17
100
AcDbEntity
  8
0
100
AcDbCircle
 10
-0.0937499999996021
 20
7.795114087934431
 30
0.0
 40
0.4062499999995963
100
AcDbArc
 50
359.999999999974
 51
45.00000000002418
  0
LINE
  5
14C8
330
17
100
AcDbEntity
  8
0
100
AcDbLine
 10
-0.0868179560328599
 20
8.362706303681259
 30
0.0
 11
0.1935121298570266
 21
8.082376217791301
 31
0.0
  0
ARC
  5
14C9
330
17
100
AcDbEntity
  8
0
100
AcDbCircle
 10
0.1562500000003269
 20
8.605774259714289
 30
0.0
 40
0.3437500000003269
100
AcDbArc
 50
180.0000000000261
 51
224.9999999999816
  0
LINE
  5
14CA
330
17
100
AcDbEntity
  8
0
100
AcDbLine
 10
-0.1875
 20
8.89422574028587
 30
0.0
 11
-0.1875
 21
8.605774259714133
 31
0.0
  0
ARC
  5
14CB
330
17
100
AcDbEntity
  8
0
100
AcDbCircle
 10
0.1562500000002132
 20
8.894225740285757
 30
0.0
 40
0.3437500000002088
100
AcDbArc
 50
135.0000000000121
 51
179.9999999999813
  0
LINE
  5
14CC
330
17
100
AcDbEntity
  8
0
100
AcDbLine
 10
0.1935121298570266
 20
9.417623782208674
 30
0.0
 11
-0.0868179560328599
 21
9.13729369631873
 31
0.0
  0
CIRCLE
  5
14CD
330
17
100
AcDbEntity
  8
0
100
AcDbCircle
 10
-0.8125
 20
8.749999999999981
 30
0.0
 40
0.1325
  0
CIRCLE
  5
14CE
330
17
100
AcDbEntity
  8
0
100
AcDbCircle
 10
0.25
 20
8.749999999999981
 30
0.0
 40
0.1325
  0
CIRCLE
  5
14CF
330
17
100
AcDbEntity
  8
0
100
AcDbCircle
 10
-0.8125
 20
6.499999999999981
 30
0.0
 40
0.1325
  0
CIRCLE
  5
14D0
330
17
100
AcDbEntity
  8
0
100
AcDbCircle
 10
0.25
 20
6.499999999999981
 30
0.0
 40
0.1325
  0
CIRCLE
  5
14D1
330
17
100
AcDbEntity
  8
0
100
AcDbCircle
 10
-0.25
 20
7.624999999999981
 30
0.0
 40
0.1325
  0
CIRCLE
  5
14D2
330
17
100
AcDbEntity
  8
0
100
AcDbCircle
 10
0.8125
 20
7.624999999999981
 30
0.0
 40
0.1325
  0
LINE
  5
14D3
330
17
100
AcDbEntity
  8
0
100
AcDbLine
 10
0.1875
 20
10.01922574028603
 30
0.0
 11
0.1875
 21
9.730774259713948
 31
0.0
  0
ARC
  5
14D4
330
17
100
AcDbEntity
  8
0
100
AcDbCircle
 10
-0.1562499999998295
 20
10.0192257402861
 30
0.0
 40
0.343749999999837
100
AcDbArc
 50
359.9999999999878
 51
45.00000000000288
  0
LINE
  5
14D5
330
17
100
AcDbEntity
  8
0
100
AcDbLine
 10
-0.1935121298570266
 20
10.54262378220877
 30
0.0
 11
0.0868179560329168
 21
10.26229369631887
 31
0.0
  0
ARC
  5
14D6
330
17
100
AcDbEntity
  8
0
100
AcDbCircle
 10
0.0937500000002984
 20
10.82988591206594
 30
0.0
 40
0.4062500000002984
100
AcDbArc
 50
180.0000000000179
 51
224.9999999999845
  0
LINE
  5
14D7
330
17
100
AcDbEntity
  8
0
100
AcDbLine
 10
-0.3125
 20
11.17011408793415
 30
0.0
 11
-0.3125
 21
10.82988591206581
 31
0.0
  0
ARC
  5
14D8
330
17
100
AcDbEntity
  8
0
100
AcDbCircle
 10
0.0937499999998863
 20
11.17011408793425
 30
0.0
 40
0.4062499999998878
100
AcDbArc
 50
135.0000000000029
 51
180.0000000000138
  0
LINE
  5
14D9
330
17
100
AcDbEntity
  8
0
100
AcDbLine
 10
0.0868179560328599
 20
11.73770630368112
 30
0.0
 11
-0.1935121298570834
 21
11.45737621779119
 31
0.0
  0
ARC
  5
14DA
330
17
100
AcDbEntity
  8
0
100
AcDbCircle
 10
-0.15625000000027
 20
11.98077425971412
 30
0.0
 40
0.34375000000027
100
AcDbArc
 50
315.000000000015
 51
359.9999999999813
  0
LINE
  5
14DB
330
17
100
AcDbEntity
  8
0
100
AcDbLine
 10
0.1875
 20
12.269225740286
 30
0.0
 11
0.1875
 21
11.98077425971401
 31
0.0
  0
ARC
  5
14DC
330
17
100
AcDbEntity
  8
0
100
AcDbCircle
 10
-0.1562500000003126
 20
12.26922574028587
 30
0.0
 40
0.3437500000003193
100
AcDbArc
 50
0.0000000000211698
 51
44.9999999999833
  0
LINE
  5
14DD
330
17
100
AcDbEntity
  8
0
100
AcDbLine
 10
-0.1935121298570266
 20
12.79262378220875
 30
0.0
 11
0.0868179560328599
 21
12.5122936963189
 31
0.0
  0
LINE
  5
14DE
330
17
100
AcDbEntity
  8
0
100
AcDbLine
 10
0.3125
 20
10.04511408793422
 30
0.0
 11
0.3125
 21
9.704885912065729
 31
0.0
  0
ARC
  5
14DF
330
17
100
AcDbEntity
  8
0
100
AcDbCircle
 10
-0.0937499999995879
 20
10.04511408793439
 30
0.0
 40
0.4062499999995862
100
AcDbArc
 50
359.9999999999756
 51
45.00000000002591
  0
LINE
  5
14E0
330
17
100
AcDbEntity
  8
0
100
AcDbLine
 10
-0.0868179560329168
 20
10.61270630368125
 30
0.0
 11
0.1935121298570266
 21
10.33237621779126
 31
0.0
  0
ARC
  5
14E1
330
17
100
AcDbEntity
  8
0
100
AcDbCircle
 10
0.15625000000027
 20
10.85577425971419
 30
0.0
 40
0.34375000000027
100
AcDbArc
 50
180.0000000000123
 51
224.9999999999718
  0
LINE
  5
14E2
330
17
100
AcDbEntity
  8
0
100
AcDbLine
 10
-0.1875
 20
11.1442257402859
 30
0.0
 11
-0.1875
 21
10.85577425971412
 31
0.0
  0
ARC
  5
14E3
330
17
100
AcDbEntity
  8
0
100
AcDbCircle
 10
0.1562499999998295
 20
11.14422574028598
 30
0.0
 40
0.3437499999998269
100
AcDbArc
 50
134.9999999999983
 51
180.0000000000138
  0
LINE
  5
14E4
330
17
100
AcDbEntity
  8
0
100
AcDbLine
 10
0.1935121298570266
 20
11.66762378220866
 30
0.0
 11
-0.0868179560329168
 21
11.38729369631875
 31
0.0
  0
ARC
  5
14E5
330
17
100
AcDbEntity
  8
0
100
AcDbCircle
 10
-0.0937500000002984
 20
11.95488591206583
 30
0.0
 40
0.4062500000002984
100
AcDbArc
 50
315.0000000000155
 51
359.9999999999821
  0
LINE
  5
14E6
330
17
100
AcDbEntity
  8
0
100
AcDbLine
 10
0.3125
 20
12.29511408793428
 30
0.0
 11
0.3125
 21
11.9548859120657
 31
0.0
  0
ARC
  5
14E7
330
17
100
AcDbEntity
  8
0
100
AcDbCircle
 10
-0.0937500000001705
 20
12.29511408793415
 30
0.0
 40
0.4062500000001691
100
AcDbArc
 50
0.0000000000179129
 51
44.99999999999137
  0
CIRCLE
  5
14E8
330
17
100
AcDbEntity
  8
0
100
AcDbCircle
 10
-0.8125
 20
10.99999999999998
 30
0.0
 40
0.1325
  0
CIRCLE
  5
14E9
330
17
100
AcDbEntity
  8
0
100
AcDbCircle
 10
-0.25
 20
12.12499999999998
 30
0.0
 40
0.1325
  0
CIRCLE
  5
14EA
330
17
100
AcDbEntity
  8
0
100
AcDbCircle
 10
0.25
 20
10.99999999999998
 30
0.0
 40
0.1325
  0
CIRCLE
  5
14EB
330
17
100
AcDbEntity
  8
0
100
AcDbCircle
 10
-0.25
 20
9.874999999999981
 30
0.0
 40
0.1325
  0
CIRCLE
  5
14EC
330
17
100
AcDbEntity
  8
0
100
AcDbCircle
 10
0.8125
 20
12.12499999999998
 30
0.0
 40
0.1325
  0
CIRCLE
  5
14ED
330
17
100
AcDbEntity
  8
0
100
AcDbCircle
 10
0.8125
 20
9.874999999999981
 30
0.0
 40
0.1325
  0
LINE
  5
14EE
330
17
100
AcDbEntity
  8
0
100
AcDbLine
 10
0.0868179560328599
 20
16.23770630368112
 30
0.0
 11
-0.1935121298570834
 21
15.9573762177912
 31
0.0
  0
LINE
  5
14EF
330
17
100
AcDbEntity
  8
0
100
AcDbLine
 10
0.1935121298570834
 20
16.16762378220873
 30
0.0
 11
-0.0868179560329168
 21
15.88729369631867
 31
0.0
  0
LINE
  5
14F0
330
17
100
AcDbEntity
  8
0
100
AcDbLine
 10
-0.3125
 20
13.42011408793413
 30
0.0
 11
-0.3125
 21
13.0798859120658
 31
0.0
  0
ARC
  5
14F1
330
17
100
AcDbEntity
  8
0
100
AcDbCircle
 10
0.0937499999996021
 20
13.42011408793432
 30
0.0
 40
0.4062499999995963
100
AcDbArc
 50
134.9999999999758
 51
180.0000000000261
  0
LINE
  5
14F2
330
17
100
AcDbEntity
  8
0
100
AcDbLine
 10
0.0868179560328599
 20
13.98770630368107
 30
0.0
 11
-0.1935121298570266
 21
13.70737621779119
 31
0.0
  0
ARC
  5
14F3
330
17
100
AcDbEntity
  8
0
100
AcDbCircle
 10
-0.15625000000027
 20
14.23077425971408
 30
0.0
 40
0.34375000000027
100
AcDbArc
 50
315.000000000015
 51
359.9999999999813
  0
LINE
  5
14F4
330
17
100
AcDbEntity
  8
0
100
AcDbLine
 10
0.1875
 20
14.51922574028601
 30
0.0
 11
0.1875
 21
14.23077425971396
 31
0.0
  0
ARC
  5
14F5
330
17
100
AcDbEntity
  8
0
100
AcDbCircle
 10
-0.1562499999996021
 20
14.51922574028615
 30
0.0
 40
0.3437499999996008
100
AcDbArc
 50
359.9999999999772
 51
45.00000000003109
  0
LINE
  5
14F6
330
17
100
AcDbEntity
  8
0
100
AcDbLine
 10
-0.1935121298570266
 20
15.04262378220876
 30
0.0
 11
0.0868179560328599
 21
14.76229369631887
 31
0.0
  0
ARC
  5
14F7
330
17
100
AcDbEntity
  8
0
100
AcDbCircle
 10
0.0937500000002984
 20
15.32988591206593
 30
0.0
 40
0.4062500000002984
100
AcDbArc
 50
180.0000000000179
 51
224.9999999999845
  0
LINE
  5
14F8
330
17
100
AcDbEntity
  8
0
100
AcDbLine
 10
-0.3125
 20
15.67011408793416
 30
0.0
 11
-0.3125
 21
15.3298859120658
 31
0.0
  0
ARC
  5
14F9
330
17
100
AcDbEntity
  8
0
100
AcDbCircle
 10
0.0937499999998295
 20
15.67011408793429
 30
0.0
 40
0.4062499999998274
100
AcDbArc
 50
135.0
 51
180.0000000000179
  0
ARC
  5
14FA
330
17
100
AcDbEntity
  8
0
100
AcDbCircle
 10
0.15624999999973
 20
13.10577425971409
 30
0.0
 40
0.34374999999973
100
AcDbArc
 50
179.9999999999813
 51
225.0000000000236
  0
LINE
  5
14FB
330
17
100
AcDbEntity
  8
0
100
AcDbLine
 10
-0.1875
 20
13.3942257402859
 30
0.0
 11
-0.1875
 21
13.1057742597142
 31
0.0
  0
ARC
  5
14FC
330
17
100
AcDbEntity
  8
0
100
AcDbCircle
 10
0.1562499999999005
 20
13.39422574028584
 30
0.0
 40
0.3437499999999073
100
AcDbArc
 50
134.9999999999752
 51
179.9999999999902
  0
LINE
  5
14FD
330
17
100
AcDbEntity
  8
0
100
AcDbLine
 10
0.1935121298570266
 20
13.91762378220867
 30
0.0
 11
-0.0868179560328031
 21
13.63729369631876
 31
0.0
  0
ARC
  5
14FE
330
17
100
AcDbEntity
  8
0
100
AcDbCircle
 10
-0.0937500000003553
 20
14.20488591206587
 30
0.0
 40
0.4062500000003553
100
AcDbArc
 50
315.0000000000184
 51
359.9999999999797
  0
LINE
  5
14FF
330
17
100
AcDbEntity
  8
0
100
AcDbLine
 10
0.3125
 20
14.54511408793428
 30
0.0
 11
0.3125
 21
14.20488591206573
 31
0.0
  0
ARC
  5
1500
330
17
100
AcDbEntity
  8
0
100
AcDbCircle
 10
-0.0937500000002984
 20
14.54511408793412
 30
0.0
 40
0.4062500000002997
100
AcDbArc
 50
0.000000000021984
 51
44.99999999998445
  0
LINE
  5
1501
330
17
100
AcDbEntity
  8
0
100
AcDbLine
 10
-0.0868179560329168
 20
15.11270630368127
 30
0.0
 11
0.1935121298570266
 21
14.83237621779129
 31
0.0
  0
ARC
  5
1502
330
17
100
AcDbEntity
  8
0
100
AcDbCircle
 10
0.1562500000000995
 20
15.35577425971423
 30
0.0
 40
0.3437500000001563
100
AcDbArc
 50
180.0000000000138
 51
224.9999999999936
  0
LINE
  5
1503
330
17
100
AcDbEntity
  8
0
100
AcDbLine
 10
-0.1875
 20
15.64422574028586
 30
0.0
 11
-0.1875000000000568
 21
15.35577425971415
 31
0.0
  0
ARC
  5
1504
330
17
100
AcDbEntity
  8
0
100
AcDbCircle
 10
0.1562499999997868
 20
15.64422574028593
 30
0.0
 40
0.3437499999997867
100
AcDbArc
 50
134.9999999999948
 51
180.0000000000123
  0
CIRCLE
  5
1505
330
17
100
AcDbEntity
  8
0
100
AcDbCircle
 10
-0.8125
 20
15.49999999999998
 30
0.0
 40
0.1325
  0
CIRCLE
  5
1506
330
17
100
AcDbEntity
  8
0
100
AcDbCircle
 10
0.25
 20
15.49999999999998
 30
0.0
 40
0.1325
  0
CIRCLE
  5
1507
330
17
100
AcDbEntity
  8
0
100
AcDbCircle
 10
-0.25
 20
14.37499999999998
 30
0.0
 40
0.1325
  0
CIRCLE
  5
1508
330
17
100
AcDbEntity
  8
0
100
AcDbCircle
 10
-0.8125
 20
13.24999999999998
 30
0.0
 40
0.1325
  0
CIRCLE
  5
1509
330
17
100
AcDbEntity
  8
0
100
AcDbCircle
 10
0.25
 20
13.24999999999998
 30
0.0
 40
0.1325
  0
CIRCLE
  5
150A
330
17
100
AcDbEntity
  8
0
100
AcDbCircle
 10
0.8125
 20
14.37499999999998
 30
0.0
 40
0.1325
  0
ARC
  5
150B
330
17
100
AcDbEntity
  8
0
100
AcDbCircle
 10
-0.15625000000027
 20
16.48077425971412
 30
0.0
 40
0.34375000000027
100
AcDbArc
 50
315.000000000015
 51
359.9999999999813
  0
LINE
  5
150C
330
17
100
AcDbEntity
  8
0
100
AcDbLine
 10
0.1875
 20
16.76922574028595
 30
0.0
 11
0.1875
 21
16.480774259714
 31
0.0
  0
ARC
  5
150D
330
17
100
AcDbEntity
  8
0
100
AcDbCircle
 10
-0.1562500000002558
 20
16.76922574028584
 30
0.0
 40
0.343750000000259
100
AcDbArc
 50
0.0000000000187271
 51
44.99999999998676
  0
LINE
  5
150E
330
17
100
AcDbEntity
  8
0
100
AcDbLine
 10
-0.1935121298570266
 20
17.29262378220879
 30
0.0
 11
0.0868179560328599
 21
17.01229369631884
 31
0.0
  0
ARC
  5
150F
330
17
100
AcDbEntity
  8
0
100
AcDbCircle
 10
0.0937500000002984
 20
17.57988591206595
 30
0.0
 40
0.4062500000002984
100
AcDbArc
 50
180.0000000000204
 51
224.9999999999845
  0
LINE
  5
1510
330
17
100
AcDbEntity
  8
0
100
AcDbLine
 10
-0.3125
 20
17.92011408793413
 30
0.0
 11
-0.3125
 21
17.57988591206581
 31
0.0
  0
ARC
  5
1511
330
17
100
AcDbEntity
  8
0
100
AcDbCircle
 10
0.0937499999998295
 20
17.92011408793426
 30
0.0
 40
0.4062499999998274
100
AcDbArc
 50
135.0
 51
180.0000000000179
  0
LINE
  5
1512
330
17
100
AcDbEntity
  8
0
100
AcDbLine
 10
0.0868179560328599
 20
18.4877063036811
 30
0.0
 11
-0.1935121298570834
 21
18.20737621779117
 31
0.0
  0
ARC
  5
1513
330
17
100
AcDbEntity
  8
0
100
AcDbCircle
 10
-0.15625000000027
 20
18.7307742597141
 30
0.0
 40
0.34375000000027
100
AcDbArc
 50
315.000000000015
 51
359.9999999999813
  0
LINE
  5
1514
330
17
100
AcDbEntity
  8
0
100
AcDbLine
 10
0.1875
 20
19.01922574028603
 30
0.0
 11
0.1875
 21
18.73077425971399
 31
0.0
  0
ARC
  5
1515
330
17
100
AcDbEntity
  8
0
100
AcDbCircle
 10
-0.1562499999996021
 20
19.01922574028616
 30
0.0
 40
0.3437499999996008
100
AcDbArc
 50
359.9999999999772
 51
45.00000000003109
  0
ARC
  5
1516
330
17
100
AcDbEntity
  8
0
100
AcDbCircle
 10
-0.0937499999998153
 20
16.45488591206564
 30
0.0
 40
0.4062499999998153
100
AcDbArc
 50
314.9999999999983
 51
0.0000000000122133
  0
LINE
  5
1517
330
17
100
AcDbEntity
  8
0
100
AcDbLine
 10
0.3125
 20
16.79511408793427
 30
0.0
 11
0.3125
 21
16.45488591206573
 31
0.0
  0
ARC
  5
1518
330
17
100
AcDbEntity
  8
0
100
AcDbCircle
 10
-0.0937499999998295
 20
16.7951140879344
 30
0.0
 40
0.4062499999998274
100
AcDbArc
 50
359.9999999999821
 51
45.0
  0
LINE
  5
1519
330
17
100
AcDbEntity
  8
0
100
AcDbLine
 10
-0.0868179560328599
 20
17.36270630368122
 30
0.0
 11
0.1935121298570834
 21
17.08237621779131
 31
0.0
  0
ARC
  5
151A
330
17
100
AcDbEntity
  8
0
100
AcDbCircle
 10
0.15625000000027
 20
17.60577425971422
 30
0.0
 40
0.34375000000027
100
AcDbArc
 50
180.0000000000188
 51
224.9999999999851
  0
LINE
  5
151B
330
17
100
AcDbEntity
  8
0
100
AcDbLine
 10
-0.1875000000000568
 20
17.89422574028588
 30
0.0
 11
-0.1875
 21
17.6057742597141
 31
0.0
  0
ARC
  5
151C
330
17
100
AcDbEntity
  8
0
100
AcDbCircle
 10
0.1562499999997868
 20
17.8942257402859
 30
0.0
 40
0.343749999999847
100
AcDbArc
 50
134.9999999999845
 51
180.0000000000024
  0
LINE
  5
151D
330
17
100
AcDbEntity
  8
0
100
AcDbLine
 10
0.1935121298570266
 20
18.41762378220864
 30
0.0
 11
-0.0868179560329168
 21
18.13729369631873
 31
0.0
  0
ARC
  5
151E
330
17
100
AcDbEntity
  8
0
100
AcDbCircle
 10
-0.0937500000003553
 20
18.70488591206583
 30
0.0
 40
0.4062500000003553
100
AcDbArc
 50
315.000000000019
 51
359.9999999999813
  0
LINE
  5
151F
330
17
100
AcDbEntity
  8
0
100
AcDbLine
 10
0.3125
 20
19.04511408793426
 30
0.0
 11
0.3125
 21
18.7048859120657
 31
0.0
  0
ARC
  5
1520
330
17
100
AcDbEntity
  8
0
100
AcDbCircle
 10
-0.0937500000002274
 20
19.0451140879341
 30
0.0
 40
0.4062500000002294
100
AcDbArc
 50
0.000000000021984
 51
44.99999999998907
  0
CIRCLE
  5
1521
330
17
100
AcDbEntity
  8
0
100
AcDbCircle
 10
-0.8125
 20
17.74999999999998
 30
0.0
 40
0.1325
  0
CIRCLE
  5
1522
330
17
100
AcDbEntity
  8
0
100
AcDbCircle
 10
0.25
 20
17.74999999999998
 30
0.0
 40
0.1325
  0
CIRCLE
  5
1523
330
17
100
AcDbEntity
  8
0
100
AcDbCircle
 10
-0.25
 20
18.87499999999998
 30
0.0
 40
0.1325
  0
CIRCLE
  5
1524
330
17
100
AcDbEntity
  8
0
100
AcDbCircle
 10
-0.25
 20
16.62499999999998
 30
0.0
 40
0.1325
  0
CIRCLE
  5
1525
330
17
100
AcDbEntity
  8
0
100
AcDbCircle
 10
0.8125
 20
18.87499999999998
 30
0.0
 40
0.1325
  0
CIRCLE
  5
1526
330
17
100
AcDbEntity
  8
0
100
AcDbCircle
 10
0.8125
 20
16.62499999999998
 30
0.0
 40
0.1325
  0
ARC
  5
1529
330
17
100
AcDbEntity
  8
0
100
AcDbCircle
 10
0.0937500000002984
 20
22.42011408793405
 30
0.0
 40
0.4062500000002997
100
AcDbArc
 50
135.0000000000156
 51
179.9999999999797
  0
LINE
  5
152A
330
17
100
AcDbEntity
  8
0
100
AcDbLine
 10
0.1935121298570266
 20
22.91762378220864
 30
0.0
 11
-0.0868179560329168
 21
22.63729369631867
 31
0.0
  0
ARC
  5
152B
330
17
100
AcDbEntity
  8
0
100
AcDbCircle
 10
0.0937500000003553
 20
19.82988591206592
 30
0.0
 40
0.4062500000003553
100
AcDbArc
 50
180.0000000000188
 51
224.999999999981
  0
LINE
  5
152C
330
17
100
AcDbEntity
  8
0
100
AcDbLine
 10
-0.3125
 20
20.17011408793416
 30
0.0
 11
-0.3125
 21
19.82988591206578
 31
0.0
  0
ARC
  5
152D
330
17
100
AcDbEntity
  8
0
100
AcDbCircle
 10
0.0937500000002984
 20
20.170114087934
 30
0.0
 40
0.4062500000002997
100
AcDbArc
 50
135.0000000000156
 51
179.999999999978
  0
LINE
  5
152E
330
17
100
AcDbEntity
  8
0
100
AcDbLine
 10
0.0868179560328599
 20
20.73770630368106
 30
0.0
 11
-0.1935121298570266
 21
20.45737621779117
 31
0.0
  0
ARC
  5
152F
330
17
100
AcDbEntity
  8
0
100
AcDbCircle
 10
-0.15625000000027
 20
20.98077425971406
 30
0.0
 40
0.34375000000027
100
AcDbArc
 50
315.000000000015
 51
359.9999999999813
  0
LINE
  5
1530
330
17
100
AcDbEntity
  8
0
100
AcDbLine
 10
0.1875
 20
21.26922574028598
 30
0.0
 11
0.1875
 21
20.98077425971395
 31
0.0
  0
ARC
  5
1531
330
17
100
AcDbEntity
  8
0
100
AcDbCircle
 10
-0.1562500000002558
 20
21.26922574028587
 30
0.0
 40
0.343750000000259
100
AcDbArc
 50
0.0000000000187271
 51
44.99999999998676
  0
LINE
  5
1532
330
17
100
AcDbEntity
  8
0
100
AcDbLine
 10
-0.1935121298570266
 20
21.79262378220874
 30
0.0
 11
0.0868179560328599
 21
21.51229369631887
 31
0.0
  0
ARC
  5
1533
330
17
100
AcDbEntity
  8
0
100
AcDbCircle
 10
0.0937500000002984
 20
22.07988591206591
 30
0.0
 40
0.4062500000002984
100
AcDbArc
 50
180.0000000000179
 51
224.9999999999845
  0
LINE
  5
1534
330
17
100
AcDbEntity
  8
0
100
AcDbLine
 10
-0.3125
 20
22.42011408793419
 30
0.0
 11
-0.3125
 21
22.07988591206578
 31
0.0
  0
ARC
  5
1535
330
17
100
AcDbEntity
  8
0
100
AcDbCircle
 10
0.15624999999973
 20
19.85577425971408
 30
0.0
 40
0.34374999999973
100
AcDbArc
 50
179.9999999999797
 51
225.0000000000225
  0
LINE
  5
1536
330
17
100
AcDbEntity
  8
0
100
AcDbLine
 10
-0.1875
 20
20.1442257402859
 30
0.0
 11
-0.1875
 21
19.8557742597142
 31
0.0
  0
ARC
  5
1537
330
17
100
AcDbEntity
  8
0
100
AcDbCircle
 10
0.1562499999998437
 20
20.14422574028586
 30
0.0
 40
0.343749999999842
100
AcDbArc
 50
134.9999999999724
 51
179.9999999999943
  0
LINE
  5
1538
330
17
100
AcDbEntity
  8
0
100
AcDbLine
 10
0.1935121298570266
 20
20.66762378220869
 30
0.0
 11
-0.0868179560328031
 21
20.38729369631874
 31
0.0
  0
ARC
  5
1539
330
17
100
AcDbEntity
  8
0
100
AcDbCircle
 10
-0.0937500000003553
 20
20.95488591206588
 30
0.0
 40
0.4062500000003553
100
AcDbArc
 50
315.000000000019
 51
359.9999999999772
  0
LINE
  5
153A
330
17
100
AcDbEntity
  8
0
100
AcDbLine
 10
0.3125
 20
21.29511408793427
 30
0.0
 11
0.3125
 21
20.95488591206571
 31
0.0
  0
ARC
  5
153B
330
17
100
AcDbEntity
  8
0
100
AcDbCircle
 10
-0.0937500000002984
 20
21.29511408793412
 30
0.0
 40
0.4062500000002997
100
AcDbArc
 50
0.000000000021984
 51
44.99999999998445
  0
LINE
  5
153C
330
17
100
AcDbEntity
  8
0
100
AcDbLine
 10
-0.0868179560329168
 20
21.86270630368127
 30
0.0
 11
0.1935121298570266
 21
21.58237621779129
 31
0.0
  0
ARC
  5
153D
330
17
100
AcDbEntity
  8
0
100
AcDbCircle
 10
0.1562500000000995
 20
22.10577425971423
 30
0.0
 40
0.3437500000001563
100
AcDbArc
 50
180.0000000000138
 51
224.9999999999936
  0
LINE
  5
153E
330
17
100
AcDbEntity
  8
0
100
AcDbLine
 10
-0.1875000000000568
 20
22.3942257402858
 30
0.0
 11
-0.1875000000000568
 21
22.10577425971415
 31
0.0
  0
ARC
  5
153F
330
17
100
AcDbEntity
  8
0
100
AcDbCircle
 10
0.1562500000001137
 20
22.39422574028571
 30
0.0
 40
0.3437500000001686
100
AcDbArc
 50
135.0000000000086
 51
179.9999999999862
  0
CIRCLE
  5
1540
330
17
100
AcDbEntity
  8
0
100
AcDbCircle
 10
-0.25
 20
21.12499999999998
 30
0.0
 40
0.1325
  0
CIRCLE
  5
1541
330
17
100
AcDbEntity
  8
0
100
AcDbCircle
 10
-0.8125
 20
19.99999999999998
 30
0.0
 40
0.1325
  0
CIRCLE
  5
1542
330
17
100
AcDbEntity
  8
0
100
AcDbCircle
 10
0.25
 20
19.99999999999998
 30
0.0
 40
0.1325
  0
CIRCLE
  5
1543
330
17
100
AcDbEntity
  8
0
100
AcDbCircle
 10
-0.8125
 20
22.24999999999998
 30
0.0
 40
0.1325
  0
CIRCLE
  5
1544
330
17
100
AcDbEntity
  8
0
100
AcDbCircle
 10
0.25
 20
22.24999999999998
 30
0.0
 40
0.1325
  0
CIRCLE
  5
1545
330
17
100
AcDbEntity
  8
0
100
AcDbCircle
 10
0.8125
 20
21.12499999999998
 30
0.0
 40
0.1325
  0
LINE
  5
154A
330
17
100
AcDbEntity
  8
0
100
AcDbLine
 10
-0.0868179560328599
 20
24.88729369631866
 30
0.0
 11
0.1935121298570266
 21
25.16762378220872
 31
0.0
  0
ARC
  5
154B
330
17
100
AcDbEntity
  8
0
100
AcDbCircle
 10
-0.0937500000002274
 20
25.45488591206586
 30
0.0
 40
0.4062500000002294
100
AcDbArc
 50
315.0000000000109
 51
359.999999999978
  0
LINE
  5
154C
330
17
100
AcDbEntity
  8
0
100
AcDbLine
 10
0.3125
 20
25.4548859120657
 30
0.0
 11
0.3125
 21
25.66500000000008
 31
0.0
  0
LINE
  5
154E
330
17
100
AcDbEntity
  8
0
100
AcDbLine
 10
-0.1935121298570834
 20
24.95737621779123
 30
0.0
 11
0.0868179560328599
 21
25.23770630368106
 31
0.0
  0
ARC
  5
154F
330
17
100
AcDbEntity
  8
0
100
AcDbCircle
 10
-0.1562500000003126
 20
25.48077425971408
 30
0.0
 40
0.3437500000003143
100
AcDbArc
 50
315.0000000000179
 51
359.9999999999797
  0
LINE
  5
1550
330
17
100
AcDbEntity
  8
0
100
AcDbLine
 10
0.1875
 20
25.48077425971396
 30
0.0
 11
0.1875
 21
25.66500000000008
 31
0.0
  0
LINE
  5
1551
330
17
100
AcDbEntity
  8
0
100
AcDbLine
 10
0.0868179560328599
 20
22.98770630368106
 30
0.0
 11
-0.1935121298570266
 21
22.70737621779121
 31
0.0
  0
ARC
  5
1552
330
17
100
AcDbEntity
  8
0
100
AcDbCircle
 10
-0.1562500000003269
 20
23.23077425971409
 30
0.0
 40
0.3437500000003269
100
AcDbArc
 50
315.0000000000184
 51
359.9999999999837
  0
LINE
  5
1553
330
17
100
AcDbEntity
  8
0
100
AcDbLine
 10
0.1875
 20
23.519225740286
 30
0.0
 11
0.1875
 21
23.23077425971399
 31
0.0
  0
ARC
  5
1554
330
17
100
AcDbEntity
  8
0
100
AcDbCircle
 10
-0.1562500000003126
 20
23.51922574028588
 30
0.0
 40
0.3437500000003143
100
AcDbArc
 50
0.0000000000203555
 51
44.99999999998215
  0
LINE
  5
1555
330
17
100
AcDbEntity
  8
0
100
AcDbLine
 10
-0.1935121298570834
 20
24.04262378220873
 30
0.0
 11
0.0868179560328599
 21
23.7622936963189
 31
0.0
  0
ARC
  5
1557
330
17
100
AcDbEntity
  8
0
100
AcDbCircle
 10
-0.0937500000003553
 20
23.20488591206583
 30
0.0
 40
0.4062500000003553
100
AcDbArc
 50
315.000000000019
 51
359.9999999999813
  0
LINE
  5
1558
330
17
100
AcDbEntity
  8
0
100
AcDbLine
 10
0.3125
 20
23.54511408793426
 30
0.0
 11
0.3125
 21
23.2048859120657
 31
0.0
  0
ARC
  5
1559
330
17
100
AcDbEntity
  8
0
100
AcDbCircle
 10
-0.0937500000002274
 20
23.5451140879341
 30
0.0
 40
0.4062500000002294
100
AcDbArc
 50
0.000000000021984
 51
44.99999999998907
  0
LINE
  5
155A
330
17
100
AcDbEntity
  8
0
100
AcDbLine
 10
-0.0868179560328599
 20
24.1127063036813
 30
0.0
 11
0.1935121298570266
 21
23.83237621779124
 31
0.0
  0
CIRCLE
  5
155C
330
17
100
AcDbEntity
  8
0
100
AcDbCircle
 10
-0.25
 20
23.37499999999998
 30
0.0
 40
0.1325
  0
CIRCLE
  5
155D
330
17
100
AcDbEntity
  8
0
100
AcDbCircle
 10
-0.8125
 20
24.49999999999998
 30
0.0
 40
0.1325
  0
CIRCLE
  5
155E
330
17
100
AcDbEntity
  8
0
100
AcDbCircle
 10
0.25
 20
24.49999999999998
 30
0.0
 40
0.1325
  0
CIRCLE
  5
1560
330
17
100
AcDbEntity
  8
0
100
AcDbCircle
 10
0.8125
 20
23.37499999999998
 30
0.0
 40
0.1325
  0
LINE
  5
1787
330
17
100
AcDbEntity
  8
0
  6
HIDDEN
100
AcDbLine
 10
-1.375000180899988
 20
1.275000000000015
 30
0.0
 11
1.375000180900017
 21
1.275000000000015
 31
0.0
  0
ARC
  5
1796
330
17
100
AcDbEntity
  8
0
100
AcDbCircle
 10
-0.833238673363482
 20
0.3601681369817644
 30
0.0
 40
0.3
100
AcDbArc
 50
54.07060958445218
 51
129.4002783514038
  0
ARC
  5
179C
330
17
100
AcDbEntity
  8
0
  6
HIDDEN2
100
AcDbCircle
 10
-0.833238673363482
 20
0.3601681369817644
 30
0.0
 40
0.225
100
AcDbArc
 50
54.07060958445218
 51
128.0456346856841
  0
ARC
  5
179E
330
17
100
AcDbEntity
  8
0
  6
HIDDEN2
100
AcDbCircle
 10
-0.833238673363482
 20
0.3601681369817644
 30
0.0
 40
0.225
100
AcDbArc
 50
128.0456346856846
 51
146.5932458051436
  0
ARC
  5
179F
330
17
100
AcDbEntity
  8
0
  6
HIDDEN2
100
AcDbCircle
 10
-0.833238673363482
 20
0.3601681369817644
 30
0.0
 40
0.3
100
AcDbArc
 50
129.4002783514042
 51
146.5932458051436
  0
ARC
  5
17A0
330
17
100
AcDbEntity
  8
0
  6
HIDDEN2
100
AcDbCircle
 10
-0.7288908027165206
 20
0.2913457431593773
 30
0.0
 40
0.225
100
AcDbArc
 50
326.5932458051603
 51
345.1408569246204
  0
ARC
  5
17A1
330
17
100
AcDbEntity
  8
0
100
AcDbCircle
 10
-0.7288908027165206
 20
0.2913457431593773
 30
0.0
 40
0.3
100
AcDbArc
 50
343.7862132589009
 51
59.11588202585623
  0
ARC
  5
17A2
330
17
100
AcDbEntity
  8
0
  6
HIDDEN2
100
AcDbCircle
 10
-0.7288908027165206
 20
0.2913457431593773
 30
0.0
 40
0.225
100
AcDbArc
 50
345.1408569246204
 51
59.11588202585623
  0
ARC
  5
17A3
330
17
100
AcDbEntity
  8
0
100
AcDbCircle
 10
-0.0000000000000142
 20
1.509999999999986
 30
0.0
 40
1.12
100
AcDbArc
 50
234.0706095844477
 51
239.1158820258582
  0
ARC
  5
17A4
330
17
100
AcDbEntity
  8
0
  6
HIDDEN2
100
AcDbCircle
 10
-0.0000000000000142
 20
1.509999999999986
 30
0.0
 40
1.195
100
AcDbArc
 50
234.0706095844477
 51
239.1158820258582
  0
ARC
  5
17A5
330
17
100
AcDbEntity
  8
0
  6
HIDDEN2
100
AcDbCircle
 10
-0.7288908027165206
 20
0.2913457431593773
 30
0.0
 40
0.3
100
AcDbArc
 50
329.3781523550567
 51
343.7862132589009
  0
ARC
  5
17AD
330
17
100
AcDbEntity
  8
0
100
AcDbCircle
 10
-1.577499999999972
 20
1.801246052584668
 30
0.0
 40
0.2619999999999996
100
AcDbArc
 50
0.0000000000004071
 51
39.38490570446512
  0
ARC
  5
17AF
330
17
100
AcDbEntity
  8
0
  6
HIDDEN2
100
AcDbCircle
 10
-1.577500000000057
 20
1.801246052584668
 30
0.0
 40
0.187
100
AcDbArc
 50
0.0
 51
47.01411391979246
  0
ARC
  5
17B2
330
17
100
AcDbEntity
  8
0
  6
HIDDEN2
100
AcDbCircle
 10
-1.577517495199956
 20
1.675326867984682
 30
0.0
 40
0.2619999999999969
100
AcDbArc
 50
299.4514479890524
 51
320.6150942955361
  0
ARC
  5
17B3
330
17
100
AcDbEntity
  8
0
100
AcDbCircle
 10
-1.577499999999972
 20
1.676246052584668
 30
0.0
 40
0.2619999999999969
100
AcDbArc
 50
320.6150942955357
 51
359.9999999999996
  0
LINE
  5
17B4
330
17
100
AcDbEntity
  8
0
100
AcDbLine
 10
-1.315499999999972
 20
1.801246052584654
 30
0.0
 11
-1.315499999999972
 21
1.676246052584654
 31
0.0
  0
LINE
  5
17B5
330
17
100
AcDbEntity
  8
0
100
AcDbLine
 10
-1.374999999999986
 20
1.509999070400008
 30
0.0
 11
-1.375017495199998
 21
1.509080813799992
 31
0.0
  0
LINE
  5
17B6
330
17
100
AcDbEntity
  8
0
100
AcDbLine
 10
-1.375017495200027
 20
1.50908081540002
 30
0.0
 11
-1.375000000000043
 21
1.509999070499996
 31
0.0
  0
LINE
  5
17B7
330
17
100
AcDbEntity
  8
0
100
AcDbLine
 10
-1.39050000000006
 20
1.769996052584654
 30
0.0
 11
-1.39050000000006
 21
1.707496052584654
 31
0.0
  0
ARC
  5
17B8
330
17
100
AcDbEntity
  8
0
  6
HIDDEN2
100
AcDbCircle
 10
-1.577500000000057
 20
1.676246052584668
 30
0.0
 40
0.187
100
AcDbArc
 50
312.9858860802075
 51
0.0
  0
LINE
  5
17BE
330
17
100
AcDbEntity
  8
0
  6
HIDDEN
100
AcDbLine
 10
-0.4687499999999858
 20
1.275000000000015
 30
0.0
 11
-0.4687499999999858
 21
1.51
 31
0.0
  0
ARC
  5
17BF
330
17
100
AcDbEntity
  8
0
  6
HIDDEN2
100
AcDbCircle
 10
-1.577517495199956
 20
1.800326867984682
 30
0.0
 40
0.2619999999999996
100
AcDbArc
 50
39.38490570446455
 51
60.87994316726357
  0
ARC
  5
17C4
330
17
100
AcDbEntity
  8
0
100
AcDbCircle
 10
0.8332386733634536
 20
0.3601681369817644
 30
0.0
 40
0.3
100
AcDbArc
 50
50.59972164859616
 51
125.9293904155478
  0
ARC
  5
17C8
330
17
100
AcDbEntity
  8
0
  6
HIDDEN2
100
AcDbCircle
 10
0.7288908027164922
 20
0.2913457431593773
 30
0.0
 40
0.225
100
AcDbArc
 50
120.8841179741438
 51
194.8591430753796
  0
ARC
  5
17C9
330
17
100
AcDbEntity
  8
0
100
AcDbCircle
 10
0.7288908027164922
 20
0.2913457431593773
 30
0.0
 40
0.3
100
AcDbArc
 50
120.8841179741438
 51
196.2137867410991
  0
ARC
  5
17CA
330
17
100
AcDbEntity
  8
0
  6
HIDDEN2
100
AcDbCircle
 10
0.7288908027164922
 20
0.2913457431593773
 30
0.0
 40
0.225
100
AcDbArc
 50
194.8591430753796
 51
213.4067541948396
  0
ARC
  5
17CC
330
17
100
AcDbEntity
  8
0
  6
HIDDEN2
100
AcDbCircle
 10
0.7288908027164922
 20
0.2913457431593773
 30
0.0
 40
0.3
100
AcDbArc
 50
196.2137867410991
 51
210.6218476449434
  0
ARC
  5
17CD
330
17
100
AcDbEntity
  8
0
  6
HIDDEN2
100
AcDbCircle
 10
0.8332386733634536
 20
0.3601681369817644
 30
0.0
 40
0.225
100
AcDbArc
 50
51.95436531431594
 51
125.9293904155478
  0
ARC
  5
17CE
330
17
100
AcDbEntity
  8
0
  6
HIDDEN2
100
AcDbCircle
 10
-0.0000000000000142
 20
1.509999999999986
 30
0.0
 40
1.195
100
AcDbArc
 50
300.8841179741419
 51
305.9293904155523
  0
ARC
  5
17CF
330
17
100
AcDbEntity
  8
0
100
AcDbCircle
 10
-0.0000000000000142
 20
1.509999999999986
 30
0.0
 40
1.12
100
AcDbArc
 50
300.8841179741419
 51
305.9293904155523
  0
ARC
  5
17D0
330
17
100
AcDbEntity
  8
0
  6
HIDDEN2
100
AcDbCircle
 10
0.8332386733634536
 20
0.3601681369817644
 30
0.0
 40
0.3
100
AcDbArc
 50
33.40675419485636
 51
50.59972164859578
  0
ARC
  5
17D1
330
17
100
AcDbEntity
  8
0
  6
HIDDEN2
100
AcDbCircle
 10
0.8332386733634536
 20
0.3601681369817644
 30
0.0
 40
0.225
100
AcDbArc
 50
33.40675419485636
 51
51.95436531431542
  0
LINE
  5
17D5
330
17
100
AcDbEntity
  8
0
  6
HIDDEN
100
AcDbLine
 10
0.4687500000000142
 20
1.275000000000015
 30
0.0
 11
0.4687500000000142
 21
1.51
 31
0.0
  0
ARC
  5
17D9
330
17
100
AcDbEntity
  8
0
100
AcDbCircle
 10
1.577500000000029
 20
1.801246052584668
 30
0.0
 40
0.2619999999999996
100
AcDbArc
 50
140.6150942955349
 51
179.9999999999996
  0
ARC
  5
17DB
330
17
100
AcDbEntity
  8
0
  6
HIDDEN2
100
AcDbCircle
 10
1.577500000000029
 20
1.801246052584668
 30
0.0
 40
0.187
100
AcDbArc
 50
132.9858860802075
 51
180.0
  0
ARC
  5
17DC
330
17
100
AcDbEntity
  8
0
  6
HIDDEN2
100
AcDbCircle
 10
1.577517495200013
 20
1.675326867984682
 30
0.0
 40
0.2619999999999969
100
AcDbArc
 50
219.3849057044639
 51
240.5485520109477
  0
ARC
  5
17DD
330
17
100
AcDbEntity
  8
0
100
AcDbCircle
 10
1.577500000000029
 20
1.676246052584668
 30
0.0
 40
0.2619999999999969
100
AcDbArc
 50
180.0000000000004
 51
219.3849057044643
  0
LINE
  5
17DE
330
17
100
AcDbEntity
  8
0
100
AcDbLine
 10
1.37501749519997
 20
1.50908081540002
 30
0.0
 11
1.375000000000043
 21
1.509999070499996
 31
0.0
  0
LINE
  5
17DF
330
17
100
AcDbEntity
  8
0
100
AcDbLine
 10
1.315500000000029
 20
1.801246052584654
 30
0.0
 11
1.315500000000029
 21
1.676246052584654
 31
0.0
  0
LINE
  5
17E0
330
17
100
AcDbEntity
  8
0
100
AcDbLine
 10
1.390500000000031
 20
1.769996052584654
 30
0.0
 11
1.390500000000031
 21
1.707496052584654
 31
0.0
  0
ARC
  5
17E1
330
17
100
AcDbEntity
  8
0
  6
HIDDEN2
100
AcDbCircle
 10
1.577500000000029
 20
1.676246052584668
 30
0.0
 40
0.187
100
AcDbArc
 50
180.0
 51
227.0141139197925
  0
LINE
  5
17E2
330
17
100
AcDbEntity
  8
0
100
AcDbLine
 10
1.375014709300032
 20
1.274605913299988
 30
0.0
 11
1.375017648299988
 21
1.274526191599998
 31
0.0
  0
LINE
  5
17E3
330
17
100
AcDbEntity
  8
0
100
AcDbLine
 10
1.3750176482
 20
1.274526193499989
 30
0.0
 11
1.375000180900017
 21
1.275000000000015
 31
0.0
  0
ARC
  5
17E4
330
17
100
AcDbEntity
  8
0
  6
HIDDEN2
100
AcDbCircle
 10
1.577517495200013
 20
1.800326867984682
 30
0.0
 40
0.2619999999999996
100
AcDbArc
 50
119.1200568327364
 51
140.6150942955355
  0
ARC
  5
1B60
330
17
100
AcDbEntity
  8
0
  6
HIDDEN
100
AcDbCircle
 10
0.0
 20
1.51
 30
0.0
 40
1.0
100
AcDbArc
 50
204.2838803973897
 51
221.7867892982625
  0
ARC
  5
1B61
330
17
100
AcDbEntity
  8
0
  6
HIDDEN
100
AcDbCircle
 10
-0.6524259546162838
 20
0.9269345030418723
 30
0.0
 40
0.125
100
AcDbArc
 50
221.7867892982625
 51
320.000000000002
  0
ARC
  5
1B62
330
17
100
AcDbEntity
  8
0
  6
HIDDEN
100
AcDbCircle
 10
0.0
 20
1.51
 30
0.0
 40
1.0
100
AcDbArc
 50
259.0000000000001
 51
280.9999999999999
  0
ARC
  5
1B63
330
17
100
AcDbEntity
  8
0
  6
HIDDEN
100
AcDbCircle
 10
0.0
 20
1.51
 30
0.0
 40
1.0
100
AcDbArc
 50
318.2132107017372
 51
335.7161196026852
  0
ARC
  5
1B64
330
17
100
AcDbEntity
  8
0
  6
HIDDEN
100
AcDbCircle
 10
0.6524259546162838
 20
0.9269345030418723
 30
0.0
 40
0.125
100
AcDbArc
 50
220.0
 51
318.2132107017372
  0
ARC
  5
1B65
330
17
100
AcDbEntity
  8
0
  6
HIDDEN
100
AcDbCircle
 10
-0.4557595080356123
 20
1.304371036001397
 30
0.0
 40
0.5
100
AcDbArc
 50
161.6293610254262
 51
204.2838803973895
  0
ARC
  5
1B66
330
17
100
AcDbEntity
  8
0
  6
HIDDEN
100
AcDbCircle
 10
0.4557595080358823
 20
1.304371036001994
 30
0.0
 40
0.5
100
AcDbArc
 50
335.7161196026852
 51
18.37063897457319
  0
ARC
  5
1B67
330
17
100
AcDbEntity
  8
0
  6
HIDDEN
100
AcDbCircle
 10
0.0
 20
1.509999999999993
 30
0.0
 40
0.625
100
AcDbArc
 50
230.0000000000008
 51
259.0000000000005
  0
LINE
  5
1C63
330
17
100
AcDbEntity
  8
0
  6
HIDDEN
100
AcDbLine
 10
0.5566703992264195
 20
0.8465860518310588
 30
0.0
 11
0.4017422560540922
 21
1.031222223050632
 31
0.0
  0
LINE
  5
1C64
330
17
100
AcDbEntity
  8
0
  6
HIDDEN
100
AcDbLine
 10
-0.5566703992264053
 20
0.8465860518310553
 30
0.0
 11
-0.401742256054078
 21
1.031222223050628
 31
0.0
  0
LINE
  5
1C65
330
17
100
AcDbEntity
  8
0
  6
HIDDEN
100
AcDbLine
 10
-0.1908089953765426
 20
0.5283728165523325
 30
0.0
 11
-0.1192556221103374
 21
0.896483010345202
 31
0.0
  0
ARC
  5
1C66
330
17
100
AcDbEntity
  8
0
  6
HIDDEN
100
AcDbCircle
 10
0.0
 20
1.509999999999996
 30
0.0
 40
0.625
100
AcDbArc
 50
280.9999999999995
 51
309.9999999999993
  0
LINE
  5
1C67
330
17
100
AcDbEntity
  8
0
  6
HIDDEN
100
AcDbLine
 10
0.1908089953765426
 20
0.5283728165523289
 30
0.0
 11
0.1192556221103445
 21
0.8964830103452055
 31
0.0
  0
LINE
  5
1D39
330
17
100
AcDbEntity
  8
0
100
AcDbLine
 10
-1.509999999999991
 20
25.66500000000008
 30
0.0
 11
0.1874999999999982
 21
25.66500000000008
 31
0.0
  0
LINE
  5
1D3A
330
17
100
AcDbEntity
  8
0
100
AcDbLine
 10
0.3125
 20
25.66500000000008
 30
0.0
 11
1.509999999999991
 21
25.66500000000008
 31
0.0
  0
LINE
  5
1DA4
330
17
100
AcDbEntity
  8
0
100
AcDbLine
 10
1.509999999999993
 20
22.66499999999965
 30
0.0
 11
1.375
 21
22.66499999999964
 31
0.0
  0
LINE
  5
1DA5
330
17
100
AcDbEntity
  8
0
100
AcDbLine
 10
-1.375
 20
22.66499999999965
 30
0.0
 11
-1.509999999999991
 21
22.66499999999965
 31
0.0
  0
ARC
  5
1DFB
330
17
100
AcDbEntity
  8
0
100
AcDbCircle
 10
0.0937500000002416
 20
24.67011408793406
 30
0.0
 40
0.4062500000002997
100
AcDbArc
 50
135.0000000000156
 51
179.9999999999797
  0
ARC
  5
1DFC
330
17
100
AcDbEntity
  8
0
100
AcDbCircle
 10
0.1562500000000426
 20
24.35577425971425
 30
0.0
 40
0.3437500000001563
100
AcDbArc
 50
180.0000000000138
 51
224.9999999999936
  0
ARC
  5
1DFD
330
17
100
AcDbEntity
  8
0
100
AcDbCircle
 10
0.0937500000002416
 20
24.32988591206593
 30
0.0
 40
0.4062500000002984
100
AcDbArc
 50
180.0000000000179
 51
224.9999999999845
  0
LINE
  5
1DFE
330
17
100
AcDbEntity
  8
0
100
AcDbLine
 10
-0.3125000000000568
 20
24.6701140879342
 30
0.0
 11
-0.3125000000000568
 21
24.3298859120658
 31
0.0
  0
ARC
  5
1DFF
330
17
100
AcDbEntity
  8
0
100
AcDbCircle
 10
0.1562500000000568
 20
24.64422574028573
 30
0.0
 40
0.3437500000001686
100
AcDbArc
 50
135.0000000000086
 51
179.9999999999862
  0
LINE
  5
1E00
330
17
100
AcDbEntity
  8
0
100
AcDbLine
 10
-0.1875000000001137
 20
24.64422574028581
 30
0.0
 11
-0.1875000000001137
 21
24.35577425971416
 31
0.0
  0
ENDSEC
  0
SECTION
  2
OBJECTS
  0
DICTIONARY
  5
C
330
0
100
AcDbDictionary
281
     1
  3
ACAD_COLOR
350
1E0B
  3
ACAD_GROUP
350
D
  3
ACAD_LAYOUT
350
47B
  3
ACAD_MATERIAL
350
1E0A
  3
ACAD_MLINESTYLE
350
1A
  3
ACAD_PLOTSETTINGS
350
47C
  3
ACAD_PLOTSTYLENAME
350
479
  3
ACAD_TABLESTYLE
350
1E0C
  3
ACDBVARIABLEDICTIONARY
350
49
  3
ASE_INDEX_DICTIONARY
350
1DE8
  0
DICTIONARY
  5
1E6A
330
2
100
AcDbDictionary
280
     1
281
     1
  3
ACAD_LAYERFILTERS
360
1EBD
  3
ACLYDICTIONARY
360
1EBC
  0
DICTIONARY
  5
7D0
330
17
100
AcDbDictionary
280
     1
281
     1
  3
ACAD_SORTENTS
360
1E79
  0
DICTIONARY
  5
1E0B
102
{ACAD_REACTORS
330
C
102
}
330
C
100
AcDbDictionary
281
     1
  0
DICTIONARY
  5
D
102
{ACAD_REACTORS
330
C
102
}
330
C
100
AcDbDictionary
281
     1
  0
DICTIONARY
  5
47B
102
{ACAD_REACTORS
330
C
102
}
330
C
100
AcDbDictionary
281
     1
  3
Layout1
350
47E
  3
Model
350
47D
  0
DICTIONARY
  5
1E0A
102
{ACAD_REACTORS
330
C
102
}
330
C
100
AcDbDictionary
281
     1
  0
DICTIONARY
  5
1A
102
{ACAD_REACTORS
330
C
102
}
330
C
100
AcDbDictionary
281
     1
  3
STANDARD
350
1B
  0
DICTIONARY
  5
47C
102
{ACAD_REACTORS
330
C
102
}
330
C
100
AcDbDictionary
281
     1
  0
ACDBDICTIONARYWDFLT
  5
479
102
{ACAD_REACTORS
330
C
102
}
330
C
100
AcDbDictionary
281
     1
  3
Normal
350
47A
100
AcDbDictionaryWithDefault
340
47A
  0
DICTIONARY
  5
1E0C
102
{ACAD_REACTORS
330
C
102
}
330
C
100
AcDbDictionary
281
     1
  3
Standard
350
1E0D
  0
DICTIONARY
  5
49
102
{ACAD_REACTORS
330
C
102
}
330
C
100
AcDbDictionary
281
     1
  3
CTABLESTYLE
350
1EBF
  3
DIMADEC
350
4A
  3
DIMASSOC
350
708
  0
DICTIONARY
  5
1DE8
102
{ACAD_REACTORS
330
C
102
}
330
C
100
AcDbDictionary
281
     1
  3
ASEBlockHierarchyIndexRecord
350
1DEA
1001
DCO15
1040
1567414029.888
  0
DICTIONARY
  5
1EBD
102
{ACAD_REACTORS
330
1E6A
102
}
330
1E6A
100
AcDbDictionary
281
     1
  0
DICTIONARY
  5
1EBC
102
{ACAD_REACTORS
330
1E6A
102
}
330
1E6A
100
AcDbDictionary
281
     1
1001
ACAD
1000
<All
  0
SORTENTSTABLE
  5
1E79
102
{ACAD_REACTORS
330
7D0
102
}
330
7D0
100
AcDbSortentsTable
330
17
331
0
  5
1EA7
331
1524
  5
1524
331
1525
  5
1525
331
14F3
  5
14F3
331
153C
  5
153C
331
153D
  5
153D
331
153E
  5
153E
331
1503
  5
1503
331
1454
  5
1454
331
1455
  5
1455
331
1438
  5
1438
331
17A3
  5
17A3
331
17A4
  5
17A4
331
17A5
  5
17A5
331
1437
  5
1437
331
1B60
  5
1B60
331
1B61
  5
1B61
331
1B62
  5
1B62
331
148D
  5
148D
331
1C67
  5
1C67
331
1D39
  5
1D39
331
1D3A
  5
1D3A
331
1DA4
  5
1DA4
331
1DA5
  5
1DA5
331
14DC
  5
14DC
331
1560
  5
1560
331
1787
  5
1787
331
1796
  5
1796
331
1448
  5
1448
331
14F9
  5
14F9
331
14FA
  5
14FA
331
1487
  5
1487
331
1508
  5
1508
331
1509
  5
1509
331
14DF
  5
14DF
331
1536
  5
1536
331
1537
  5
1537
331
14C4
  5
14C4
331
14EF
  5
14EF
331
1513
  5
1513
331
1551
  5
1551
331
1552
  5
1552
331
1553
  5
1553
331
148C
  5
148C
331
17CD
  5
17CD
331
17CE
  5
17CE
331
17CF
  5
17CF
331
14D6
  5
14D6
331
1516
  5
1516
331
1517
  5
1517
331
14C9
  5
14C9
331
1511
  5
1511
331
1512
  5
1512
331
1544
  5
1544
331
1545
  5
1545
331
154A
  5
154A
331
1518
  5
1518
331
153F
  5
153F
331
1540
  5
1540
331
1541
  5
1541
331
14C8
  5
14C8
331
14DE
  5
14DE
331
17D9
  5
17D9
331
17DB
  5
17DB
331
17DC
  5
17DC
331
17DD
  5
17DD
331
14DB
  5
14DB
331
14DA
  5
14DA
331
14E1
  5
14E1
331
14CE
  5
14CE
331
14CC
  5
14CC
331
14C3
  5
14C3
331
14C0
  5
14C0
331
14BF
  5
14BF
331
14B7
  5
14B7
331
1538
  5
1538
331
1539
  5
1539
331
1485
  5
1485
331
14FD
  5
14FD
331
14FE
  5
14FE
331
1481
  5
1481
331
14B2
  5
14B2
331
14F2
  5
14F2
331
14E2
  5
14E2
331
144B
  5
144B
331
144A
  5
144A
331
1488
  5
1488
331
14EA
  5
14EA
331
400
  5
400
331
14F8
  5
14F8
331
14D2
  5
14D2
331
14ED
  5
14ED
331
1522
  5
1522
331
1523
  5
1523
331
14BA
  5
14BA
331
14BE
  5
14BE
331
14FF
  5
14FF
331
14C5
  5
14C5
331
17DE
  5
17DE
331
17DF
  5
17DF
331
17E0
  5
17E0
331
14F7
  5
14F7
331
14E0
  5
14E0
331
17C9
  5
17C9
331
17CA
  5
17CA
331
17CC
  5
17CC
331
17B4
  5
17B4
331
17B5
  5
17B5
331
17B6
  5
17B6
331
14E7
  5
14E7
331
1DFB
  5
1DFB
331
1DFC
  5
1DFC
331
1526
  5
1526
331
1529
  5
1529
331
14CA
  5
14CA
331
14F6
  5
14F6
331
14CB
  5
14CB
331
14E9
  5
14E9
331
1520
  5
1520
331
1521
  5
1521
331
14DD
  5
14DD
331
17D0
  5
17D0
331
17D1
  5
17D1
331
17D5
  5
17D5
331
14D9
  5
14D9
331
14C7
  5
14C7
331
14B8
  5
14B8
331
152E
  5
152E
331
152F
  5
152F
331
14BC
  5
14BC
331
14E5
  5
14E5
331
1519
  5
1519
331
151A
  5
151A
331
14D0
  5
14D0
331
14B1
  5
14B1
331
1500
  5
1500
331
14D3
  5
14D3
331
1510
  5
1510
331
14FB
  5
14FB
331
14FC
  5
14FC
331
144E
  5
144E
331
14EB
  5
14EB
331
14F5
  5
14F5
331
153A
  5
153A
331
153B
  5
153B
331
14EC
  5
14EC
331
14F4
  5
14F4
331
14B9
  5
14B9
331
14E4
  5
14E4
331
154B
  5
154B
331
154C
  5
154C
331
154E
  5
154E
331
1501
  5
1501
331
1502
  5
1502
331
14D4
  5
14D4
331
14D5
  5
14D5
331
14D8
  5
14D8
331
1505
  5
1505
331
1506
  5
1506
331
14E3
  5
14E3
331
150E
  5
150E
331
150F
  5
150F
331
3A7
  5
3A7
331
150D
  5
150D
331
17E1
  5
17E1
331
17E2
  5
17E2
331
17E3
  5
17E3
331
17E4
  5
17E4
331
1514
  5
1514
331
1515
  5
1515
331
151B
  5
151B
331
151C
  5
151C
331
1558
  5
1558
331
1559
  5
1559
331
155A
  5
155A
331
14F1
  5
14F1
331
1436
  5
1436
331
14C1
  5
14C1
331
14C2
  5
14C2
331
17AD
  5
17AD
331
17AF
  5
17AF
331
17B2
  5
17B2
331
17B3
  5
17B3
331
14B5
  5
14B5
331
1486
  5
1486
331
148F
  5
148F
331
1483
  5
1483
331
17A0
  5
17A0
331
17A1
  5
17A1
331
17A2
  5
17A2
331
14B3
  5
14B3
331
17BF
  5
17BF
331
17C4
  5
17C4
331
17C8
  5
17C8
331
150B
  5
150B
331
150C
  5
150C
331
14B6
  5
14B6
331
1554
  5
1554
331
1555
  5
1555
331
1557
  5
1557
331
1489
  5
1489
331
14B4
  5
14B4
331
1B63
  5
1B63
331
1B64
  5
1B64
331
1B65
  5
1B65
331
1B66
  5
1B66
331
14BB
  5
14BB
331
1542
  5
1542
331
1543
  5
1543
331
14CF
  5
14CF
331
144D
  5
144D
331
1B67
  5
1B67
331
1C63
  5
1C63
331
1C64
  5
1C64
331
1C65
  5
1C65
331
1C66
  5
1C66
331
14BD
  5
14BD
331
1530
  5
1530
331
1531
  5
1531
331
1484
  5
1484
331
148E
  5
148E
331
148A
  5
148A
331
1493
  5
1493
331
150A
  5
150A
331
1435
  5
1435
331
151E
  5
151E
331
151F
  5
151F
331
14D7
  5
14D7
331
17B7
  5
17B7
331
17B8
  5
17B8
331
17BE
  5
17BE
331
14E8
  5
14E8
331
1432
  5
1432
331
151D
  5
151D
331
1532
  5
1532
331
1533
  5
1533
331
148B
  5
148B
331
14CD
  5
14CD
331
154F
  5
154F
331
1550
  5
1550
331
1534
  5
1534
331
1535
  5
1535
331
14E6
  5
14E6
331
14F0
  5
14F0
331
14D1
  5
14D1
331
14EE
  5
14EE
331
1DFD
  5
1DFD
331
1DFE
  5
1DFE
331
1DFF
  5
1DFF
331
1E00
  5
1E00
331
152A
  5
152A
331
152B
  5
152B
331
1494
  5
1494
331
1504
  5
1504
331
1507
  5
1507
331
155C
  5
155C
331
155D
  5
155D
331
155E
  5
155E
331
1491
  5
1491
331
1492
  5
1492
331
152C
  5
152C
331
152D
  5
152D
331
1490
  5
1490
331
179C
  5
179C
331
179E
  5
179E
331
179F
  5
179F
331
14C6
  5
14C6
  0
LAYOUT
  5
47E
102
{ACAD_REACTORS
330
47B
102
}
330
47B
100
AcDbPlotSettings
  1

  2
hp psc 2100 series
  4

  6

 40
0.0
 41
0.0
 42
0.0
 43
0.0
 44
0.0
 45
0.0
 46
0.0
 47
0.0
 48
0.0
 49
0.0
140
0.0
141
0.0
142
1.0
143
1.0
 70
   688
 72
     0
 73
     0
 74
     5
  7

 75
    16
 76
     0
 77
     2
 78
   300
147
1.0
148
0.0
149
0.0
100
AcDbLayout
  1
Layout1
 70
     0
 71
     1
 10
0.0
 20
0.0
 11
12.0
 21
9.0
 12
0.0
 22
0.0
 32
0.0
 14
1.000000000000000E+20
 24
1.000000000000000E+20
 34
1.000000000000000E+20
 15
-1.000000000000000E+20
 25
-1.000000000000000E+20
 35
-1.000000000000000E+20
146
0.0
 13
0.0
 23
0.0
 33
0.0
 16
1.0
 26
0.0
 36
0.0
 17
0.0
 27
1.0
 37
0.0
 76
     0
330
14
  0
LAYOUT
  5
47D
102
{ACAD_REACTORS
330
47B
102
}
330
47B
100
AcDbPlotSettings
  1

  2
HP LaserJet 2100 Series PS
  4
Letter
  6

 40
5.365749835968018
 41
5.408073902130127
 42
5.132904052734375
 43
5.090576171875
 44
215.8999938964844
 45
279.3999938964844
 46
0.0
 47
0.0
 48
0.0
 49
0.0
140
0.0
141
0.0
142
1.0
143
1.0
 70
 11952
 72
     0
 73
     1
 74
     0
  7

 75
     0
 76
     0
 77
     2
 78
   300
147
1.0
148
-235.8358304326739
149
124.3460344986174
100
AcDbLayout
  1
Model
 70
     1
 71
     0
 10
0.0
 20
0.0
 11
12.0
 21
9.0
 12
0.0
 22
0.0
 32
0.0
 14
0.0
 24
0.0
 34
0.0
 15
0.0
 25
0.0
 35
0.0
146
0.0
 13
0.0
 23
0.0
 33
0.0
 16
1.0
 26
0.0
 36
0.0
 17
0.0
 27
1.0
 37
0.0
 76
     0
330
17
  0
MLINESTYLE
  5
1B
102
{ACAD_REACTORS
330
1A
102
}
330
1A
100
AcDbMlineStyle
  2
STANDARD
 70
     0
  3

 62
   256
 51
90.0
 52
90.0
 71
     2
 49
0.5
 62
   256
  6
BYLAYER
 49
-0.5
 62
   256
  6
BYLAYER
  0
ACDBPLACEHOLDER
  5
47A
102
{ACAD_REACTORS
330
479
102
}
330
479
  0
ACAD_PROXY_OBJECT
  5
1E0D
102
{ACAD_REACTORS
330
1E0C
102
}
330
1E0C
100
AcDbProxyObject
 90
      499
 91
      517
 95
   983063
 70
     0
 93
     1841
310
4214DD185B99185C9928B81E85EB51B8AE3F2E07A17AD46E2B8FC02B5E8DC0F42B1CFD028000000C1008070000C3001FDFF8000000C1003FBFF000000182007F7FE00000030400FEFFC00000060801FDFF8000000C1003FBFF00000018200000000000000681FA0B0000001820100E000186003FBFF000000182007F7FE000
310
00030400FEFFC00000060801FDFF8000000C1003FBFF000000182007F7FE000000304000AD7A3703D0AC73F4160000003040201C00030C007F7FE00000030400FEFFC00000060801FDFF8000000C1003FBFF000000182007F7FE00000030400FEFFC000000608000
340
F
340
F
340
F
 94
        0
  0
DICTIONARYVAR
  5
1EBF
102
{ACAD_REACTORS
330
49
102
}
330
49
100
DictionaryVariables
280
     0
  1
STANDARD
  0
DICTIONARYVAR
  5
4A
102
{ACAD_REACTORS
330
49
102
}
330
49
100
DictionaryVariables
280
     0
  1
0
  0
DICTIONARYVAR
  5
708
102
{ACAD_REACTORS
330
49
102
}
330
49
100
DictionaryVariables
280
     0
  1
0
  0
XRECORD
  5
1DEA
102
{ACAD_REACTORS
330
1DE8
102
}
330
1DE8
100
AcDbXrecord
280
     1
330
0
330
0
330
0
330
0
330
0
330
0
  0
ENDSEC
  0
EOF
