  0
SECTION
  2
HEADER
  9
$ACADVER
  1
AC1018
  9
$ACADMAINTVER
 70
     6
  9
$DWGCODEPAGE
  3
ANSI_1252
  9
$INSBASE
 10
0.0
 20
0.0
 30
0.0
  9
$EXTMIN
 10
-24.4065467810942
 20
-0.0910033202858216
 30
-0.0000000000022887
  9
$EXTMAX
 10
12.50463874231168
 20
32.58370980362375
 30
0.0000000000000001
  9
$LIMMIN
 10
0.0
 20
0.0
  9
$LIMMAX
 10
32.0
 20
42.0
  9
$ORTHOMODE
 70
     1
  9
$REGENMODE
 70
     1
  9
$FILLMODE
 70
     1
  9
$QTEXTMODE
 70
     0
  9
$MIRRTEXT
 70
     0
  9
$LTSCALE
 40
0.5
  9
$ATTMODE
 70
     1
  9
$TEXTSIZE
 40
0.36
  9
$TRACEWID
 40
0.05
  9
$TEXTSTYLE
  7
STANDARD
  9
$CLAYER
  8
0
  9
$CELTYPE
  6
BYLAYER
  9
$CECOLOR
 62
   256
  9
$CELTSCALE
 40
1.0
  9
$DISPSILH
 70
     0
  9
$DIMSCALE
 40
4.0
  9
$DIMASZ
 40
0.125
  9
$DIMEXO
 40
0.062
  9
$DIMDLI
 40
0.375
  9
$DIMRND
 40
0.0
  9
$DIMDLE
 40
0.0
  9
$DIMEXE
 40
0.08
  9
$DIMTP
 40
0.0
  9
$DIMTM
 40
0.0
  9
$DIMTXT
 40
0.09
  9
$DIMCEN
 40
-0.0078125
  9
$DIMTSZ
 40
0.0
  9
$DIMTOL
 70
     0
  9
$DIMLIM
 70
     0
  9
$DIMTIH
 70
     1
  9
$DIMTOH
 70
     1
  9
$DIMSE1
 70
     0
  9
$DIMSE2
 70
     0
  9
$DIMTAD
 70
     0
  9
$DIMZIN
 70
     0
  9
$DIMBLK
  1

  9
$DIMASO
 70
     0
  9
$DIMSHO
 70
     0
  9
$DIMPOST
  1

  9
$DIMAPOST
  1

  9
$DIMALT
 70
     0
  9
$DIMALTD
 70
     2
  9
$DIMALTF
 40
25.4
  9
$DIMLFAC
 40
1.0
  9
$DIMTOFL
 70
     0
  9
$DIMTVP
 40
0.0
  9
$DIMTIX
 70
     0
  9
$DIMSOXD
 70
     0
  9
$DIMSAH
 70
     0
  9
$DIMBLK1
  1

  9
$DIMBLK2
  1

  9
$DIMSTYLE
  2
STANDARD
  9
$DIMCLRD
 70
     0
  9
$DIMCLRE
 70
     0
  9
$DIMCLRT
 70
     0
  9
$DIMTFAC
 40
1.0
  9
$DIMGAP
 40
0.09
  9
$DIMJUST
 70
     0
  9
$DIMSD1
 70
     0
  9
$DIMSD2
 70
     0
  9
$DIMTOLJ
 70
     1
  9
$DIMTZIN
 70
     0
  9
$DIMALTZ
 70
     0
  9
$DIMALTTZ
 70
     0
  9
$DIMUPT
 70
     0
  9
$DIMDEC
 70
     5
  9
$DIMTDEC
 70
     5
  9
$DIMALTU
 70
     2
  9
$DIMALTTD
 70
     2
  9
$DIMTXSTY
  7
STANDARD
  9
$DIMAUNIT
 70
     0
  9
$DIMADEC
 70
     0
  9
$DIMALTRND
 40
0.0
  9
$DIMAZIN
 70
     0
  9
$DIMDSEP
 70
    46
  9
$DIMATFIT
 70
     3
  9
$DIMFRAC
 70
     2
  9
$DIMLDRBLK
  1

  9
$DIMLUNIT
 70
     5
  9
$DIMLWD
 70
    -2
  9
$DIMLWE
 70
    -2
  9
$DIMTMOVE
 70
     2
  9
$LUNITS
 70
     2
  9
$LUPREC
 70
     4
  9
$SKETCHINC
 40
0.1
  9
$FILLETRAD
 40
0.0
  9
$AUNITS
 70
     0
  9
$AUPREC
 70
     0
  9
$MENU
  1
qa
  9
$ELEVATION
 40
0.0
  9
$PELEVATION
 40
0.0
  9
$THICKNESS
 40
0.0
  9
$LIMCHECK
 70
     0
  9
$CHAMFERA
 40
0.4375
  9
$CHAMFERB
 40
0.4375
  9
$CHAMFERC
 40
0.0
  9
$CHAMFERD
 40
0.0
  9
$SKPOLY
 70
     0
  9
$TDCREATE
 40
2452872.693529282
  9
$TDUCREATE
 40
2452873.026862616
  9
$TDUPDATE
 40
2454417.825834537
  9
$TDUUPDATE
 40
2454418.15916787
  9
$TDINDWG
 40
0.5234918866
  9
$TDUSRTIMER
 40
0.5234918866
  9
$USRTIMER
 70
     1
  9
$ANGBASE
 50
0.0
  9
$ANGDIR
 70
     0
  9
$PDMODE
 70
     0
  9
$PDSIZE
 40
0.0
  9
$PLINEWID
 40
0.0
  9
$SPLFRAME
 70
     0
  9
$SPLINETYPE
 70
     6
  9
$SPLINESEGS
 70
     8
  9
$HANDSEED
  5
1ED5
  9
$SURFTAB1
 70
     6
  9
$SURFTAB2
 70
     6
  9
$SURFTYPE
 70
     6
  9
$SURFU
 70
     6
  9
$SURFV
 70
     6
  9
$UCSBASE
  2

  9
$UCSNAME
  2

  9
$UCSORG
 10
0.0
 20
0.0
 30
0.0
  9
$UCSXDIR
 10
1.0
 20
0.0
 30
0.0
  9
$UCSYDIR
 10
0.0
 20
1.0
 30
0.0
  9
$UCSORTHOREF
  2

  9
$UCSORTHOVIEW
 70
     0
  9
$UCSORGTOP
 10
0.0
 20
0.0
 30
0.0
  9
$UCSORGBOTTOM
 10
0.0
 20
0.0
 30
0.0
  9
$UCSORGLEFT
 10
0.0
 20
0.0
 30
0.0
  9
$UCSORGRIGHT
 10
0.0
 20
0.0
 30
0.0
  9
$UCSORGFRONT
 10
0.0
 20
0.0
 30
0.0
  9
$UCSORGBACK
 10
0.0
 20
0.0
 30
0.0
  9
$PUCSBASE
  2

  9
$PUCSNAME
  2

  9
$PUCSORG
 10
0.0
 20
0.0
 30
0.0
  9
$PUCSXDIR
 10
1.0
 20
0.0
 30
0.0
  9
$PUCSYDIR
 10
0.0
 20
1.0
 30
0.0
  9
$PUCSORTHOREF
  2

  9
$PUCSORTHOVIEW
 70
     0
  9
$PUCSORGTOP
 10
0.0
 20
0.0
 30
0.0
  9
$PUCSORGBOTTOM
 10
0.0
 20
0.0
 30
0.0
  9
$PUCSORGLEFT
 10
0.0
 20
0.0
 30
0.0
  9
$PUCSORGRIGHT
 10
0.0
 20
0.0
 30
0.0
  9
$PUCSORGFRONT
 10
0.0
 20
0.0
 30
0.0
  9
$PUCSORGBACK
 10
0.0
 20
0.0
 30
0.0
  9
$USERI1
 70
     0
  9
$USERI2
 70
     0
  9
$USERI3
 70
     0
  9
$USERI4
 70
     0
  9
$USERI5
 70
     0
  9
$USERR1
 40
0.0
  9
$USERR2
 40
0.0
  9
$USERR3
 40
0.0
  9
$USERR4
 40
0.0
  9
$USERR5
 40
0.0
  9
$WORLDVIEW
 70
     1
  9
$SHADEDGE
 70
     3
  9
$SHADEDIF
 70
    70
  9
$TILEMODE
 70
     1
  9
$MAXACTVP
 70
    16
  9
$PINSBASE
 10
0.0
 20
0.0
 30
0.0
  9
$PLIMCHECK
 70
     0
  9
$PEXTMIN
 10
1.000000000000000E+20
 20
1.000000000000000E+20
 30
1.000000000000000E+20
  9
$PEXTMAX
 10
-1.000000000000000E+20
 20
-1.000000000000000E+20
 30
-1.000000000000000E+20
  9
$PLIMMIN
 10
0.0
 20
0.0
  9
$PLIMMAX
 10
12.0
 20
9.0
  9
$UNITMODE
 70
     0
  9
$VISRETAIN
 70
     0
  9
$PLINEGEN
 70
     0
  9
$PSLTSCALE
 70
     0
  9
$TREEDEPTH
 70
  3020
  9
$CMLSTYLE
  2
STANDARD
  9
$CMLJUST
 70
     0
  9
$CMLSCALE
 40
1.0
  9
$PROXYGRAPHICS
 70
     1
  9
$MEASUREMENT
 70
     0
  9
$CELWEIGHT
370
    -1
  9
$ENDCAPS
280
     0
  9
$JOINSTYLE
280
     0
  9
$LWDISPLAY
290
     0
  9
$INSUNITS
 70
     0
  9
$HYPERLINKBASE
  1

  9
$STYLESHEET
  1

  9
$XEDIT
290
     1
  9
$CEPSNTYPE
380
     0
  9
$PSTYLEMODE
290
     1
  9
$FINGERPRINTGUID
  2
{3F8EE252-4A01-453C-A5F5-5678F9528411}
  9
$VERSIONGUID
  2
{8163F1D2-A82D-4A15-8EE9-E7F61992298A}
  9
$EXTNAMES
290
     1
  9
$PSVPSCALE
 40
0.0
  9
$OLESTARTUP
290
     0
  9
$SORTENTS
280
   127
  9
$INDEXCTL
280
     0
  9
$HIDETEXT
280
     1
  9
$XCLIPFRAME
290
     0
  9
$HALOGAP
280
     0
  9
$OBSCOLOR
 70
   257
  9
$OBSLTYPE
280
     0
  9
$INTERSECTIONDISPLAY
280
     0
  9
$INTERSECTIONCOLOR
 70
   257
  9
$DIMASSOC
280
     0
  9
$PROJECTNAME
  1

  0
ENDSEC
  0
SECTION
  2
CLASSES
  0
CLASS
  1
DICTIONARYVAR
  2
AcDbDictionaryVar
  3
AutoCAD 2000
 90
        0
 91
        1
280
     0
281
     0
  0
CLASS
  1
LWPOLYLINE
  2
AcDbPolyline
  3
AutoCAD 2000
 90
        0
 91
        6
280
     0
281
     1
  0
CLASS
  1
ACDBDICTIONARYWDFLT
  2
AcDbDictionaryWithDefault
  3
AutoCAD 2000
 90
        0
 91
        1
280
     0
281
     0
  0
CLASS
  1
ACDBPLACEHOLDER
  2
AcDbPlaceHolder
  3
ObjectDBX Classes
 90
        0
 91
        3
280
     0
281
     0
  0
CLASS
  1
LAYOUT
  2
AcDbLayout
  3
ObjectDBX Classes
 90
        0
 91
        3
280
     0
281
     0
  0
CLASS
  1
LONG_TRANSACTION
  2
AcDbLongTransaction
  3
ObjectDBX Classes
 90
   -65536
 91
        3
280
     1
281
     0
  0
CLASS
  1
LWPOLYLINE
  2
AcDbPolyline
  3
AutoCAD 2000
 90
        0
 91
        6
280
     0
281
     1
  0
CLASS
  1
HATCH
  2
AcDbHatch
  3
AutoCAD 2000
 90
        0
 91
        5
280
     0
281
     1
  0
CLASS
  1
XRECORD
  2
AcDbXrecord
  3
AutoCAD 2000
 90
        0
 91
        5
280
     0
281
     0
  0
CLASS
  1
LONG_TRANSACTION
  2
AcDbLongTransaction
  3
ObjectDBX Classes
 90
   -65536
 91
        3
280
     1
281
     0
  0
CLASS
  1
LWPOLYLINE
  2
AcDbPolyline
  3
AutoCAD 2000
 90
        0
 91
        6
280
     0
281
     1
  0
CLASS
  1
HATCH
  2
AcDbHatch
  3
AutoCAD 2000
 90
        0
 91
        5
280
     0
281
     1
  0
CLASS
  1
XRECORD
  2
AcDbXrecord
  3
AutoCAD 2000
 90
        0
 91
        5
280
     0
281
     0
  0
CLASS
  1
LONG_TRANSACTION
  2
AcDbLongTransaction
  3
ObjectDBX Classes
 90
   -65536
 91
        3
280
     1
281
     0
  0
CLASS
  1
LWPOLYLINE
  2
AcDbPolyline
  3
AutoCAD 2000
 90
        0
 91
        6
280
     0
281
     1
  0
CLASS
  1
HATCH
  2
AcDbHatch
  3
AutoCAD 2000
 90
        0
 91
        5
280
     0
281
     1
  0
CLASS
  1
XRECORD
  2
AcDbXrecord
  3
AutoCAD 2000
 90
        0
 91
        5
280
     0
281
     0
  0
CLASS
  1
TABLESTYLE
  2
AcDbTableStyle
  3
ObjectDBX Classes
 90
     2047
 91
        2
280
     1
281
     0
  0
CLASS
  1
SORTENTSTABLE
  2
AcDbSortentsTable
  3
AutoCAD 2000
 90
        0
 91
        1
280
     0
281
     0
  0
ENDSEC
  0
SECTION
  2
TABLES
  0
TABLE
  2
VPORT
  5
8
330
0
100
AcDbSymbolTable
 70
     5
  0
VPORT
  5
1ECE
330
8
100
AcDbSymbolTableRecord
100
AcDbViewportTableRecord
  2
*Active
 70
     0
 10
0.0
 20
0.0
 11
1.0
 21
1.0
 12
9.748046909809347
 22
18.60199765219866
 13
0.0
 23
0.0
 14
0.063
 24
0.063
 15
0.25
 25
0.25
 16
0.0
 26
0.0
 36
1.0
 17
0.0
 27
0.0
 37
0.0
 40
42.60640342587271
 41
1.78118609406953
 42
50.0
 43
0.0
 44
0.0
 50
0.0
 51
0.0
 71
     0
 72
   100
 73
     1
 74
     0
 75
     0
 76
     0
 77
     0
 78
     0
281
     0
 65
     1
110
0.0
120
0.0
130
0.0
111
1.0
121
0.0
131
0.0
112
0.0
122
1.0
132
0.0
 79
     0
146
0.0
  0
ENDTAB
  0
TABLE
  2
LTYPE
  5
5
330
0
100
AcDbSymbolTable
 70
     6
  0
LTYPE
  5
11
330
5
100
AcDbSymbolTableRecord
100
AcDbLinetypeTableRecord
  2
BYBLOCK
 70
     0
  3

 72
    65
 73
     0
 40
0.0
  0
LTYPE
  5
12
330
5
100
AcDbSymbolTableRecord
100
AcDbLinetypeTableRecord
  2
BYLAYER
 70
     0
  3

 72
    65
 73
     0
 40
0.0
  0
LTYPE
  5
13
330
5
100
AcDbSymbolTableRecord
100
AcDbLinetypeTableRecord
  2
CONTINUOUS
 70
     0
  3
Solid line
 72
    65
 73
     0
 40
0.0
  0
LTYPE
  5
2B
330
5
100
AcDbSymbolTableRecord
100
AcDbLinetypeTableRecord
  2
HIDDEN
 70
     0
  3
_ _ _ _ _ _ _ _ _ _ _ _ _ _ _ _ _ _ _ _ _ _ _
 72
    65
 73
     2
 40
0.375
 49
0.25
 74
     0
 49
-0.125
 74
     0
  0
LTYPE
  5
49E
330
5
100
AcDbSymbolTableRecord
100
AcDbLinetypeTableRecord
  2
HIDDEN2
 70
     0
  3
Hidden (.5x) _ _ _ _ _ _ _ _ _ _ _ _ _ _ _ _ _
 72
    65
 73
     2
 40
0.1875
 49
0.125
 74
     0
 49
-0.0625
 74
     0
  0
ENDTAB
  0
TABLE
  2
LAYER
  5
2
102
{ACAD_XDICTIONARY
360
1E6A
102
}
330
0
100
AcDbSymbolTable
 70
    16
  0
LAYER
  5
E
330
2
100
AcDbSymbolTableRecord
100
AcDbLayerTableRecord
  2
0
 70
     0
 62
     7
  6
CONTINUOUS
370
    -3
390
47A
  0
LAYER
  5
37
330
2
100
AcDbSymbolTableRecord
100
AcDbLayerTableRecord
  2
DIM
 70
     0
 62
     5
  6
CONTINUOUS
370
    -3
390
47A
  0
LAYER
  5
43
330
2
100
AcDbSymbolTableRecord
100
AcDbLayerTableRecord
  2
DEFPOINTS
 70
     0
 62
     7
  6
CONTINUOUS
290
     0
370
    -3
390
47A
  0
ENDTAB
  0
TABLE
  2
STYLE
  5
3
330
0
100
AcDbSymbolTable
 70
     4
  0
STYLE
  5
F
330
3
100
AcDbSymbolTableRecord
100
AcDbTextStyleTableRecord
  2
STANDARD
 70
     0
 40
0.0
 41
1.0
 50
0.0
 71
     0
 42
0.36
  3
TXT
  4

  0
ENDTAB
  0
TABLE
  2
VIEW
  5
6
330
0
100
AcDbSymbolTable
 70
     0
  0
ENDTAB
  0
TABLE
  2
UCS
  5
7
330
0
100
AcDbSymbolTable
 70
     0
  0
ENDTAB
  0
TABLE
  2
APPID
  5
9
330
0
100
AcDbSymbolTable
 70
     4
  0
APPID
  5
10
330
9
100
AcDbSymbolTableRecord
100
AcDbRegAppTableRecord
  2
ACAD
 70
     0
  0
APPID
  5
DA7
330
9
100
AcDbSymbolTableRecord
100
AcDbRegAppTableRecord
  2
RAK
 70
     0
  0
APPID
  5
19D8
330
9
100
AcDbSymbolTableRecord
100
AcDbRegAppTableRecord
  2
ACAD_PSEXT
 70
     0
  0
APPID
  5
1DE9
330
9
100
AcDbSymbolTableRecord
100
AcDbRegAppTableRecord
  2
DCO15
 70
     0
  0
ENDTAB
  0
TABLE
  2
DIMSTYLE
  5
A
330
0
100
AcDbSymbolTable
 70
     1
100
AcDbDimStyleTable
  0
DIMSTYLE
105
465
330
A
100
AcDbSymbolTableRecord
100
AcDbDimStyleTableRecord
  2
STANDARD
 70
     0
  3

  4

340
F
  0
ENDTAB
  0
TABLE
  2
BLOCK_RECORD
  5
1
330
0
100
AcDbSymbolTable
 70
     7
  0
BLOCK_RECORD
  5
17
102
{ACAD_XDICTIONARY
360
7D0
102
}
330
1
100
AcDbSymbolTableRecord
100
AcDbBlockTableRecord
  2
*MODEL_SPACE
340
47D
  0
BLOCK_RECORD
  5
14
330
1
100
AcDbSymbolTableRecord
100
AcDbBlockTableRecord
  2
*PAPER_SPACE
340
47E
  0
ENDTAB
  0
ENDSEC
  0
SECTION
  2
BLOCKS
  0
BLOCK
  5
47
330
17
100
AcDbEntity
  8
0
100
AcDbBlockBegin
  2
*MODEL_SPACE
 70
     0
 10
0.0
 20
0.0
 30
0.0
  3
*MODEL_SPACE
  1

  4

  0
ENDBLK
  5
48
330
17
100
AcDbEntity
  8
0
100
AcDbBlockEnd
  0
BLOCK
  5
45
330
14
100
AcDbEntity
 67
     1
  8
0
100
AcDbBlockBegin
  2
*PAPER_SPACE
 70
     0
 10
0.0
 20
0.0
 30
0.0
  3
*PAPER_SPACE
  1

  4

  0
ENDBLK
  5
46
330
14
100
AcDbEntity
 67
     1
  8
0
100
AcDbBlockEnd
  0
ENDSEC
  0
SECTION
  2
ENTITIES
  0
TEXT
  5
3A7
330
17
100
AcDbEntity
  8
DIM
100
AcDbText
 10
14.93846334400804
 20
21.0944638759405
 30
0.0
 40
0.36
  1
   
 50
359.9999999999988
 11
14.93846334400805
 21
21.2744638759405
 31
0.0
100
AcDbText
 73
     2
  0
TEXT
  5
400
330
17
100
AcDbEntity
  8
DIM
100
AcDbText
 10
13.55232669162669
 20
10.34149078419337
 30
0.0
 40
0.36
  1
   
 72
     1
 11
14.09232669162669
 21
10.52149078419336
 31
0.0
100
AcDbText
 73
     2
  0
CIRCLE
  5
1E42
330
17
100
AcDbEntity
  8
0
100
AcDbCircle
 10
0.8921399792146438
 20
1.778754611484676
 30
0.0
 40
0.1489496572372531
  0
CIRCLE
  5
1E43
330
17
100
AcDbEntity
  8
0
100
AcDbCircle
 10
0.8921399792146438
 20
1.778754611484676
 30
0.0
 40
0.1992945539851405
  0
LINE
  5
1E44
330
17
100
AcDbEntity
  8
0
  6
HIDDEN
100
AcDbLine
 10
-0.2500000000001243
 20
25.66500000000008
 30
0.0
 11
-0.2500000000000107
 21
0.4250000000000008
 31
0.0
  0
LINE
  5
1E45
330
17
100
AcDbEntity
  8
0
100
AcDbLine
 10
-0.4250000000001215
 20
25.66500000000008
 30
0.0
 11
-0.4250000000000078
 21
0.4249999999999972
 31
0.0
  0
ARC
  5
1E46
330
17
100
AcDbEntity
  8
0
  6
HIDDEN
100
AcDbCircle
 10
-0.0000000000000107
 20
0.4250000000000008
 30
0.0
 40
0.25
100
AcDbArc
 50
180.0000000000002
 51
270.0000000000012
  0
ARC
  5
1E47
330
17
100
AcDbEntity
  8
0
100
AcDbCircle
 10
-0.0000000000000107
 20
0.4250000000000008
 30
0.0
 40
0.425
100
AcDbArc
 50
180.0000000000004
 51
270.000000000001
  0
LINE
  5
1E48
330
17
100
AcDbEntity
  8
0
  6
HIDDEN
100
AcDbLine
 10
-0.0000000000000036
 20
0.1750000000000008
 30
0.0
 11
3.237299999999816
 21
0.1750000000000718
 31
0.0
  0
LINE
  5
1E49
330
17
100
AcDbEntity
  8
0
100
AcDbLine
 10
-0.0000000000000036
 20
0.0000000000000001
 30
0.0
 11
3.237299999999824
 21
0.0000000000000711
 31
0.0
  0
LINE
  5
1E4A
330
17
100
AcDbEntity
  8
0
  6
HIDDEN
100
AcDbLine
 10
0.6249999999999822
 20
1.550000000000015
 30
0.0
 11
1.624999999999982
 21
1.550000000000015
 31
0.0
  0
LINE
  5
1E4B
330
17
100
AcDbEntity
  8
0
  6
HIDDEN
100
AcDbLine
 10
1.749999999999798
 20
0.000000000000032
 30
0.0
 11
1.749999999999897
 21
0.1750000000000434
 31
0.0
  0
ARC
  5
1E4C
330
17
100
AcDbEntity
  8
0
100
AcDbCircle
 10
2.552499999999991
 20
0.3834997099511846
 30
0.0
 40
0.2875
100
AcDbArc
 50
184.3718307981648
 51
355.6281692018354
  0
ARC
  5
1E4D
330
17
100
AcDbEntity
  8
0
100
AcDbCircle
 10
2.552499999999991
 20
0.3396681369818318
 30
0.0
 40
0.1875
100
AcDbArc
 50
6.712314467333288
 51
173.2876855326659
  0
ARC
  5
1E4E
330
17
100
AcDbEntity
  8
0
100
AcDbCircle
 10
2.552499999999991
 20
0.3834997099511846
 30
0.0
 40
0.1875
100
AcDbArc
 50
186.7123144673349
 51
353.2876855326651
  0
ARC
  5
1E4F
330
17
100
AcDbEntity
  8
0
  6
HIDDEN2
100
AcDbCircle
 10
2.552499999999991
 20
0.3396681369818318
 30
0.0
 40
0.2875
100
AcDbArc
 50
4.371830798164573
 51
175.6281692018354
  0
LINE
  5
1E50
330
17
100
AcDbEntity
  8
0
  6
HIDDEN
100
AcDbLine
 10
0.4999999999999041
 20
0.0000000000000072
 30
0.0
 11
0.499999999999897
 21
0.1750000000000434
 31
0.0
  0
ARC
  5
1E51
330
17
100
AcDbEntity
  8
0
  6
HIDDEN
100
AcDbCircle
 10
1.624999999999982
 20
1.06500000000003
 30
0.0
 40
0.25
100
AcDbArc
 50
0.000000000000007
 51
90.0
  0
ARC
  5
1E52
330
17
100
AcDbEntity
  8
0
  6
HIDDEN
100
AcDbCircle
 10
0.6249999999999822
 20
1.06500000000003
 30
0.0
 40
0.25
100
AcDbArc
 50
90.0
 51
180.0
  0
LINE
  5
1E53
330
17
100
AcDbEntity
  8
0
  6
HIDDEN
100
AcDbLine
 10
0.6249999999999822
 20
1.31500000000003
 30
0.0
 11
1.624999999999982
 21
1.31500000000003
 31
0.0
  0
LINE
  5
1E54
330
17
100
AcDbEntity
  8
0
  6
HIDDEN
100
AcDbLine
 10
2.109999999999996
 20
1.064999999300003
 30
0.0
 11
1.874999999999982
 21
1.064999999300003
 31
0.0
  0
LINE
  5
1E55
330
17
100
AcDbEntity
  8
0
  6
HIDDEN
100
AcDbLine
 10
1.874999999999982
 20
1.06500000000003
 30
0.0
 11
1.874999999999982
 21
0.1750085589000073
 31
0.0
  0
LINE
  5
1E56
330
17
100
AcDbEntity
  8
0
  6
HIDDEN
100
AcDbLine
 10
2.109999999999996
 20
1.06500000000003
 30
0.0
 11
2.109999999999996
 21
0.1750085589000073
 31
0.0
  0
LINE
  5
1E57
330
17
100
AcDbEntity
  8
0
  6
HIDDEN
100
AcDbLine
 10
0.139999999999997
 20
1.06500000000003
 30
0.0
 11
0.139999999999997
 21
0.1750085589000073
 31
0.0
  0
LINE
  5
1E58
330
17
100
AcDbEntity
  8
0
  6
HIDDEN
100
AcDbLine
 10
0.3749999999999822
 20
1.06500000000003
 30
0.0
 11
0.3749999999999822
 21
0.1750085589000073
 31
0.0
  0
LINE
  5
1E59
330
17
100
AcDbEntity
  8
0
  6
HIDDEN
100
AcDbLine
 10
0.139999999999997
 20
1.064999999300003
 30
0.0
 11
0.3749999999999822
 21
1.064999999300003
 31
0.0
  0
ARC
  5
1E5A
330
17
100
AcDbEntity
  8
0
  6
HIDDEN
100
AcDbCircle
 10
1.624999999999982
 20
1.06500000000003
 30
0.0
 40
0.485
100
AcDbArc
 50
0.000000000000007
 51
90.0
  0
ARC
  5
1E5B
330
17
100
AcDbEntity
  8
0
  6
HIDDEN
100
AcDbCircle
 10
0.6249999999999822
 20
1.06500000000003
 30
0.0
 40
0.485
100
AcDbArc
 50
90.0
 51
180.0
  0
LINE
  5
1E5C
330
17
100
AcDbEntity
  8
0
  6
HIDDEN
100
AcDbLine
 10
0.6562499999999822
 20
1.31500000000003
 30
0.0
 11
0.6562499999999822
 21
1.550000000000015
 31
0.0
  0
LINE
  5
1E5D
330
17
100
AcDbEntity
  8
0
  6
HIDDEN
100
AcDbLine
 10
1.593749999999982
 20
1.31500000000003
 30
0.0
 11
1.593749999999982
 21
1.550000000000015
 31
0.0
  0
LINE
  5
1E5E
330
17
100
AcDbEntity
  8
0
100
AcDbLine
 10
2.117468942704232
 20
4.702350045601223
 30
0.0
 11
3.211818820157031
 21
1.406975721156055
 31
0.0
  0
ARC
  5
1E5F
330
17
100
AcDbEntity
  8
0
100
AcDbCircle
 10
2.591987762861326
 20
4.859931419236327
 30
0.0
 40
0.5
100
AcDbArc
 50
183.4999999999997
 51
198.3706389745734
  0
ARC
  5
1E60
330
17
100
AcDbEntity
  8
0
100
AcDbCircle
 10
2.737299999999951
 20
1.249394347520944
 30
0.0
 40
0.5
100
AcDbArc
 50
0.000000000000007
 51
18.37063897457339
  0
LINE
  5
1E61
330
17
100
AcDbEntity
  8
0
100
AcDbLine
 10
3.23729999999993
 20
1.249394347520958
 30
0.0
 11
3.23729999999993
 21
0.004000000000076
 31
0.0
  0
LINE
  5
1E62
330
17
100
AcDbEntity
  8
0
100
AcDbLine
 10
1.367246483076468
 20
25.66500000000009
 30
0.0
 11
-0.4210000000001237
 21
25.66500000000008
 31
0.0
  0
CIRCLE
  5
1E63
330
17
100
AcDbEntity
  8
0
100
AcDbCircle
 10
0.7499999999999254
 20
22.28999999999945
 30
0.0
 40
0.3435
  0
LINE
  5
1E64
330
17
100
AcDbEntity
  8
0
100
AcDbLine
 10
2.092920363650375
 20
4.829407149468517
 30
0.0
 11
1.55073260078893
 21
13.69409871316326
 31
0.0
  0
LINE
  5
1E65
330
17
100
AcDbEntity
  8
0
100
AcDbLine
 10
1.549799999999859
 20
13.72462298293069
 30
0.0
 11
1.549799999999859
 21
22.66499999999965
 31
0.0
  0
ARC
  5
1E66
330
17
100
AcDbEntity
  8
0
100
AcDbCircle
 10
2.049799999999859
 20
13.72462298293069
 30
0.0
 40
0.5
100
AcDbArc
 50
180.0
 51
183.4999999999999
  0
ARC
  5
1E67
330
17
100
AcDbEntity
  8
0
100
AcDbCircle
 10
1.049799999999859
 20
22.66499999999965
 30
0.0
 40
0.5
100
AcDbArc
 50
0.000000000000007
 51
3.499999999999738
  0
LINE
  5
1E68
330
17
100
AcDbEntity
  8
0
100
AcDbLine
 10
1.548867399210796
 20
22.69552426976708
 30
0.0
 11
1.367246483076468
 21
25.66500000000009
 31
0.0
  0
CIRCLE
  5
1E69
330
17
100
AcDbEntity
  8
0
100
AcDbCircle
 10
0.7499999999999254
 20
13.28999999999945
 30
0.0
 40
0.3435
  0
ENDSEC
  0
SECTION
  2
OBJECTS
  0
DICTIONARY
  5
C
330
0
100
AcDbDictionary
281
     1
  3
ACAD_COLOR
350
1E0B
  3
ACAD_GROUP
350
D
  3
ACAD_LAYOUT
350
47B
  3
ACAD_MATERIAL
350
1E0A
  3
ACAD_MLINESTYLE
350
1A
  3
ACAD_PLOTSETTINGS
350
47C
  3
ACAD_PLOTSTYLENAME
350
479
  3
ACAD_TABLESTYLE
350
1E0C
  3
ACDBVARIABLEDICTIONARY
350
49
  3
ASE_INDEX_DICTIONARY
350
1DE8
  0
DICTIONARY
  5
1E6A
330
2
100
AcDbDictionary
280
     1
281
     1
  3
ACAD_LAYERFILTERS
360
1EBD
  3
ACLYDICTIONARY
360
1EBC
  0
DICTIONARY
  5
7D0
330
17
100
AcDbDictionary
280
     1
281
     1
  3
ACAD_SORTENTS
360
1E79
  0
DICTIONARY
  5
1E0B
102
{ACAD_REACTORS
330
C
102
}
330
C
100
AcDbDictionary
281
     1
  0
DICTIONARY
  5
D
102
{ACAD_REACTORS
330
C
102
}
330
C
100
AcDbDictionary
281
     1
  0
DICTIONARY
  5
47B
102
{ACAD_REACTORS
330
C
102
}
330
C
100
AcDbDictionary
281
     1
  3
Layout1
350
47E
  3
Model
350
47D
  0
DICTIONARY
  5
1E0A
102
{ACAD_REACTORS
330
C
102
}
330
C
100
AcDbDictionary
281
     1
  0
DICTIONARY
  5
1A
102
{ACAD_REACTORS
330
C
102
}
330
C
100
AcDbDictionary
281
     1
  3
STANDARD
350
1B
  0
DICTIONARY
  5
47C
102
{ACAD_REACTORS
330
C
102
}
330
C
100
AcDbDictionary
281
     1
  0
ACDBDICTIONARYWDFLT
  5
479
102
{ACAD_REACTORS
330
C
102
}
330
C
100
AcDbDictionary
281
     1
  3
Normal
350
47A
100
AcDbDictionaryWithDefault
340
47A
  0
DICTIONARY
  5
1E0C
102
{ACAD_REACTORS
330
C
102
}
330
C
100
AcDbDictionary
281
     1
  3
Standard
350
1E0D
  0
DICTIONARY
  5
49
102
{ACAD_REACTORS
330
C
102
}
330
C
100
AcDbDictionary
281
     1
  3
CTABLESTYLE
350
1EBF
  3
DIMADEC
350
4A
  3
DIMASSOC
350
708
  0
DICTIONARY
  5
1DE8
102
{ACAD_REACTORS
330
C
102
}
330
C
100
AcDbDictionary
281
     1
  3
ASEBlockHierarchyIndexRecord
350
1DEA
1001
DCO15
1040
1567414029.888
  0
DICTIONARY
  5
1EBD
102
{ACAD_REACTORS
330
1E6A
102
}
330
1E6A
100
AcDbDictionary
281
     1
  0
DICTIONARY
  5
1EBC
102
{ACAD_REACTORS
330
1E6A
102
}
330
1E6A
100
AcDbDictionary
281
     1
1001
ACAD
1000
<All
  0
SORTENTSTABLE
  5
1E79
102
{ACAD_REACTORS
330
7D0
102
}
330
7D0
100
AcDbSortentsTable
330
17
331
0
  5
1E4F
331
1E63
  5
1EB5
331
1E44
  5
1E96
331
1E43
  5
1E95
331
1E4A
  5
1E9C
331
1E4B
  5
1E9D
331
1E54
  5
1EA6
331
1E57
  5
1EA9
331
1E53
  5
1EA5
331
1E49
  5
1E9B
331
1E65
  5
1EB7
331
1E66
  5
1EB8
331
1E5A
  5
1EAC
331
3A7
  5
3A7
331
1E42
  5
1E94
331
1E47
  5
1E99
331
1E48
  5
1E9A
331
1E51
  5
1EA3
331
1E5B
  5
1EAD
331
1E5C
  5
1EAE
331
1E5D
  5
1EAF
331
1E62
  5
1EB4
331
1E68
  5
1EBA
331
1E50
  5
1EA2
331
1E4F
  5
1EA1
331
1E5F
  5
1EB1
331
1E45
  5
1E97
331
1E69
  5
1EBB
331
1E67
  5
1EB9
331
1E55
  5
1EA7
331
1E5E
  5
1EB0
331
1E4C
  5
1E9E
331
1E60
  5
1EB2
331
400
  5
400
331
1E46
  5
1E98
331
1E56
  5
1EA8
331
1E59
  5
1EAB
331
1E4D
  5
1E9F
331
1E64
  5
1EB6
331
1E4E
  5
1EA0
331
1E61
  5
1EB3
331
1E52
  5
1EA4
331
1E58
  5
1EAA
  0
LAYOUT
  5
47E
102
{ACAD_REACTORS
330
47B
102
}
330
47B
100
AcDbPlotSettings
  1

  2
hp psc 2100 series
  4

  6

 40
0.0
 41
0.0
 42
0.0
 43
0.0
 44
0.0
 45
0.0
 46
0.0
 47
0.0
 48
0.0
 49
0.0
140
0.0
141
0.0
142
1.0
143
1.0
 70
   688
 72
     0
 73
     0
 74
     5
  7

 75
    16
 76
     0
 77
     2
 78
   300
147
1.0
148
0.0
149
0.0
100
AcDbLayout
  1
Layout1
 70
     0
 71
     1
 10
0.0
 20
0.0
 11
12.0
 21
9.0
 12
0.0
 22
0.0
 32
0.0
 14
1.000000000000000E+20
 24
1.000000000000000E+20
 34
1.000000000000000E+20
 15
-1.000000000000000E+20
 25
-1.000000000000000E+20
 35
-1.000000000000000E+20
146
0.0
 13
0.0
 23
0.0
 33
0.0
 16
1.0
 26
0.0
 36
0.0
 17
0.0
 27
1.0
 37
0.0
 76
     0
330
14
  0
LAYOUT
  5
47D
102
{ACAD_REACTORS
330
47B
102
}
330
47B
100
AcDbPlotSettings
  1

  2
HP LaserJet 2100 Series PS
  4
Letter
  6

 40
5.365749835968018
 41
5.408073902130127
 42
5.132904052734375
 43
5.090576171875
 44
215.8999938964844
 45
279.3999938964844
 46
0.0
 47
0.0
 48
0.0
 49
0.0
140
0.0
141
0.0
142
1.0
143
1.0
 70
 11952
 72
     0
 73
     1
 74
     0
  7

 75
     0
 76
     0
 77
     2
 78
   300
147
1.0
148
-235.8358304326739
149
124.3460344986174
100
AcDbLayout
  1
Model
 70
     1
 71
     0
 10
0.0
 20
0.0
 11
12.0
 21
9.0
 12
0.0
 22
0.0
 32
0.0
 14
0.0
 24
0.0
 34
0.0
 15
0.0
 25
0.0
 35
0.0
146
0.0
 13
0.0
 23
0.0
 33
0.0
 16
1.0
 26
0.0
 36
0.0
 17
0.0
 27
1.0
 37
0.0
 76
     0
330
17
  0
MLINESTYLE
  5
1B
102
{ACAD_REACTORS
330
1A
102
}
330
1A
100
AcDbMlineStyle
  2
STANDARD
 70
     0
  3

 62
   256
 51
90.0
 52
90.0
 71
     2
 49
0.5
 62
   256
  6
BYLAYER
 49
-0.5
 62
   256
  6
BYLAYER
  0
ACDBPLACEHOLDER
  5
47A
102
{ACAD_REACTORS
330
479
102
}
330
479
  0
ACAD_PROXY_OBJECT
  5
1E0D
102
{ACAD_REACTORS
330
1E0C
102
}
330
1E0C
100
AcDbProxyObject
 90
      499
 91
      517
 95
   983063
 70
     0
 93
     1841
310
4214DD185B99185C9928B81E85EB51B8AE3F2E07A17AD46E2B8FC02B5E8DC0F42B1CFD028000000C1008070000C3001FDFF8000000C1003FBFF000000182007F7FE00000030400FEFFC00000060801FDFF8000000C1003FBFF00000018200000000000000681FA0B0000001820100E000186003FBFF000000182007F7FE000
310
00030400FEFFC00000060801FDFF8000000C1003FBFF000000182007F7FE000000304000AD7A3703D0AC73F4160000003040201C00030C007F7FE00000030400FEFFC00000060801FDFF8000000C1003FBFF000000182007F7FE00000030400FEFFC000000608000
340
F
340
F
340
F
 94
        0
  0
DICTIONARYVAR
  5
1EBF
102
{ACAD_REACTORS
330
49
102
}
330
49
100
DictionaryVariables
280
     0
  1
STANDARD
  0
DICTIONARYVAR
  5
4A
102
{ACAD_REACTORS
330
49
102
}
330
49
100
DictionaryVariables
280
     0
  1
0
  0
DICTIONARYVAR
  5
708
102
{ACAD_REACTORS
330
49
102
}
330
49
100
DictionaryVariables
280
     0
  1
0
  0
XRECORD
  5
1DEA
102
{ACAD_REACTORS
330
1DE8
102
}
330
1DE8
100
AcDbXrecord
280
     1
330
0
330
0
330
0
330
0
330
0
330
0
  0
ENDSEC
  0
EOF
