  0
SECTION
  2
HEADER
  9
$ACADVER
  1
AC1018
  9
$ACADMAINTVER
 70
     6
  9
$DWGCODEPAGE
  3
ANSI_1252
  9
$INSBASE
 10
0.0
 20
0.0
 30
0.0
  9
$EXTMIN
 10
-12.50379377255133
 20
-0.0880203820042842
 30
0.0
  9
$EXTMAX
 10
12.50379377255137
 20
32.5813084406653
 30
0.0
  9
$LIMMIN
 10
0.0
 20
0.0
  9
$LIMMAX
 10
32.0
 20
42.0
  9
$ORTHOMODE
 70
     1
  9
$REGENMODE
 70
     1
  9
$FILLMODE
 70
     1
  9
$QTEXTMODE
 70
     0
  9
$MIRRTEXT
 70
     0
  9
$LTSCALE
 40
0.5
  9
$ATTMODE
 70
     1
  9
$TEXTSIZE
 40
0.36
  9
$TRACEWID
 40
0.05
  9
$TEXTSTYLE
  7
STANDARD
  9
$CLAYER
  8
0
  9
$CELTYPE
  6
BYLAYER
  9
$CECOLOR
 62
   256
  9
$CELTSCALE
 40
1.0
  9
$DISPSILH
 70
     0
  9
$DIMSCALE
 40
4.0
  9
$DIMASZ
 40
0.125
  9
$DIMEXO
 40
0.062
  9
$DIMDLI
 40
0.375
  9
$DIMRND
 40
0.0
  9
$DIMDLE
 40
0.0
  9
$DIMEXE
 40
0.08
  9
$DIMTP
 40
0.0
  9
$DIMTM
 40
0.0
  9
$DIMTXT
 40
0.09
  9
$DIMCEN
 40
-0.0078125
  9
$DIMTSZ
 40
0.0
  9
$DIMTOL
 70
     0
  9
$DIMLIM
 70
     0
  9
$DIMTIH
 70
     1
  9
$DIMTOH
 70
     1
  9
$DIMSE1
 70
     0
  9
$DIMSE2
 70
     0
  9
$DIMTAD
 70
     0
  9
$DIMZIN
 70
     0
  9
$DIMBLK
  1

  9
$DIMASO
 70
     0
  9
$DIMSHO
 70
     0
  9
$DIMPOST
  1

  9
$DIMAPOST
  1

  9
$DIMALT
 70
     0
  9
$DIMALTD
 70
     2
  9
$DIMALTF
 40
25.4
  9
$DIMLFAC
 40
1.0
  9
$DIMTOFL
 70
     0
  9
$DIMTVP
 40
0.0
  9
$DIMTIX
 70
     0
  9
$DIMSOXD
 70
     0
  9
$DIMSAH
 70
     0
  9
$DIMBLK1
  1

  9
$DIMBLK2
  1

  9
$DIMSTYLE
  2
STANDARD
  9
$DIMCLRD
 70
     0
  9
$DIMCLRE
 70
     0
  9
$DIMCLRT
 70
     0
  9
$DIMTFAC
 40
1.0
  9
$DIMGAP
 40
0.09
  9
$DIMJUST
 70
     0
  9
$DIMSD1
 70
     0
  9
$DIMSD2
 70
     0
  9
$DIMTOLJ
 70
     1
  9
$DIMTZIN
 70
     0
  9
$DIMALTZ
 70
     0
  9
$DIMALTTZ
 70
     0
  9
$DIMUPT
 70
     0
  9
$DIMDEC
 70
     5
  9
$DIMTDEC
 70
     5
  9
$DIMALTU
 70
     2
  9
$DIMALTTD
 70
     2
  9
$DIMTXSTY
  7
STANDARD
  9
$DIMAUNIT
 70
     0
  9
$DIMADEC
 70
     0
  9
$DIMALTRND
 40
0.0
  9
$DIMAZIN
 70
     0
  9
$DIMDSEP
 70
    46
  9
$DIMATFIT
 70
     3
  9
$DIMFRAC
 70
     2
  9
$DIMLDRBLK
  1

  9
$DIMLUNIT
 70
     5
  9
$DIMLWD
 70
    -2
  9
$DIMLWE
 70
    -2
  9
$DIMTMOVE
 70
     2
  9
$LUNITS
 70
     2
  9
$LUPREC
 70
     4
  9
$SKETCHINC
 40
0.1
  9
$FILLETRAD
 40
0.0
  9
$AUNITS
 70
     0
  9
$AUPREC
 70
     0
  9
$MENU
  1
qa
  9
$ELEVATION
 40
0.0
  9
$PELEVATION
 40
0.0
  9
$THICKNESS
 40
0.0
  9
$LIMCHECK
 70
     0
  9
$CHAMFERA
 40
0.4375
  9
$CHAMFERB
 40
0.4375
  9
$CHAMFERC
 40
0.0
  9
$CHAMFERD
 40
0.0
  9
$SKPOLY
 70
     0
  9
$TDCREATE
 40
2452872.693529282
  9
$TDUCREATE
 40
2452873.026862616
  9
$TDUPDATE
 40
2454417.826585775
  9
$TDUUPDATE
 40
2454418.159919109
  9
$TDINDWG
 40
0.5231296528
  9
$TDUSRTIMER
 40
0.5231296528
  9
$USRTIMER
 70
     1
  9
$ANGBASE
 50
0.0
  9
$ANGDIR
 70
     0
  9
$PDMODE
 70
     0
  9
$PDSIZE
 40
0.0
  9
$PLINEWID
 40
0.0
  9
$SPLFRAME
 70
     0
  9
$SPLINETYPE
 70
     6
  9
$SPLINESEGS
 70
     8
  9
$HANDSEED
  5
1ED6
  9
$SURFTAB1
 70
     6
  9
$SURFTAB2
 70
     6
  9
$SURFTYPE
 70
     6
  9
$SURFU
 70
     6
  9
$SURFV
 70
     6
  9
$UCSBASE
  2

  9
$UCSNAME
  2

  9
$UCSORG
 10
0.0
 20
0.0
 30
0.0
  9
$UCSXDIR
 10
1.0
 20
0.0
 30
0.0
  9
$UCSYDIR
 10
0.0
 20
1.0
 30
0.0
  9
$UCSORTHOREF
  2

  9
$UCSORTHOVIEW
 70
     0
  9
$UCSORGTOP
 10
0.0
 20
0.0
 30
0.0
  9
$UCSORGBOTTOM
 10
0.0
 20
0.0
 30
0.0
  9
$UCSORGLEFT
 10
0.0
 20
0.0
 30
0.0
  9
$UCSORGRIGHT
 10
0.0
 20
0.0
 30
0.0
  9
$UCSORGFRONT
 10
0.0
 20
0.0
 30
0.0
  9
$UCSORGBACK
 10
0.0
 20
0.0
 30
0.0
  9
$PUCSBASE
  2

  9
$PUCSNAME
  2

  9
$PUCSORG
 10
0.0
 20
0.0
 30
0.0
  9
$PUCSXDIR
 10
1.0
 20
0.0
 30
0.0
  9
$PUCSYDIR
 10
0.0
 20
1.0
 30
0.0
  9
$PUCSORTHOREF
  2

  9
$PUCSORTHOVIEW
 70
     0
  9
$PUCSORGTOP
 10
0.0
 20
0.0
 30
0.0
  9
$PUCSORGBOTTOM
 10
0.0
 20
0.0
 30
0.0
  9
$PUCSORGLEFT
 10
0.0
 20
0.0
 30
0.0
  9
$PUCSORGRIGHT
 10
0.0
 20
0.0
 30
0.0
  9
$PUCSORGFRONT
 10
0.0
 20
0.0
 30
0.0
  9
$PUCSORGBACK
 10
0.0
 20
0.0
 30
0.0
  9
$USERI1
 70
     0
  9
$USERI2
 70
     0
  9
$USERI3
 70
     0
  9
$USERI4
 70
     0
  9
$USERI5
 70
     0
  9
$USERR1
 40
0.0
  9
$USERR2
 40
0.0
  9
$USERR3
 40
0.0
  9
$USERR4
 40
0.0
  9
$USERR5
 40
0.0
  9
$WORLDVIEW
 70
     1
  9
$SHADEDGE
 70
     3
  9
$SHADEDIF
 70
    70
  9
$TILEMODE
 70
     1
  9
$MAXACTVP
 70
    16
  9
$PINSBASE
 10
0.0
 20
0.0
 30
0.0
  9
$PLIMCHECK
 70
     0
  9
$PEXTMIN
 10
1.000000000000000E+20
 20
1.000000000000000E+20
 30
1.000000000000000E+20
  9
$PEXTMAX
 10
-1.000000000000000E+20
 20
-1.000000000000000E+20
 30
-1.000000000000000E+20
  9
$PLIMMIN
 10
0.0
 20
0.0
  9
$PLIMMAX
 10
12.0
 20
9.0
  9
$UNITMODE
 70
     0
  9
$VISRETAIN
 70
     0
  9
$PLINEGEN
 70
     0
  9
$PSLTSCALE
 70
     0
  9
$TREEDEPTH
 70
  3020
  9
$CMLSTYLE
  2
STANDARD
  9
$CMLJUST
 70
     0
  9
$CMLSCALE
 40
1.0
  9
$PROXYGRAPHICS
 70
     1
  9
$MEASUREMENT
 70
     0
  9
$CELWEIGHT
370
    -1
  9
$ENDCAPS
280
     0
  9
$JOINSTYLE
280
     0
  9
$LWDISPLAY
290
     0
  9
$INSUNITS
 70
     0
  9
$HYPERLINKBASE
  1

  9
$STYLESHEET
  1

  9
$XEDIT
290
     1
  9
$CEPSNTYPE
380
     0
  9
$PSTYLEMODE
290
     1
  9
$FINGERPRINTGUID
  2
{3F8EE252-4A01-453C-A5F5-5678F9528411}
  9
$VERSIONGUID
  2
{97AED2B6-8810-417A-9CC0-DF28A5150F55}
  9
$EXTNAMES
290
     1
  9
$PSVPSCALE
 40
0.0
  9
$OLESTARTUP
290
     0
  9
$SORTENTS
280
   127
  9
$INDEXCTL
280
     0
  9
$HIDETEXT
280
     1
  9
$XCLIPFRAME
290
     0
  9
$HALOGAP
280
     0
  9
$OBSCOLOR
 70
   257
  9
$OBSLTYPE
280
     0
  9
$INTERSECTIONDISPLAY
280
     0
  9
$INTERSECTIONCOLOR
 70
   257
  9
$DIMASSOC
280
     0
  9
$PROJECTNAME
  1

  0
ENDSEC
  0
SECTION
  2
CLASSES
  0
CLASS
  1
DICTIONARYVAR
  2
AcDbDictionaryVar
  3
AutoCAD 2000
 90
        0
 91
        1
280
     0
281
     0
  0
CLASS
  1
LWPOLYLINE
  2
AcDbPolyline
  3
AutoCAD 2000
 90
        0
 91
        6
280
     0
281
     1
  0
CLASS
  1
ACDBDICTIONARYWDFLT
  2
AcDbDictionaryWithDefault
  3
AutoCAD 2000
 90
        0
 91
        1
280
     0
281
     0
  0
CLASS
  1
ACDBPLACEHOLDER
  2
AcDbPlaceHolder
  3
ObjectDBX Classes
 90
        0
 91
        3
280
     0
281
     0
  0
CLASS
  1
LAYOUT
  2
AcDbLayout
  3
ObjectDBX Classes
 90
        0
 91
        3
280
     0
281
     0
  0
CLASS
  1
LONG_TRANSACTION
  2
AcDbLongTransaction
  3
ObjectDBX Classes
 90
   -65536
 91
        3
280
     1
281
     0
  0
CLASS
  1
LWPOLYLINE
  2
AcDbPolyline
  3
AutoCAD 2000
 90
        0
 91
        6
280
     0
281
     1
  0
CLASS
  1
HATCH
  2
AcDbHatch
  3
AutoCAD 2000
 90
        0
 91
        5
280
     0
281
     1
  0
CLASS
  1
XRECORD
  2
AcDbXrecord
  3
AutoCAD 2000
 90
        0
 91
        5
280
     0
281
     0
  0
CLASS
  1
LONG_TRANSACTION
  2
AcDbLongTransaction
  3
ObjectDBX Classes
 90
   -65536
 91
        3
280
     1
281
     0
  0
CLASS
  1
LWPOLYLINE
  2
AcDbPolyline
  3
AutoCAD 2000
 90
        0
 91
        6
280
     0
281
     1
  0
CLASS
  1
HATCH
  2
AcDbHatch
  3
AutoCAD 2000
 90
        0
 91
        5
280
     0
281
     1
  0
CLASS
  1
XRECORD
  2
AcDbXrecord
  3
AutoCAD 2000
 90
        0
 91
        5
280
     0
281
     0
  0
CLASS
  1
LONG_TRANSACTION
  2
AcDbLongTransaction
  3
ObjectDBX Classes
 90
   -65536
 91
        3
280
     1
281
     0
  0
CLASS
  1
LWPOLYLINE
  2
AcDbPolyline
  3
AutoCAD 2000
 90
        0
 91
        6
280
     0
281
     1
  0
CLASS
  1
HATCH
  2
AcDbHatch
  3
AutoCAD 2000
 90
        0
 91
        5
280
     0
281
     1
  0
CLASS
  1
XRECORD
  2
AcDbXrecord
  3
AutoCAD 2000
 90
        0
 91
        5
280
     0
281
     0
  0
CLASS
  1
TABLESTYLE
  2
AcDbTableStyle
  3
ObjectDBX Classes
 90
     2047
 91
        2
280
     1
281
     0
  0
CLASS
  1
SORTENTSTABLE
  2
AcDbSortentsTable
  3
AutoCAD 2000
 90
        0
 91
        1
280
     0
281
     0
  0
ENDSEC
  0
SECTION
  2
TABLES
  0
TABLE
  2
VPORT
  5
8
330
0
100
AcDbSymbolTable
 70
     3
  0
VPORT
  5
1ED0
330
8
100
AcDbSymbolTableRecord
100
AcDbViewportTableRecord
  2
*Active
 70
     0
 10
0.0
 20
0.0
 11
1.0
 21
1.0
 12
12.93984986354478
 22
16.70760047596486
 13
0.0
 23
0.0
 14
0.063
 24
0.063
 15
0.25
 25
0.25
 16
0.0
 26
0.0
 36
1.0
 17
0.0
 27
0.0
 37
0.0
 40
47.80032952526692
 41
1.78118609406953
 42
50.0
 43
0.0
 44
0.0
 50
0.0
 51
0.0
 71
     0
 72
   100
 73
     1
 74
     0
 75
     0
 76
     0
 77
     0
 78
     0
281
     0
 65
     1
110
0.0
120
0.0
130
0.0
111
1.0
121
0.0
131
0.0
112
0.0
122
1.0
132
0.0
 79
     0
146
0.0
  0
ENDTAB
  0
TABLE
  2
LTYPE
  5
5
330
0
100
AcDbSymbolTable
 70
     3
  0
LTYPE
  5
11
330
5
100
AcDbSymbolTableRecord
100
AcDbLinetypeTableRecord
  2
BYBLOCK
 70
     0
  3

 72
    65
 73
     0
 40
0.0
  0
LTYPE
  5
12
330
5
100
AcDbSymbolTableRecord
100
AcDbLinetypeTableRecord
  2
BYLAYER
 70
     0
  3

 72
    65
 73
     0
 40
0.0
  0
LTYPE
  5
13
330
5
100
AcDbSymbolTableRecord
100
AcDbLinetypeTableRecord
  2
CONTINUOUS
 70
     0
  3
Solid line
 72
    65
 73
     0
 40
0.0
  0
LTYPE
  5
2B
330
5
100
AcDbSymbolTableRecord
100
AcDbLinetypeTableRecord
  2
HIDDEN
 70
     0
  3
_ _ _ _ _ _ _ _ _ _ _ _ _ _ _ _ _ _ _ _ _ _ _
 72
    65
 73
     2
 40
0.375
 49
0.25
 74
     0
 49
-0.125
 74
     0
  0
LTYPE
  5
49E
330
5
100
AcDbSymbolTableRecord
100
AcDbLinetypeTableRecord
  2
HIDDEN2
 70
     0
  3
Hidden (.5x) _ _ _ _ _ _ _ _ _ _ _ _ _ _ _ _ _
 72
    65
 73
     2
 40
0.1875
 49
0.125
 74
     0
 49
-0.0625
 74
     0
  0
ENDTAB
  0
TABLE
  2
LAYER
  5
2
102
{ACAD_XDICTIONARY
360
1E6A
102
}
330
0
100
AcDbSymbolTable
 70
     3
  0
LAYER
  5
E
330
2
100
AcDbSymbolTableRecord
100
AcDbLayerTableRecord
  2
0
 70
     0
 62
     7
  6
CONTINUOUS
370
    -3
390
47A
  0
LAYER
  5
37
330
2
100
AcDbSymbolTableRecord
100
AcDbLayerTableRecord
  2
DIM
 70
     0
 62
     5
  6
CONTINUOUS
370
    -3
390
47A
  0
LAYER
  5
43
330
2
100
AcDbSymbolTableRecord
100
AcDbLayerTableRecord
  2
DEFPOINTS
 70
     0
 62
     7
  6
CONTINUOUS
290
     0
370
    -3
390
47A
  0
ENDTAB
  0
TABLE
  2
STYLE
  5
3
330
0
100
AcDbSymbolTable
 70
     1
  0
STYLE
  5
F
330
3
100
AcDbSymbolTableRecord
100
AcDbTextStyleTableRecord
  2
STANDARD
 70
     0
 40
0.0
 41
1.0
 50
0.0
 71
     0
 42
0.36
  3
TXT
  4

  0
ENDTAB
  0
TABLE
  2
VIEW
  5
6
330
0
100
AcDbSymbolTable
 70
     0
  0
ENDTAB
  0
TABLE
  2
UCS
  5
7
330
0
100
AcDbSymbolTable
 70
     0
  0
ENDTAB
  0
TABLE
  2
APPID
  5
9
330
0
100
AcDbSymbolTable
 70
     4
  0
APPID
  5
10
330
9
100
AcDbSymbolTableRecord
100
AcDbRegAppTableRecord
  2
ACAD
 70
     0
  0
APPID
  5
DA7
330
9
100
AcDbSymbolTableRecord
100
AcDbRegAppTableRecord
  2
RAK
 70
     0
  0
APPID
  5
19D8
330
9
100
AcDbSymbolTableRecord
100
AcDbRegAppTableRecord
  2
ACAD_PSEXT
 70
     0
  0
APPID
  5
1DE9
330
9
100
AcDbSymbolTableRecord
100
AcDbRegAppTableRecord
  2
DCO15
 70
     0
  0
ENDTAB
  0
TABLE
  2
DIMSTYLE
  5
A
330
0
100
AcDbSymbolTable
 70
     1
100
AcDbDimStyleTable
  0
DIMSTYLE
105
465
330
A
100
AcDbSymbolTableRecord
100
AcDbDimStyleTableRecord
  2
STANDARD
 70
     0
  3

  4

340
F
  0
ENDTAB
  0
TABLE
  2
BLOCK_RECORD
  5
1
330
0
100
AcDbSymbolTable
 70
     0
  0
BLOCK_RECORD
  5
17
102
{ACAD_XDICTIONARY
360
7D0
102
}
330
1
100
AcDbSymbolTableRecord
100
AcDbBlockTableRecord
  2
*MODEL_SPACE
340
47D
  0
BLOCK_RECORD
  5
14
330
1
100
AcDbSymbolTableRecord
100
AcDbBlockTableRecord
  2
*PAPER_SPACE
340
47E
  0
ENDTAB
  0
ENDSEC
  0
SECTION
  2
BLOCKS
  0
BLOCK
  5
47
330
17
100
AcDbEntity
  8
0
100
AcDbBlockBegin
  2
*MODEL_SPACE
 70
     0
 10
0.0
 20
0.0
 30
0.0
  3
*MODEL_SPACE
  1

  4

  0
ENDBLK
  5
48
330
17
100
AcDbEntity
  8
0
100
AcDbBlockEnd
  0
BLOCK
  5
45
330
14
100
AcDbEntity
 67
     1
  8
0
100
AcDbBlockBegin
  2
*PAPER_SPACE
 70
     0
 10
0.0
 20
0.0
 30
0.0
  3
*PAPER_SPACE
  1

  4

  0
ENDBLK
  5
46
330
14
100
AcDbEntity
 67
     1
  8
0
100
AcDbBlockEnd
  0
ENDSEC
  0
SECTION
  2
ENTITIES
  0
TEXT
  5
3A7
330
17
100
AcDbEntity
  8
DIM
100
AcDbText
 10
14.93846334400804
 20
21.0944638759405
 30
0.0
 40
0.36
  1
   
 50
359.9999999999988
 11
14.93846334400805
 21
21.2744638759405
 31
0.0
100
AcDbText
 73
     2
  0
TEXT
  5
400
330
17
100
AcDbEntity
  8
DIM
100
AcDbText
 10
13.55232669162669
 20
10.34149078419337
 30
0.0
 40
0.36
  1
   
 72
     1
 11
14.09232669162669
 21
10.52149078419336
 31
0.0
100
AcDbText
 73
     2
  0
CIRCLE
  5
18BB
330
17
100
AcDbEntity
  8
0
100
AcDbCircle
 10
2.34516002078518
 20
1.778754611484605
 30
0.0
 40
0.1489496572372531
  0
CIRCLE
  5
18BC
330
17
100
AcDbEntity
  8
0
100
AcDbCircle
 10
2.34516002078518
 20
1.778754611484605
 30
0.0
 40
0.1992945539851405
  0
LINE
  5
1B2B
330
17
100
AcDbEntity
  8
0
  6
HIDDEN
100
AcDbLine
 10
3.487299999999948
 20
25.66500000000001
 30
0.0
 11
3.487299999999834
 21
0.4249999999999297
 31
0.0
  0
LINE
  5
1B2C
330
17
100
AcDbEntity
  8
0
100
AcDbLine
 10
3.662299999999945
 20
25.66500000000001
 30
0.0
 11
3.662299999999831
 21
0.4249999999999261
 31
0.0
  0
ARC
  5
1B2D
330
17
100
AcDbEntity
  8
0
  6
HIDDEN
100
AcDbCircle
 10
3.237299999999834
 20
0.4249999999999297
 30
0.0
 40
0.25
100
AcDbArc
 50
269.9999999999988
 51
359.9999999999998
  0
ARC
  5
1B2E
330
17
100
AcDbEntity
  8
0
100
AcDbCircle
 10
3.237299999999834
 20
0.4249999999999297
 30
0.0
 40
0.425
100
AcDbArc
 50
269.999999999999
 51
359.9999999999996
  0
LINE
  5
1B35
330
17
100
AcDbEntity
  8
0
  6
HIDDEN
100
AcDbLine
 10
3.237299999999827
 20
0.1749999999999297
 30
0.0
 11
0.0000000000000071
 21
0.1750000000000007
 31
0.0
  0
LINE
  5
1B36
330
17
100
AcDbEntity
  8
0
100
AcDbLine
 10
3.237299999999827
 20
-0.0000000000000711
 30
0.0
 11
0.0
 21
0.0
 31
0.0
  0
LINE
  5
1B3D
330
17
100
AcDbEntity
  8
0
  6
HIDDEN
100
AcDbLine
 10
2.612299999999841
 20
1.549999999999944
 30
0.0
 11
1.612299999999841
 21
1.549999999999944
 31
0.0
  0
LINE
  5
1B3E
330
17
100
AcDbEntity
  8
0
  6
HIDDEN
100
AcDbLine
 10
1.487300000000026
 20
-0.0000000000000391
 30
0.0
 11
1.487299999999927
 21
0.1749999999999723
 31
0.0
  0
ARC
  5
1B3F
330
17
100
AcDbEntity
  8
0
100
AcDbCircle
 10
0.6847999999998322
 20
0.3834997099511135
 30
0.0
 40
0.2875
100
AcDbArc
 50
184.3718307981646
 51
355.6281692018353
  0
ARC
  5
1B41
330
17
100
AcDbEntity
  8
0
100
AcDbCircle
 10
0.6847999999998322
 20
0.3396681369817607
 30
0.0
 40
0.1875
100
AcDbArc
 50
6.7123144673341
 51
173.2876855326667
  0
ARC
  5
1B42
330
17
100
AcDbEntity
  8
0
100
AcDbCircle
 10
0.6847999999998322
 20
0.3834997099511135
 30
0.0
 40
0.1875
100
AcDbArc
 50
186.7123144673349
 51
353.2876855326651
  0
ARC
  5
1B43
330
17
100
AcDbEntity
  8
0
  6
HIDDEN2
100
AcDbCircle
 10
0.6847999999998322
 20
0.3396681369817607
 30
0.0
 40
0.2875
100
AcDbArc
 50
4.371830798164571
 51
175.6281692018354
  0
LINE
  5
1B44
330
17
100
AcDbEntity
  8
0
  6
HIDDEN
100
AcDbLine
 10
2.73729999999992
 20
-0.0000000000000639
 30
0.0
 11
2.737299999999927
 21
0.1749999999999723
 31
0.0
  0
ARC
  5
1B45
330
17
100
AcDbEntity
  8
0
  6
HIDDEN
100
AcDbCircle
 10
1.612299999999841
 20
1.064999999999959
 30
0.0
 40
0.25
100
AcDbArc
 50
90.0
 51
180.0
  0
ARC
  5
1B46
330
17
100
AcDbEntity
  8
0
  6
HIDDEN
100
AcDbCircle
 10
2.612299999999841
 20
1.064999999999959
 30
0.0
 40
0.25
100
AcDbArc
 50
0.0
 51
90.0
  0
LINE
  5
1B47
330
17
100
AcDbEntity
  8
0
  6
HIDDEN
100
AcDbLine
 10
2.612299999999841
 20
1.314999999999959
 30
0.0
 11
1.612299999999841
 21
1.314999999999959
 31
0.0
  0
LINE
  5
1B49
330
17
100
AcDbEntity
  8
0
  6
HIDDEN
100
AcDbLine
 10
1.127299999999828
 20
1.064999999299932
 30
0.0
 11
1.362299999999841
 21
1.064999999299932
 31
0.0
  0
LINE
  5
1B4A
330
17
100
AcDbEntity
  8
0
  6
HIDDEN
100
AcDbLine
 10
1.362299999999841
 20
1.064999999999959
 30
0.0
 11
1.362299999999841
 21
0.1750085588999362
 31
0.0
  0
LINE
  5
1B4B
330
17
100
AcDbEntity
  8
0
  6
HIDDEN
100
AcDbLine
 10
1.127299999999828
 20
1.064999999999959
 30
0.0
 11
1.127299999999828
 21
0.1750085588999362
 31
0.0
  0
LINE
  5
1B4C
330
17
100
AcDbEntity
  8
0
  6
HIDDEN
100
AcDbLine
 10
3.097299999999827
 20
1.064999999999959
 30
0.0
 11
3.097299999999827
 21
0.1750085588999362
 31
0.0
  0
LINE
  5
1B4D
330
17
100
AcDbEntity
  8
0
  6
HIDDEN
100
AcDbLine
 10
2.862299999999841
 20
1.064999999999959
 30
0.0
 11
2.862299999999841
 21
0.1750085588999362
 31
0.0
  0
LINE
  5
1B4F
330
17
100
AcDbEntity
  8
0
  6
HIDDEN
100
AcDbLine
 10
3.097299999999827
 20
1.064999999299932
 30
0.0
 11
2.862299999999841
 21
1.064999999299932
 31
0.0
  0
ARC
  5
1B50
330
17
100
AcDbEntity
  8
0
  6
HIDDEN
100
AcDbCircle
 10
1.612299999999841
 20
1.064999999999959
 30
0.0
 40
0.485
100
AcDbArc
 50
90.0
 51
180.0
  0
ARC
  5
1B51
330
17
100
AcDbEntity
  8
0
  6
HIDDEN
100
AcDbCircle
 10
2.612299999999841
 20
1.064999999999959
 30
0.0
 40
0.485
100
AcDbArc
 50
0.0
 51
90.0
  0
LINE
  5
1B52
330
17
100
AcDbEntity
  8
0
  6
HIDDEN
100
AcDbLine
 10
2.581049999999841
 20
1.314999999999959
 30
0.0
 11
2.581049999999841
 21
1.549999999999944
 31
0.0
  0
LINE
  5
1B53
330
17
100
AcDbEntity
  8
0
  6
HIDDEN
100
AcDbLine
 10
1.643549999999841
 20
1.314999999999959
 30
0.0
 11
1.643549999999841
 21
1.549999999999944
 31
0.0
  0
LINE
  5
1C68
330
17
100
AcDbEntity
  8
0
100
AcDbLine
 10
1.119831057295592
 20
4.702350045601152
 30
0.0
 11
0.0254811798427923
 21
1.406975721155984
 31
0.0
  0
ARC
  5
1C69
330
17
100
AcDbEntity
  8
0
100
AcDbCircle
 10
0.6453122371384978
 20
4.859931419236256
 30
0.0
 40
0.5
100
AcDbArc
 50
341.6293610254267
 51
356.5000000000003
  0
ARC
  5
1C6A
330
17
100
AcDbEntity
  8
0
100
AcDbCircle
 10
0.4999999999998721
 20
1.249394347520873
 30
0.0
 40
0.5
100
AcDbArc
 50
161.6293610254266
 51
180.0
  0
LINE
  5
1C6B
330
17
100
AcDbEntity
  8
0
100
AcDbLine
 10
-0.0000000000001066
 20
1.249394347520887
 30
0.0
 11
-0.0000000000001066
 21
0.0040000000000049
 31
0.0
  0
LINE
  5
1C6C
330
17
100
AcDbEntity
  8
0
100
AcDbLine
 10
1.870053516923356
 20
25.66500000000002
 30
0.0
 11
3.658299999999947
 21
25.66500000000001
 31
0.0
  0
CIRCLE
  5
1C6D
330
17
100
AcDbEntity
  8
0
100
AcDbCircle
 10
2.487299999999898
 20
22.28999999999937
 30
0.0
 40
0.3435
  0
LINE
  5
1C73
330
17
100
AcDbEntity
  8
0
100
AcDbLine
 10
1.144379636349449
 20
4.829407149468446
 30
0.0
 11
1.686567399210894
 21
13.69409871316319
 31
0.0
  0
LINE
  5
1C74
330
17
100
AcDbEntity
  8
0
100
AcDbLine
 10
1.687499999999965
 20
13.72462298293061
 30
0.0
 11
1.687499999999965
 21
22.66499999999958
 31
0.0
  0
ARC
  5
1C75
330
17
100
AcDbEntity
  8
0
100
AcDbCircle
 10
1.187499999999965
 20
13.72462298293061
 30
0.0
 40
0.5
100
AcDbArc
 50
356.5000000000001
 51
0.0
  0
ARC
  5
1C76
330
17
100
AcDbEntity
  8
0
100
AcDbCircle
 10
2.187499999999965
 20
22.66499999999958
 30
0.0
 40
0.5
100
AcDbArc
 50
176.5000000000003
 51
180.0
  0
LINE
  5
1C77
330
17
100
AcDbEntity
  8
0
100
AcDbLine
 10
1.688432600789028
 20
22.69552426976701
 30
0.0
 11
1.870053516923356
 21
25.66500000000002
 31
0.0
  0
CIRCLE
  5
1C78
330
17
100
AcDbEntity
  8
0
100
AcDbCircle
 10
2.487299999999898
 20
13.28999999999938
 30
0.0
 40
0.3435
  0
ENDSEC
  0
SECTION
  2
OBJECTS
  0
DICTIONARY
  5
C
330
0
100
AcDbDictionary
281
     1
  3
ACAD_COLOR
350
1E0B
  3
ACAD_GROUP
350
D
  3
ACAD_LAYOUT
350
47B
  3
ACAD_MATERIAL
350
1E0A
  3
ACAD_MLINESTYLE
350
1A
  3
ACAD_PLOTSETTINGS
350
47C
  3
ACAD_PLOTSTYLENAME
350
479
  3
ACAD_TABLESTYLE
350
1E0C
  3
ACDBVARIABLEDICTIONARY
350
49
  3
ASE_INDEX_DICTIONARY
350
1DE8
  0
DICTIONARY
  5
1E6A
330
2
100
AcDbDictionary
280
     1
281
     1
  3
ACAD_LAYERFILTERS
360
1EBD
  3
ACLYDICTIONARY
360
1EBC
  0
DICTIONARY
  5
7D0
330
17
100
AcDbDictionary
280
     1
281
     1
  3
ACAD_SORTENTS
360
1E79
  0
DICTIONARY
  5
1E0B
102
{ACAD_REACTORS
330
C
102
}
330
C
100
AcDbDictionary
281
     1
  0
DICTIONARY
  5
D
102
{ACAD_REACTORS
330
C
102
}
330
C
100
AcDbDictionary
281
     1
  0
DICTIONARY
  5
47B
102
{ACAD_REACTORS
330
C
102
}
330
C
100
AcDbDictionary
281
     1
  3
Layout1
350
47E
  3
Model
350
47D
  0
DICTIONARY
  5
1E0A
102
{ACAD_REACTORS
330
C
102
}
330
C
100
AcDbDictionary
281
     1
  0
DICTIONARY
  5
1A
102
{ACAD_REACTORS
330
C
102
}
330
C
100
AcDbDictionary
281
     1
  3
STANDARD
350
1B
  0
DICTIONARY
  5
47C
102
{ACAD_REACTORS
330
C
102
}
330
C
100
AcDbDictionary
281
     1
  0
ACDBDICTIONARYWDFLT
  5
479
102
{ACAD_REACTORS
330
C
102
}
330
C
100
AcDbDictionary
281
     1
  3
Normal
350
47A
100
AcDbDictionaryWithDefault
340
47A
  0
DICTIONARY
  5
1E0C
102
{ACAD_REACTORS
330
C
102
}
330
C
100
AcDbDictionary
281
     1
  3
Standard
350
1E0D
  0
DICTIONARY
  5
49
102
{ACAD_REACTORS
330
C
102
}
330
C
100
AcDbDictionary
281
     1
  3
CTABLESTYLE
350
1EBF
  3
DIMADEC
350
4A
  3
DIMASSOC
350
708
  0
DICTIONARY
  5
1DE8
102
{ACAD_REACTORS
330
C
102
}
330
C
100
AcDbDictionary
281
     1
  3
ASEBlockHierarchyIndexRecord
350
1DEA
1001
DCO15
1040
1567414029.888
  0
DICTIONARY
  5
1EBD
102
{ACAD_REACTORS
330
1E6A
102
}
330
1E6A
100
AcDbDictionary
281
     1
  0
DICTIONARY
  5
1EBC
102
{ACAD_REACTORS
330
1E6A
102
}
330
1E6A
100
AcDbDictionary
281
     1
1001
ACAD
1000
<All
  0
SORTENTSTABLE
  5
1E79
102
{ACAD_REACTORS
330
7D0
102
}
330
7D0
100
AcDbSortentsTable
330
17
331
0
  5
153B
331
1B3E
  5
1B3E
331
1B3F
  5
1B3F
331
1B2C
  5
1B2C
331
1B2B
  5
1B2B
331
1B4F
  5
1B4F
331
1B2D
  5
1B2D
331
1B46
  5
1B46
331
1B4B
  5
1B4B
331
1B4D
  5
1B4D
331
1C74
  5
1C74
331
1B44
  5
1B44
331
1B41
  5
1B41
331
1C6A
  5
1C6A
331
1B50
  5
1B50
331
1B35
  5
1B35
331
1B2E
  5
1B2E
331
1B47
  5
1B47
331
400
  5
400
331
1C75
  5
1C75
331
1C77
  5
1C77
331
1C69
  5
1C69
331
1B3D
  5
1B3D
331
1C76
  5
1C76
331
1B4C
  5
1B4C
331
3A7
  5
3A7
331
1C6D
  5
1C6D
331
1B45
  5
1B45
331
1B42
  5
1B42
331
1C6B
  5
1C6B
331
1C73
  5
1C73
331
1B49
  5
1B49
331
1C6C
  5
1C6C
331
1B36
  5
1B36
331
1C78
  5
1C78
331
1B43
  5
1B43
331
18BC
  5
18BC
331
18BB
  5
18BB
331
1B4A
  5
1B4A
331
1C68
  5
1C68
331
1B52
  5
1B52
331
1B53
  5
1B53
331
1B51
  5
1B51
  0
LAYOUT
  5
47E
102
{ACAD_REACTORS
330
47B
102
}
330
47B
100
AcDbPlotSettings
  1

  2
hp psc 2100 series
  4

  6

 40
0.0
 41
0.0
 42
0.0
 43
0.0
 44
0.0
 45
0.0
 46
0.0
 47
0.0
 48
0.0
 49
0.0
140
0.0
141
0.0
142
1.0
143
1.0
 70
   688
 72
     0
 73
     0
 74
     5
  7

 75
    16
 76
     0
 77
     2
 78
   300
147
1.0
148
0.0
149
0.0
100
AcDbLayout
  1
Layout1
 70
     0
 71
     1
 10
0.0
 20
0.0
 11
12.0
 21
9.0
 12
0.0
 22
0.0
 32
0.0
 14
1.000000000000000E+20
 24
1.000000000000000E+20
 34
1.000000000000000E+20
 15
-1.000000000000000E+20
 25
-1.000000000000000E+20
 35
-1.000000000000000E+20
146
0.0
 13
0.0
 23
0.0
 33
0.0
 16
1.0
 26
0.0
 36
0.0
 17
0.0
 27
1.0
 37
0.0
 76
     0
330
14
  0
LAYOUT
  5
47D
102
{ACAD_REACTORS
330
47B
102
}
330
47B
100
AcDbPlotSettings
  1

  2
HP LaserJet 2100 Series PS
  4
Letter
  6

 40
5.365749835968018
 41
5.408073902130127
 42
5.132904052734375
 43
5.090576171875
 44
215.8999938964844
 45
279.3999938964844
 46
0.0
 47
0.0
 48
0.0
 49
0.0
140
0.0
141
0.0
142
1.0
143
1.0
 70
 11952
 72
     0
 73
     1
 74
     0
  7

 75
     0
 76
     0
 77
     2
 78
   300
147
1.0
148
-235.8358304326739
149
124.3460344986174
100
AcDbLayout
  1
Model
 70
     1
 71
     0
 10
0.0
 20
0.0
 11
12.0
 21
9.0
 12
0.0
 22
0.0
 32
0.0
 14
0.0
 24
0.0
 34
0.0
 15
0.0
 25
0.0
 35
0.0
146
0.0
 13
0.0
 23
0.0
 33
0.0
 16
1.0
 26
0.0
 36
0.0
 17
0.0
 27
1.0
 37
0.0
 76
     0
330
17
  0
MLINESTYLE
  5
1B
102
{ACAD_REACTORS
330
1A
102
}
330
1A
100
AcDbMlineStyle
  2
STANDARD
 70
     0
  3

 62
   256
 51
90.0
 52
90.0
 71
     2
 49
0.5
 62
   256
  6
BYLAYER
 49
-0.5
 62
   256
  6
BYLAYER
  0
ACDBPLACEHOLDER
  5
47A
102
{ACAD_REACTORS
330
479
102
}
330
479
  0
ACAD_PROXY_OBJECT
  5
1E0D
102
{ACAD_REACTORS
330
1E0C
102
}
330
1E0C
100
AcDbProxyObject
 90
      499
 91
      517
 95
   983063
 70
     0
 93
     1841
310
4214DD185B99185C9928B81E85EB51B8AE3F2E07A17AD46E2B8FC02B5E8DC0F42B1CFD028000000C1008070000C3001FDFF8000000C1003FBFF000000182007F7FE00000030400FEFFC00000060801FDFF8000000C1003FBFF00000018200000000000000681FA0B0000001820100E000186003FBFF000000182007F7FE000
310
00030400FEFFC00000060801FDFF8000000C1003FBFF000000182007F7FE000000304000AD7A3703D0AC73F4160000003040201C00030C007F7FE00000030400FEFFC00000060801FDFF8000000C1003FBFF000000182007F7FE00000030400FEFFC000000608000
340
F
340
F
340
F
 94
        0
  0
DICTIONARYVAR
  5
1EBF
102
{ACAD_REACTORS
330
49
102
}
330
49
100
DictionaryVariables
280
     0
  1
STANDARD
  0
DICTIONARYVAR
  5
4A
102
{ACAD_REACTORS
330
49
102
}
330
49
100
DictionaryVariables
280
     0
  1
0
  0
DICTIONARYVAR
  5
708
102
{ACAD_REACTORS
330
49
102
}
330
49
100
DictionaryVariables
280
     0
  1
0
  0
XRECORD
  5
1DEA
102
{ACAD_REACTORS
330
1DE8
102
}
330
1DE8
100
AcDbXrecord
280
     1
330
0
330
0
330
0
330
0
330
0
330
0
  0
ENDSEC
  0
EOF
