  0
SECTION
  2
HEADER
  9
$ACADVER
  1
AC1015
  9
$ACADMAINTVER
 70
     6
  9
$DWGCODEPAGE
  3
ANSI_1252
  9
$INSBASE
 10
0.0
 20
0.0
 30
0.0
  9
$EXTMIN
 10
-8.655444182927756
 20
13.9119349720439
 30
0.0
  9
$EXTMAX
 10
-5.569048079859868
 20
17.31763302357784
 30
0.0
  9
$LIMMIN
 10
0.0
 20
0.0
  9
$LIMMAX
 10
24.0
 20
31.5
  9
$ORTHOMODE
 70
     0
  9
$REGENMODE
 70
     1
  9
$FILLMODE
 70
     1
  9
$QTEXTMODE
 70
     0
  9
$MIRRTEXT
 70
     0
  9
$LTSCALE
 40
1.0
  9
$ATTMODE
 70
     1
  9
$TEXTSIZE
 40
0.27
  9
$TRACEWID
 40
0.05
  9
$TEXTSTYLE
  7
STANDARD
  9
$CLAYER
  8
0
  9
$CELTYPE
  6
ByLayer
  9
$CECOLOR
 62
   256
  9
$CELTSCALE
 40
1.0
  9
$DISPSILH
 70
     0
  9
$DIMSCALE
 40
3.0
  9
$DIMASZ
 40
0.125
  9
$DIMEXO
 40
0.062
  9
$DIMDLI
 40
0.375
  9
$DIMRND
 40
0.0
  9
$DIMDLE
 40
0.0
  9
$DIMEXE
 40
0.08
  9
$DIMTP
 40
0.0
  9
$DIMTM
 40
0.0
  9
$DIMTXT
 40
0.09
  9
$DIMCEN
 40
-0.03125
  9
$DIMTSZ
 40
0.0
  9
$DIMTOL
 70
     0
  9
$DIMLIM
 70
     0
  9
$DIMTIH
 70
     1
  9
$DIMTOH
 70
     1
  9
$DIMSE1
 70
     0
  9
$DIMSE2
 70
     0
  9
$DIMTAD
 70
     0
  9
$DIMZIN
 70
     0
  9
$DIMBLK
  1

  9
$DIMASO
 70
     0
  9
$DIMSHO
 70
     0
  9
$DIMPOST
  1

  9
$DIMAPOST
  1

  9
$DIMALT
 70
     0
  9
$DIMALTD
 70
     2
  9
$DIMALTF
 40
25.4
  9
$DIMLFAC
 40
1.0
  9
$DIMTOFL
 70
     0
  9
$DIMTVP
 40
0.0
  9
$DIMTIX
 70
     0
  9
$DIMSOXD
 70
     0
  9
$DIMSAH
 70
     0
  9
$DIMBLK1
  1

  9
$DIMBLK2
  1

  9
$DIMSTYLE
  2
Standard
  9
$DIMCLRD
 70
     0
  9
$DIMCLRE
 70
     0
  9
$DIMCLRT
 70
     0
  9
$DIMTFAC
 40
1.0
  9
$DIMGAP
 40
0.09
  9
$DIMJUST
 70
     0
  9
$DIMSD1
 70
     0
  9
$DIMSD2
 70
     0
  9
$DIMTOLJ
 70
     1
  9
$DIMTZIN
 70
     0
  9
$DIMALTZ
 70
     0
  9
$DIMALTTZ
 70
     0
  9
$DIMUPT
 70
     0
  9
$DIMDEC
 70
     5
  9
$DIMTDEC
 70
     5
  9
$DIMALTU
 70
     2
  9
$DIMALTTD
 70
     2
  9
$DIMTXSTY
  7
STANDARD
  9
$DIMAUNIT
 70
     0
  9
$DIMADEC
 70
     0
  9
$DIMALTRND
 40
0.0
  9
$DIMAZIN
 70
     0
  9
$DIMDSEP
 70
    46
  9
$DIMATFIT
 70
     3
  9
$DIMFRAC
 70
     2
  9
$DIMLDRBLK
  1

  9
$DIMLUNIT
 70
     5
  9
$DIMLWD
 70
    -2
  9
$DIMLWE
 70
    -2
  9
$DIMTMOVE
 70
     2
  9
$LUNITS
 70
     2
  9
$LUPREC
 70
     4
  9
$SKETCHINC
 40
0.1
  9
$FILLETRAD
 40
0.45
  9
$AUNITS
 70
     0
  9
$AUPREC
 70
     0
  9
$MENU
  1
qa
  9
$ELEVATION
 40
0.0
  9
$PELEVATION
 40
0.0
  9
$THICKNESS
 40
0.0
  9
$LIMCHECK
 70
     0
  9
$CHAMFERA
 40
0.0
  9
$CHAMFERB
 40
0.0
  9
$CHAMFERC
 40
0.0
  9
$CHAMFERD
 40
0.0
  9
$SKPOLY
 70
     0
  9
$TDCREATE
 40
2450470.769032292
  9
$TDUCREATE
 40
2450471.102365625
  9
$TDUPDATE
 40
2454159.822879583
  9
$TDUUPDATE
 40
2454160.156212917
  9
$TDINDWG
 40
0.3334795023
  9
$TDUSRTIMER
 40
0.3334795023
  9
$USRTIMER
 70
     1
  9
$ANGBASE
 50
0.0
  9
$ANGDIR
 70
     0
  9
$PDMODE
 70
     0
  9
$PDSIZE
 40
0.0
  9
$PLINEWID
 40
0.0
  9
$SPLFRAME
 70
     0
  9
$SPLINETYPE
 70
     6
  9
$SPLINESEGS
 70
     8
  9
$HANDSEED
  5
1C3F
  9
$SURFTAB1
 70
     6
  9
$SURFTAB2
 70
     6
  9
$SURFTYPE
 70
     6
  9
$SURFU
 70
     6
  9
$SURFV
 70
     6
  9
$UCSBASE
  2

  9
$UCSNAME
  2

  9
$UCSORG
 10
0.0
 20
0.0
 30
0.0
  9
$UCSXDIR
 10
1.0
 20
0.0
 30
0.0
  9
$UCSYDIR
 10
0.0
 20
1.0
 30
0.0
  9
$UCSORTHOREF
  2

  9
$UCSORTHOVIEW
 70
     0
  9
$UCSORGTOP
 10
0.0
 20
0.0
 30
0.0
  9
$UCSORGBOTTOM
 10
0.0
 20
0.0
 30
0.0
  9
$UCSORGLEFT
 10
0.0
 20
0.0
 30
0.0
  9
$UCSORGRIGHT
 10
0.0
 20
0.0
 30
0.0
  9
$UCSORGFRONT
 10
0.0
 20
0.0
 30
0.0
  9
$UCSORGBACK
 10
0.0
 20
0.0
 30
0.0
  9
$PUCSBASE
  2

  9
$PUCSNAME
  2

  9
$PUCSORG
 10
0.0
 20
0.0
 30
0.0
  9
$PUCSXDIR
 10
1.0
 20
0.0
 30
0.0
  9
$PUCSYDIR
 10
0.0
 20
1.0
 30
0.0
  9
$PUCSORTHOREF
  2

  9
$PUCSORTHOVIEW
 70
     0
  9
$PUCSORGTOP
 10
0.0
 20
0.0
 30
0.0
  9
$PUCSORGBOTTOM
 10
0.0
 20
0.0
 30
0.0
  9
$PUCSORGLEFT
 10
0.0
 20
0.0
 30
0.0
  9
$PUCSORGRIGHT
 10
0.0
 20
0.0
 30
0.0
  9
$PUCSORGFRONT
 10
0.0
 20
0.0
 30
0.0
  9
$PUCSORGBACK
 10
0.0
 20
0.0
 30
0.0
  9
$USERI1
 70
     0
  9
$USERI2
 70
     0
  9
$USERI3
 70
     0
  9
$USERI4
 70
     0
  9
$USERI5
 70
     0
  9
$USERR1
 40
0.0
  9
$USERR2
 40
0.0
  9
$USERR3
 40
0.0
  9
$USERR4
 40
0.0
  9
$USERR5
 40
0.0
  9
$WORLDVIEW
 70
     1
  9
$SHADEDGE
 70
     3
  9
$SHADEDIF
 70
    70
  9
$TILEMODE
 70
     1
  9
$MAXACTVP
 70
    16
  9
$PINSBASE
 10
0.0
 20
0.0
 30
0.0
  9
$PLIMCHECK
 70
     0
  9
$PEXTMIN
 10
1.000000000000000E+20
 20
1.000000000000000E+20
 30
1.000000000000000E+20
  9
$PEXTMAX
 10
-1.000000000000000E+20
 20
-1.000000000000000E+20
 30
-1.000000000000000E+20
  9
$PLIMMIN
 10
0.0
 20
0.0
  9
$PLIMMAX
 10
12.0
 20
9.0
  9
$UNITMODE
 70
     0
  9
$VISRETAIN
 70
     0
  9
$PLINEGEN
 70
     0
  9
$PSLTSCALE
 70
     0
  9
$TREEDEPTH
 70
  3020
  9
$CMLSTYLE
  2
Standard
  9
$CMLJUST
 70
     0
  9
$CMLSCALE
 40
1.0
  9
$PROXYGRAPHICS
 70
     1
  9
$MEASUREMENT
 70
     0
  9
$CELWEIGHT
370
    -1
  9
$ENDCAPS
280
     0
  9
$JOINSTYLE
280
     0
  9
$LWDISPLAY
290
     0
  9
$INSUNITS
 70
     0
  9
$HYPERLINKBASE
  1

  9
$STYLESHEET
  1

  9
$XEDIT
290
     1
  9
$CEPSNTYPE
380
     0
  9
$PSTYLEMODE
290
     1
  9
$FINGERPRINTGUID
  2
{AA237CAB-720A-11D6-BE3F-00508B5FCD51}
  9
$VERSIONGUID
  2
{8F0D125C-F323-48AF-BAC3-822EC9393CB2}
  9
$EXTNAMES
290
     1
  9
$PSVPSCALE
 40
0.0
  9
$OLESTARTUP
290
     0
  0
ENDSEC
  0
SECTION
  2
CLASSES
  0
CLASS
  1
ACDBDICTIONARYWDFLT
  2
AcDbDictionaryWithDefault
  3
AutoCAD 2000
 90
        0
280
     0
281
     0
  0
CLASS
  1
ACDBPLACEHOLDER
  2
AcDbPlaceHolder
  3
ObjectDBX Classes
 90
        0
280
     0
281
     0
  0
CLASS
  1
LAYOUT
  2
AcDbLayout
  3
ObjectDBX Classes
 90
        0
280
     0
281
     0
  0
CLASS
  1
LONG_TRANSACTION
  2
AcDbLongTransaction
  3
ObjectDBX Classes
 90
   -65536
280
     1
281
     0
  0
CLASS
  1
LWPOLYLINE
  2
AcDbPolyline
  3
AutoCAD 2000
 90
        0
280
     0
281
     1
  0
CLASS
  1
HATCH
  2
AcDbHatch
  3
AutoCAD 2000
 90
        0
280
     0
281
     1
  0
CLASS
  1
XRECORD
  2
AcDbXrecord
  3
AutoCAD 2000
 90
        0
280
     0
281
     0
  0
CLASS
  1
LONG_TRANSACTION
  2
AcDbLongTransaction
  3
ObjectDBX Classes
 90
   -65536
280
     1
281
     0
  0
CLASS
  1
LWPOLYLINE
  2
AcDbPolyline
  3
AutoCAD 2000
 90
        0
280
     0
281
     1
  0
CLASS
  1
HATCH
  2
AcDbHatch
  3
AutoCAD 2000
 90
        0
280
     0
281
     1
  0
CLASS
  1
XRECORD
  2
AcDbXrecord
  3
AutoCAD 2000
 90
        0
280
     0
281
     0
  0
CLASS
  1
LONG_TRANSACTION
  2
AcDbLongTransaction
  3
ObjectDBX Classes
 90
   -65536
280
     1
281
     0
  0
CLASS
  1
LWPOLYLINE
  2
AcDbPolyline
  3
AutoCAD 2000
 90
        0
280
     0
281
     1
  0
CLASS
  1
HATCH
  2
AcDbHatch
  3
AutoCAD 2000
 90
        0
280
     0
281
     1
  0
CLASS
  1
XRECORD
  2
AcDbXrecord
  3
AutoCAD 2000
 90
        0
280
     0
281
     0
  0
CLASS
  1
LONG_TRANSACTION
  2
AcDbLongTransaction
  3
ObjectDBX Classes
 90
   -65536
280
     1
281
     0
  0
CLASS
  1
LWPOLYLINE
  2
AcDbPolyline
  3
AutoCAD 2000
 90
        0
280
     0
281
     1
  0
CLASS
  1
HATCH
  2
AcDbHatch
  3
AutoCAD 2000
 90
        0
280
     0
281
     1
  0
CLASS
  1
XRECORD
  2
AcDbXrecord
  3
AutoCAD 2000
 90
        0
280
     0
281
     0
  0
CLASS
  1
LONG_TRANSACTION
  2
AcDbLongTransaction
  3
ObjectDBX Classes
 90
   -65536
280
     1
281
     0
  0
CLASS
  1
LWPOLYLINE
  2
AcDbPolyline
  3
AutoCAD 2000
 90
        0
280
     0
281
     1
  0
CLASS
  1
HATCH
  2
AcDbHatch
  3
AutoCAD 2000
 90
        0
280
     0
281
     1
  0
CLASS
  1
XRECORD
  2
AcDbXrecord
  3
AutoCAD 2000
 90
        0
280
     0
281
     0
  0
CLASS
  1
LONG_TRANSACTION
  2
AcDbLongTransaction
  3
ObjectDBX Classes
 90
   -65536
280
     1
281
     0
  0
CLASS
  1
LWPOLYLINE
  2
AcDbPolyline
  3
AutoCAD 2000
 90
        0
280
     0
281
     1
  0
CLASS
  1
HATCH
  2
AcDbHatch
  3
AutoCAD 2000
 90
        0
280
     0
281
     1
  0
CLASS
  1
XRECORD
  2
AcDbXrecord
  3
AutoCAD 2000
 90
        0
280
     0
281
     0
  0
CLASS
  1
LONG_TRANSACTION
  2
AcDbLongTransaction
  3
ObjectDBX Classes
 90
   -65536
280
     1
281
     0
  0
CLASS
  1
LWPOLYLINE
  2
AcDbPolyline
  3
AutoCAD 2000
 90
        0
280
     0
281
     1
  0
CLASS
  1
HATCH
  2
AcDbHatch
  3
AutoCAD 2000
 90
        0
280
     0
281
     1
  0
CLASS
  1
XRECORD
  2
AcDbXrecord
  3
AutoCAD 2000
 90
        0
280
     0
281
     0
  0
CLASS
  1
LONG_TRANSACTION
  2
AcDbLongTransaction
  3
ObjectDBX Classes
 90
   -65536
280
     1
281
     0
  0
CLASS
  1
LWPOLYLINE
  2
AcDbPolyline
  3
AutoCAD 2000
 90
        0
280
     0
281
     1
  0
CLASS
  1
HATCH
  2
AcDbHatch
  3
AutoCAD 2000
 90
        0
280
     0
281
     1
  0
CLASS
  1
XRECORD
  2
AcDbXrecord
  3
AutoCAD 2000
 90
        0
280
     0
281
     0
  0
CLASS
  1
LONG_TRANSACTION
  2
AcDbLongTransaction
  3
ObjectDBX Classes
 90
   -65536
280
     1
281
     0
  0
CLASS
  1
LWPOLYLINE
  2
AcDbPolyline
  3
AutoCAD 2000
 90
        0
280
     0
281
     1
  0
CLASS
  1
HATCH
  2
AcDbHatch
  3
AutoCAD 2000
 90
        0
280
     0
281
     1
  0
CLASS
  1
XRECORD
  2
AcDbXrecord
  3
AutoCAD 2000
 90
        0
280
     0
281
     0
  0
CLASS
  1
LONG_TRANSACTION
  2
AcDbLongTransaction
  3
ObjectDBX Classes
 90
   -65536
280
     1
281
     0
  0
CLASS
  1
LWPOLYLINE
  2
AcDbPolyline
  3
AutoCAD 2000
 90
        0
280
     0
281
     1
  0
CLASS
  1
HATCH
  2
AcDbHatch
  3
AutoCAD 2000
 90
        0
280
     0
281
     1
  0
CLASS
  1
XRECORD
  2
AcDbXrecord
  3
AutoCAD 2000
 90
        0
280
     0
281
     0
  0
CLASS
  1
LONG_TRANSACTION
  2
AcDbLongTransaction
  3
ObjectDBX Classes
 90
   -65536
280
     1
281
     0
  0
CLASS
  1
LWPOLYLINE
  2
AcDbPolyline
  3
AutoCAD 2000
 90
        0
280
     0
281
     1
  0
CLASS
  1
HATCH
  2
AcDbHatch
  3
AutoCAD 2000
 90
        0
280
     0
281
     1
  0
CLASS
  1
XRECORD
  2
AcDbXrecord
  3
AutoCAD 2000
 90
        0
280
     0
281
     0
  0
CLASS
  1
DICTIONARYVAR
  2
AcDbDictionaryVar
  3
AutoCAD 2000
 90
        0
280
     0
281
     0
  0
CLASS
  1
LONG_TRANSACTION
  2
AcDbLongTransaction
  3
ObjectDBX Classes
 90
   -65536
280
     1
281
     0
  0
CLASS
  1
LWPOLYLINE
  2
AcDbPolyline
  3
AutoCAD 2000
 90
        0
280
     0
281
     1
  0
CLASS
  1
HATCH
  2
AcDbHatch
  3
AutoCAD 2000
 90
        0
280
     0
281
     1
  0
CLASS
  1
XRECORD
  2
AcDbXrecord
  3
AutoCAD 2000
 90
        0
280
     0
281
     0
  0
CLASS
  1
LONG_TRANSACTION
  2
AcDbLongTransaction
  3
ObjectDBX Classes
 90
   -65536
280
     1
281
     0
  0
CLASS
  1
LWPOLYLINE
  2
AcDbPolyline
  3
AutoCAD 2000
 90
        0
280
     0
281
     1
  0
CLASS
  1
HATCH
  2
AcDbHatch
  3
AutoCAD 2000
 90
        0
280
     0
281
     1
  0
CLASS
  1
XRECORD
  2
AcDbXrecord
  3
AutoCAD 2000
 90
        0
280
     0
281
     0
  0
CLASS
  1
LONG_TRANSACTION
  2
AcDbLongTransaction
  3
ObjectDBX Classes
 90
   -65536
280
     1
281
     0
  0
CLASS
  1
LWPOLYLINE
  2
AcDbPolyline
  3
AutoCAD 2000
 90
        0
280
     0
281
     1
  0
CLASS
  1
HATCH
  2
AcDbHatch
  3
AutoCAD 2000
 90
        0
280
     0
281
     1
  0
CLASS
  1
XRECORD
  2
AcDbXrecord
  3
AutoCAD 2000
 90
        0
280
     0
281
     0
  0
CLASS
  1
LONG_TRANSACTION
  2
AcDbLongTransaction
  3
ObjectDBX Classes
 90
   -65536
280
     1
281
     0
  0
CLASS
  1
LWPOLYLINE
  2
AcDbPolyline
  3
AutoCAD 2000
 90
        0
280
     0
281
     1
  0
CLASS
  1
HATCH
  2
AcDbHatch
  3
AutoCAD 2000
 90
        0
280
     0
281
     1
  0
CLASS
  1
XRECORD
  2
AcDbXrecord
  3
AutoCAD 2000
 90
        0
280
     0
281
     0
  0
CLASS
  1
LONG_TRANSACTION
  2
AcDbLongTransaction
  3
ObjectDBX Classes
 90
   -65536
280
     1
281
     0
  0
CLASS
  1
LWPOLYLINE
  2
AcDbPolyline
  3
AutoCAD 2000
 90
        0
280
     0
281
     1
  0
CLASS
  1
HATCH
  2
AcDbHatch
  3
AutoCAD 2000
 90
        0
280
     0
281
     1
  0
CLASS
  1
XRECORD
  2
AcDbXrecord
  3
AutoCAD 2000
 90
        0
280
     0
281
     0
  0
CLASS
  1
TABLESTYLE
  2
AcDbTableStyle
  3
ObjectDBX Classes
 90
     2047
280
     1
281
     0
  0
ENDSEC
  0
SECTION
  2
TABLES
  0
TABLE
  2
VPORT
  5
8
330
0
100
AcDbSymbolTable
 70
     2
  0
VPORT
  5
1C2E
330
8
100
AcDbSymbolTableRecord
100
AcDbViewportTableRecord
  2
*Active
 70
     0
 10
0.0
 20
0.0
 11
1.0
 21
1.0
 12
-7.498660556383623
 22
16.6411561179827
 13
0.0
 23
0.0
 14
0.063
 24
0.063
 15
0.25
 25
0.25
 16
0.0
 26
0.0
 36
1.0
 17
0.0
 27
0.0
 37
0.0
 40
15.92002286769439
 41
1.814583333333333
 42
50.0
 43
0.0
 44
0.0
 50
0.0
 51
0.0
 71
     0
 72
   100
 73
     1
 74
     0
 75
     0
 76
     0
 77
     0
 78
     0
281
     0
 65
     1
110
0.0
120
0.0
130
0.0
111
1.0
121
0.0
131
0.0
112
0.0
122
1.0
132
0.0
 79
     0
146
0.0
  0
ENDTAB
  0
TABLE
  2
LTYPE
  5
5
330
0
100
AcDbSymbolTable
 70
     3
  0
LTYPE
  5
13
330
5
100
AcDbSymbolTableRecord
100
AcDbLinetypeTableRecord
  2
ByBlock
 70
     0
  3

 72
    65
 73
     0
 40
0.0
  0
LTYPE
  5
14
330
5
100
AcDbSymbolTableRecord
100
AcDbLinetypeTableRecord
  2
ByLayer
 70
     0
  3

 72
    65
 73
     0
 40
0.0
  0
LTYPE
  5
15
330
5
100
AcDbSymbolTableRecord
100
AcDbLinetypeTableRecord
  2
CONTINUOUS
 70
     0
  3
Solid line
 72
    65
 73
     0
 40
0.0
  0
LTYPE
  5
32
330
5
100
AcDbSymbolTableRecord
100
AcDbLinetypeTableRecord
  2
HIDDEN
 70
     0
  3
_ _ _ _ _ _ _ _ _ _ _ _ _ _ _ _ _ _ _ _ _ _ _
 72
    65
 73
     2
 40
0.375
 49
0.25
 74
     0
 49
-0.125
 74
     0
  0
LTYPE
  5
37
330
5
100
AcDbSymbolTableRecord
100
AcDbLinetypeTableRecord
  2
HIDDEN2
 70
     0
  3
_ _ _ _ _ _ _ _ _ _ _ _ _ _ _ _ _ _ _ _ _ _ _ _
 72
    65
 73
     2
 40
0.1875
 49
0.125
 74
     0
 49
-0.0625
 74
     0
  0
ENDTAB
  0
TABLE
  2
LAYER
  5
2
102
{ACAD_XDICTIONARY
360
1C2B
102
}
330
0
100
AcDbSymbolTable
 70
     6
  0
LAYER
  5
10
330
2
100
AcDbSymbolTableRecord
100
AcDbLayerTableRecord
  2
0
 70
     0
 62
     7
  6
CONTINUOUS
370
    -3
390
F
  0
LAYER
  5
3F
330
2
100
AcDbSymbolTableRecord
100
AcDbLayerTableRecord
  2
DIM
 70
     0
 62
     5
  6
CONTINUOUS
370
    -3
390
F
  0
ENDTAB
  0
TABLE
  2
STYLE
  5
3
330
0
100
AcDbSymbolTable
 70
     1
  0
STYLE
  5
11
330
3
100
AcDbSymbolTableRecord
100
AcDbTextStyleTableRecord
  2
STANDARD
 70
     0
 40
0.0
 41
1.0
 50
0.0
 71
     0
 42
0.27
  3
TXT
  4

  0
ENDTAB
  0
TABLE
  2
VIEW
  5
6
330
0
100
AcDbSymbolTable
 70
     0
  0
ENDTAB
  0
TABLE
  2
UCS
  5
7
330
0
100
AcDbSymbolTable
 70
     0
  0
ENDTAB
  0
TABLE
  2
APPID
  5
9
330
0
100
AcDbSymbolTable
 70
     3
  0
APPID
  5
12
330
9
100
AcDbSymbolTableRecord
100
AcDbRegAppTableRecord
  2
ACAD
 70
     0
  0
APPID
  5
B4B
330
9
100
AcDbSymbolTableRecord
100
AcDbRegAppTableRecord
  2
CONTENTBLOCKICON
 70
     0
  0
APPID
  5
1021
330
9
100
AcDbSymbolTableRecord
100
AcDbRegAppTableRecord
  2
DCO15
 70
     0
  0
ENDTAB
  0
TABLE
  2
DIMSTYLE
  5
A
330
0
100
AcDbSymbolTable
 70
     1
100
AcDbDimStyleTable
  0
DIMSTYLE
105
65F
330
A
100
AcDbSymbolTableRecord
100
AcDbDimStyleTableRecord
  2
Standard
 70
     0
  3

  4

340
11
  0
ENDTAB
  0
TABLE
  2
BLOCK_RECORD
  5
1
330
0
100
AcDbSymbolTable
 70
     0
  0
BLOCK_RECORD
  5
1E
330
1
100
AcDbSymbolTableRecord
100
AcDbBlockTableRecord
  2
*Model_Space
340
21
  0
BLOCK_RECORD
  5
1A
330
1
100
AcDbSymbolTableRecord
100
AcDbBlockTableRecord
  2
*Paper_Space
340
1D
  0
ENDTAB
  0
ENDSEC
  0
SECTION
  2
BLOCKS
  0
BLOCK
  5
4F
330
1E
100
AcDbEntity
  8
0
100
AcDbBlockBegin
  2
*Model_Space
 70
     0
 10
0.0
 20
0.0
 30
0.0
  3
*Model_Space
  1

  4

  0
ENDBLK
  5
50
330
1E
100
AcDbEntity
  8
0
100
AcDbBlockEnd
  0
BLOCK
  5
4D
330
1A
100
AcDbEntity
 67
     1
  8
0
100
AcDbBlockBegin
  2
*Paper_Space
 70
     0
 10
0.0
 20
0.0
 30
0.0
  3
*Paper_Space
  1

  4

  0
ENDBLK
  5
4E
330
1A
100
AcDbEntity
 67
     1
  8
0
100
AcDbBlockEnd
  0
ENDSEC
  0
SECTION
  2
ENTITIES
  0
LINE
  5
463
330
1E
100
AcDbEntity
  8
0
100
AcDbLine
 10
-6.112246131393814
 20
17.2244349720439
 30
0.0
 11
-8.11224613139381
 21
17.2244349720439
 31
0.0
  0
LINE
  5
465
330
1E
100
AcDbEntity
  8
0
100
AcDbLine
 10
-6.11224613139381
 20
17.1494349720439
 30
0.0
 11
-8.112246131393807
 21
17.1494349720439
 31
0.0
  0
LINE
  5
469
330
1E
100
AcDbEntity
  8
0
100
AcDbLine
 10
-8.56224613139381
 20
13.9119349720439
 30
0.0
 11
-8.56224613139381
 21
16.74006329814407
 31
0.0
  0
LINE
  5
46A
330
1E
100
AcDbEntity
  8
0
100
AcDbLine
 10
-8.487246131393807
 20
13.9119349720439
 30
0.0
 11
-8.487246131393807
 21
16.2119349720439
 31
0.0
  0
LINE
  5
46F
330
1E
100
AcDbEntity
  8
0
100
AcDbLine
 10
-5.662246131393815
 20
13.9119349720439
 30
0.0
 11
-5.662246131393815
 21
16.7744349720439
 31
0.0
  0
LINE
  5
470
330
1E
100
AcDbEntity
  8
0
100
AcDbLine
 10
-5.73724613139381
 20
13.9119349720439
 30
0.0
 11
-5.73724613139381
 21
16.2119349720439
 31
0.0
  0
TEXT
  5
577
330
1E
100
AcDbEntity
  8
DIM
100
AcDbText
 10
11.34514394317928
 20
21.59921556538293
 30
0.0
 40
0.27
  1
   
 11
11.34514394317928
 21
21.73421556538293
 31
0.0
100
AcDbText
 73
     2
  0
LINE
  5
5A0
330
1E
100
AcDbEntity
  8
0
100
AcDbLine
 10
-8.393114977093806
 20
14.8494349720439
 30
0.0
 11
-5.831377285693812
 21
14.8494349720439
 31
0.0
  0
LINE
  5
5A1
330
1E
100
AcDbEntity
  8
0
  6
HIDDEN
100
AcDbLine
 10
-8.393114977093806
 20
15.0994349720439
 30
0.0
 11
-5.831377285693812
 21
15.0994349720439
 31
0.0
  0
LINE
  5
5A2
330
1E
100
AcDbEntity
  8
0
  6
HIDDEN
100
AcDbLine
 10
-8.393114977093806
 20
16.5994349720439
 30
0.0
 11
-5.831377285693812
 21
16.5994349720439
 31
0.0
  0
LINE
  5
5A3
330
1E
100
AcDbEntity
  8
0
100
AcDbLine
 10
-8.393114977093806
 20
16.8494349720439
 30
0.0
 11
-5.831377285693812
 21
16.8494349720439
 31
0.0
  0
LWPOLYLINE
  5
5A4
330
1E
100
AcDbEntity
  8
0
100
AcDbPolyline
 90
       11
 70
     0
 43
0.0
 10
-8.393114977093806
 20
14.8494349720439
 10
-8.420485539893807
 20
14.85536173324389
 10
-8.442654601193805
 20
14.87331319364389
 10
-8.459406221593813
 20
14.90277458264389
 10
-8.471251449193805
 20
14.94275750684389
 10
-8.479125994793808
 20
14.99313693464389
 10
-8.483763800093808
 20
15.05239478134389
 10
-8.486081300693808
 20
15.11838595344389
 10
-8.487003838293806
 20
15.1908615852439
 10
-8.48723025789381
 20
15.26842071534389
 10
-8.487246131393807
 20
15.34844642514389
  0
LWPOLYLINE
  5
5B1
330
1E
100
AcDbEntity
  8
0
100
AcDbPolyline
 90
       11
 70
     0
 43
0.0
 10
-8.487246131393807
 20
16.35042361174389
 10
-8.487230257793808
 20
16.43044931084389
 10
-8.487003837893806
 20
16.50800842824389
 10
-8.486081299493808
 20
16.5804840466439
 10
-8.483763797793809
 20
16.6464752062439
 10
-8.47912599129381
 20
16.7057330412439
 10
-8.471251444693809
 20
16.7561124581439
 10
-8.459406216693811
 20
16.7960953735439
 10
-8.44265459669381
 20
16.82555675594389
 10
-8.420485536993812
 20
16.84350821224389
 10
-8.393114977093806
 20
16.8494349720439
  0
LINE
  5
5BE
330
1E
100
AcDbEntity
  8
0
  6
HIDDEN
100
AcDbLine
 10
-8.417246032943805
 20
15.5300599152439
 30
0.0
 11
-8.417246032943805
 21
16.1688099152439
 31
0.0
  0
LINE
  5
5BF
330
1E
100
AcDbEntity
  8
0
100
AcDbLine
 10
-8.487246131393807
 20
16.1844349152439
 30
0.0
 11
-8.487246131393807
 21
16.3494349720439
 31
0.0
  0
LWPOLYLINE
  5
5C0
330
1E
100
AcDbEntity
  8
0
  6
HIDDEN
100
AcDbPolyline
 90
       10
 70
     0
 43
0.0
 10
-8.487230257793808
 20
16.3899421414439
 10
-8.487003837893806
 20
16.42872170014389
 10
-8.486081299493808
 20
16.4649595093439
 10
-8.483763797793809
 20
16.49795508914389
 10
-8.47912599129381
 20
16.5275840066439
 10
-8.471251444693809
 20
16.55277371514389
 10
-8.459406216693811
 20
16.57276517284389
 10
-8.44265459669381
 20
16.58749586404389
 10
-8.420485536993812
 20
16.59647159214389
 10
-8.393114977093806
 20
16.5994349720439
  0
LINE
  5
5CC
330
1E
100
AcDbEntity
  8
0
100
AcDbLine
 10
-8.487246326593809
 20
16.3494349720439
 30
0.0
 11
-8.487245934393808
 21
16.35042361164389
 31
0.0
  0
LINE
  5
5CD
330
1E
100
AcDbEntity
  8
0
  6
HIDDEN
100
AcDbLine
 10
-8.432871032943805
 20
16.1844349152439
 30
0.0
 11
-8.487246131393807
 21
16.1844349152439
 31
0.0
  0
ARC
  5
5CE
330
1E
100
AcDbEntity
  8
0
  6
HIDDEN
100
AcDbCircle
 10
-8.432871032943805
 20
16.1688099152439
 30
0.0
 40
0.015625
100
AcDbArc
 50
359.9999999999998
 51
89.99999999999976
  0
LINE
  5
5CF
330
1E
100
AcDbEntity
  8
0
100
AcDbLine
 10
-8.487246131393807
 20
15.34844642514389
 30
0.0
 11
-8.487246131393807
 21
15.5144349152439
 31
0.0
  0
LINE
  5
5D0
330
1E
100
AcDbEntity
  8
0
  6
HIDDEN
100
AcDbLine
 10
-8.487246131393807
 20
15.5144349152439
 30
0.0
 11
-8.432871032943805
 21
15.5144349152439
 31
0.0
  0
ARC
  5
5D1
330
1E
100
AcDbEntity
  8
0
  6
HIDDEN
100
AcDbCircle
 10
-8.432871032943805
 20
15.5300599152439
 30
0.0
 40
0.015625
100
AcDbArc
 50
269.9999999999998
 51
359.9999999999998
  0
LWPOLYLINE
  5
5D2
330
1E
100
AcDbEntity
  8
0
  6
HIDDEN
100
AcDbPolyline
 90
       10
 70
     0
 43
0.0
 10
-8.393114977093806
 20
15.0994349720439
 10
-8.420485539893807
 20
15.1023983526439
 10
-8.442654601193805
 20
15.1113740828439
 10
-8.459406221593813
 20
15.12610477734389
 10
-8.471251449193805
 20
15.14609623944389
 10
-8.479125994793808
 20
15.1712859533439
 10
-8.483763800093808
 20
15.20091487674389
 10
-8.486081300693808
 20
15.2339104627439
 10
-8.487003838293806
 20
15.27014827864389
 10
-8.48723025789381
 20
15.3089278437439
  0
LWPOLYLINE
  5
5DE
330
1E
100
AcDbEntity
  8
0
100
AcDbPolyline
 90
       11
 70
     0
 43
0.0
 10
-5.73724613139381
 20
15.34844641014389
 10
-5.737262004893815
 20
15.26842070204389
 10
-5.737488424593806
 20
15.1908615739439
 10
-5.738410962193811
 20
15.1183859443439
 10
-5.740728462993808
 20
15.0523947743439
 10
-5.745366268493811
 20
14.99313692944389
 10
-5.753240814293811
 20
14.94275750344389
 10
-5.765086041993811
 20
14.9027745806439
 10
-5.781837662393812
 20
14.8733131927439
 10
-5.804006723393812
 20
14.85536173304389
 10
-5.831377285693812
 20
14.8494349720439
  0
LINE
  5
5EB
330
1E
100
AcDbEntity
  8
0
100
AcDbLine
 10
-5.737246295675163
 20
15.51443491524389
 30
0.0
 11
-5.791621229843813
 21
15.51443491524389
 31
0.0
  0
LINE
  5
5EC
330
1E
100
AcDbEntity
  8
0
100
AcDbLine
 10
-5.791621229843813
 20
16.18443491524389
 30
0.0
 11
-5.737246164012461
 21
16.18443491524389
 31
0.0
  0
LWPOLYLINE
  5
5ED
330
1E
100
AcDbEntity
  8
0
  6
HIDDEN
100
AcDbPolyline
 90
       10
 70
     0
 43
0.0
 10
-5.831377285693812
 20
16.5994349720439
 10
-5.804006719893813
 20
16.59647159074389
 10
-5.781837656893806
 20
16.5874958583439
 10
-5.765086035993811
 20
16.5727651603439
 10
-5.753240808793812
 20
16.55277369354389
 10
-5.745366264193812
 20
16.52758397394389
 10
-5.740728460193807
 20
16.49795504434389
 10
-5.738410960793807
 20
16.4649594516439
 10
-5.73748842399381
 20
16.42872162864389
 10
-5.737262004893815
 20
16.3899420568439
  0
LWPOLYLINE
  5
5F9
330
1E
100
AcDbEntity
  8
0
100
AcDbPolyline
 90
       11
 70
     0
 43
0.0
 10
-5.831377285693812
 20
16.8494349720439
 10
-5.804006719893813
 20
16.84350820944389
 10
-5.781837656893806
 20
16.82555674464389
 10
-5.765086035993811
 20
16.79609534874389
 10
-5.753240808793812
 20
16.7561124150439
 10
-5.745366264193812
 20
16.70573297584389
 10
-5.740728460193807
 20
16.64647511654389
 10
-5.738410960793807
 20
16.58048393114389
 10
-5.73748842399381
 20
16.5080082852439
 10
-5.737262004893815
 20
16.43044914154389
 10
-5.73724613139381
 20
16.35042342034389
  0
LWPOLYLINE
  5
606
330
1E
100
AcDbEntity
  8
0
  6
HIDDEN
100
AcDbPolyline
 90
       10
 70
     0
 43
0.0
 10
-5.737262004893815
 20
15.3089278370439
 10
-5.737488424593806
 20
15.27014827304389
 10
-5.738410962193811
 20
15.23391045824389
 10
-5.740728462993808
 20
15.20091487314389
 10
-5.745366268493811
 20
15.17128595074389
 10
-5.753240814293811
 20
15.1460962377439
 10
-5.765086041993811
 20
15.12610477634389
 10
-5.781837662393812
 20
15.1113740824439
 10
-5.804006723393812
 20
15.1023983525439
 10
-5.831377285693812
 20
15.0994349720439
  0
CIRCLE
  5
612
330
1E
100
AcDbEntity
  8
0
100
AcDbCircle
 10
-7.112246131393802
 20
15.9119349720439
 30
0.0
 40
0.34375
  0
LINE
  5
613
330
1E
100
AcDbEntity
  8
0
  6
HIDDEN
100
AcDbLine
 10
-5.807246229843813
 20
15.53005991524389
 30
0.0
 11
-5.807246229843813
 21
16.16880991524389
 31
0.0
  0
ARC
  5
614
330
1E
100
AcDbEntity
  8
0
  6
HIDDEN
100
AcDbCircle
 10
-5.791621229843813
 20
16.16880991524389
 30
0.0
 40
0.015625
100
AcDbArc
 50
90.00000000000003
 51
180.0
  0
ARC
  5
615
330
1E
100
AcDbEntity
  8
0
  6
HIDDEN
100
AcDbCircle
 10
-5.791621229843813
 20
15.53005991524389
 30
0.0
 40
0.015625
100
AcDbArc
 50
180.0
 51
270.0
  0
LINE
  5
616
330
1E
100
AcDbEntity
  8
0
100
AcDbLine
 10
-5.73724613139381
 20
16.35042342034389
 30
0.0
 11
-5.737246164012461
 21
16.18443491524389
 31
0.0
  0
LINE
  5
617
330
1E
100
AcDbEntity
  8
0
100
AcDbLine
 10
-5.737246295675163
 20
15.51443491524389
 30
0.0
 11
-5.737246328293807
 21
15.34844641014389
 31
0.0
  0
ARC
  5
65A
330
1E
100
AcDbEntity
  8
0
100
AcDbCircle
 10
-6.11224613139381
 20
16.7744349720439
 30
0.0
 40
0.375
100
AcDbArc
 50
0.0
 51
90.00000000000003
  0
ARC
  5
65B
330
1E
100
AcDbEntity
  8
0
100
AcDbCircle
 10
-8.112246131393807
 20
16.7744349720439
 30
0.0
 40
0.375
100
AcDbArc
 50
90.00000000000003
 51
180.0
  0
ARC
  5
65C
330
1E
100
AcDbEntity
  8
0
100
AcDbCircle
 10
-6.112246131393814
 20
16.7744349720439
 30
0.0
 40
0.45
100
AcDbArc
 50
0.0
 51
90.00000000000003
  0
ARC
  5
65D
330
1E
100
AcDbEntity
  8
0
100
AcDbCircle
 10
-8.11224613139381
 20
16.7744349720439
 30
0.0
 40
0.45
100
AcDbArc
 50
90.00000000000003
 51
180.0
  0
LINE
  5
E10
330
1E
100
AcDbEntity
  8
0
100
AcDbLine
 10
-8.56224613139381
 20
13.9119349720439
 30
0.0
 11
-5.662246131393815
 21
13.9119349720439
 31
0.0
  0
ARC
  5
129B
330
1E
100
AcDbEntity
  8
0
100
AcDbCircle
 10
-7.112246131393807
 20
15.8494349720439
 30
0.0
 40
0.5
100
AcDbArc
 50
180.0
 51
0.0
  0
ARC
  5
12A1
330
1E
100
AcDbEntity
  8
0
100
AcDbCircle
 10
-7.112246131393807
 20
15.9744349720439
 30
0.0
 40
0.5
100
AcDbArc
 50
0.0
 51
180.0
  0
LINE
  5
12A2
330
1E
100
AcDbEntity
  8
0
100
AcDbLine
 10
-7.612246131393807
 20
15.9744349720439
 30
0.0
 11
-7.612246131393807
 21
15.8494349720439
 31
0.0
  0
LINE
  5
12A3
330
1E
100
AcDbEntity
  8
0
100
AcDbLine
 10
-6.612246131393807
 20
15.9744349720439
 30
0.0
 11
-6.612246131393807
 21
15.8494349720439
 31
0.0
  0
ELLIPSE
  5
12BE
330
1E
100
AcDbEntity
  8
0
100
AcDbEllipse
 10
-7.886607322967476
 20
14.4431849720439
 30
0.0
 11
0.0
 21
-0.34375
 31
0.0
210
0.0
220
0.0
230
-1.0
 40
0.8181818181818156
 41
0.0
 42
6.283185307179586
  0
ELLIPSE
  5
12BF
330
1E
100
AcDbEntity
  8
0
100
AcDbEllipse
 10
-7.886607322967476
 20
14.4431849720439
 30
0.0
 11
0.0
 21
-0.2578125
 31
0.0
210
0.0
220
0.0
230
-1.0
 40
0.8181818181818156
 41
0.0
 42
6.283185307179586
  0
ELLIPSE
  5
12C0
330
1E
100
AcDbEntity
  8
0
100
AcDbEllipse
 10
-6.337884939820138
 20
14.4431849720439
 30
0.0
 11
0.0
 21
-0.2578125
 31
0.0
210
0.0
220
0.0
230
1.0
 40
0.8181818181818156
 41
0.0
 42
6.283185307179586
  0
ELLIPSE
  5
12C1
330
1E
100
AcDbEntity
  8
0
100
AcDbEllipse
 10
-6.337884939820138
 20
14.4431849720439
 30
0.0
 11
0.0
 21
-0.34375
 31
0.0
210
0.0
220
0.0
230
1.0
 40
0.8181818181818156
 41
0.0
 42
6.283185307179586
  0
ENDSEC
  0
SECTION
  2
OBJECTS
  0
DICTIONARY
  5
C
330
0
100
AcDbDictionary
281
     1
  3
ACAD_COLOR
350
1C26
  3
ACAD_GROUP
350
D
  3
ACAD_LAYOUT
350
19
  3
ACAD_MATERIAL
350
1C25
  3
ACAD_MLINESTYLE
350
16
  3
ACAD_PLOTSETTINGS
350
18
  3
ACAD_PLOTSTYLENAME
350
E
  3
ACAD_TABLESTYLE
350
1C27
  3
ACDBHEADERROUNDTRIPXREC
350
1C38
  3
AcDbVariableDictionary
350
CA8
  3
ASE_INDEX_DICTIONARY
350
1020
  0
DICTIONARY
  5
1C2B
330
2
100
AcDbDictionary
280
     1
281
     1
  3
ACAD_LAYERFILTERS
360
1C2D
  3
ACLYDICTIONARY
360
1C2C
  0
DICTIONARY
  5
1C26
102
{ACAD_REACTORS
330
C
102
}
330
C
100
AcDbDictionary
281
     1
  0
DICTIONARY
  5
D
102
{ACAD_REACTORS
330
C
102
}
330
C
100
AcDbDictionary
281
     1
  0
DICTIONARY
  5
19
102
{ACAD_REACTORS
330
C
102
}
330
C
100
AcDbDictionary
281
     1
  3
Layout1
350
1D
  3
Model
350
21
  0
DICTIONARY
  5
1C25
102
{ACAD_REACTORS
330
C
102
}
330
C
100
AcDbDictionary
281
     1
  0
DICTIONARY
  5
16
102
{ACAD_REACTORS
330
C
102
}
330
C
100
AcDbDictionary
281
     1
  3
Standard
350
17
  0
DICTIONARY
  5
18
102
{ACAD_REACTORS
330
C
102
}
330
C
100
AcDbDictionary
281
     1
  0
ACDBDICTIONARYWDFLT
  5
E
102
{ACAD_REACTORS
330
C
102
}
330
C
100
AcDbDictionary
281
     1
  3
Normal
350
F
100
AcDbDictionaryWithDefault
340
F
  0
DICTIONARY
  5
1C27
102
{ACAD_REACTORS
330
C
102
}
330
C
100
AcDbDictionary
281
     1
  3
Standard
350
1C28
  0
DICTIONARY
  5
1C38
102
{ACAD_REACTORS
330
C
102
}
330
C
100
AcDbDictionary
281
     1
  3
COLORDICT
350
1C39
  3
MATERIALDICT
350
1C3A
  0
DICTIONARY
  5
CA8
102
{ACAD_REACTORS
330
C
102
}
330
C
100
AcDbDictionary
281
     1
  3
CTABLESTYLE
350
1C34
  3
SORTENTS
350
1C37
  0
DICTIONARY
  5
1020
102
{ACAD_REACTORS
330
C
102
}
330
C
100
AcDbDictionary
281
     1
  3
ASEBlockHierarchyIndexRecord
350
1022
1001
DCO15
1040
1521459692.647
  0
DICTIONARY
  5
1C2D
102
{ACAD_REACTORS
330
1C2B
102
}
330
1C2B
100
AcDbDictionary
281
     1
  0
DICTIONARY
  5
1C2C
102
{ACAD_REACTORS
330
1C2B
102
}
330
1C2B
100
AcDbDictionary
281
     1
1001
ACAD
1000
<All
  0
LAYOUT
  5
1D
102
{ACAD_REACTORS
330
19
102
}
102
{ACAD_XDICTIONARY
360
1C3B
102
}
330
19
100
AcDbPlotSettings
  1

  2
HP LaserJet 2100 Series PS
  4

  6

 40
0.0
 41
0.0
 42
0.0
 43
0.0
 44
0.0
 45
0.0
 46
0.0
 47
0.0
 48
0.0
 49
0.0
140
0.0
141
0.0
142
1.0
143
1.0
 70
   688
 72
     0
 73
     0
 74
     5
  7

 75
    16
147
1.0
148
0.0
149
0.0
100
AcDbLayout
  1
Layout1
 70
     0
 71
     1
 10
0.0
 20
0.0
 11
12.0
 21
9.0
 12
0.0
 22
0.0
 32
0.0
 14
1.000000000000000E+20
 24
1.000000000000000E+20
 34
1.000000000000000E+20
 15
-1.000000000000000E+20
 25
-1.000000000000000E+20
 35
-1.000000000000000E+20
146
0.0
 13
0.0
 23
0.0
 33
0.0
 16
1.0
 26
0.0
 36
0.0
 17
0.0
 27
1.0
 37
0.0
 76
     0
330
1A
  0
LAYOUT
  5
21
102
{ACAD_REACTORS
330
19
102
}
102
{ACAD_XDICTIONARY
360
1C3D
102
}
330
19
100
AcDbPlotSettings
  1

  2
HP LaserJet 2100 Series PS
  4
Letter
  6

 40
5.365749835968018
 41
5.408084392547607
 42
5.4080810546875
 43
5.365753173828125
 44
215.8999938964844
 45
279.3999938964844
 46
0.0
 47
0.0
 48
0.0
 49
0.0
140
0.0
141
0.0
142
1.0
143
2.978488807384696
 70
 28336
 72
     0
 73
     0
 74
     2
  7

 75
     0
147
0.335740727821658
148
0.0
149
0.0
100
AcDbLayout
  1
Model
 70
     1
 71
     0
 10
0.0
 20
0.0
 11
12.0
 21
9.0
 12
0.0
 22
0.0
 32
0.0
 14
0.0
 24
0.0
 34
0.0
 15
0.0
 25
0.0
 35
0.0
146
0.0
 13
0.0
 23
0.0
 33
0.0
 16
1.0
 26
0.0
 36
0.0
 17
0.0
 27
1.0
 37
0.0
 76
     0
330
1E
  0
MLINESTYLE
  5
17
102
{ACAD_REACTORS
330
16
102
}
330
16
100
AcDbMlineStyle
  2
STANDARD
 70
     0
  3

 62
   256
 51
90.0
 52
90.0
 71
     2
 49
0.5
 62
   256
  6
BYLAYER
 49
-0.5
 62
   256
  6
BYLAYER
  0
ACDBPLACEHOLDER
  5
F
102
{ACAD_REACTORS
330
E
102
}
330
E
  0
ACAD_PROXY_OBJECT
  5
1C28
102
{ACAD_REACTORS
330
1C27
102
}
330
1C27
100
AcDbProxyObject
 90
      499
 91
      568
 95
   983063
 70
     0
 93
     1841
310
4214DD185B99185C9928B81E85EB51B8AE3F2E07A17AD46E2B8FC02B5E8DC0F42B1CFD028000000C1008070000C3001FDFF8000000C1003FBFF000000182007F7FE00000030400FEFFC00000060801FDFF8000000C1003FBFF00000018200000000000000681FA0B0000001820100E000186003FBFF000000182007F7FE000
310
00030400FEFFC00000060801FDFF8000000C1003FBFF000000182007F7FE000000304000AD7A3703D0AC73F4160000003040201C00030C007F7FE00000030400FEFFC00000060801FDFF8000000C1003FBFF000000182007F7FE00000030400FEFFC000000608000
340
11
340
11
340
11
 94
        0
  0
XRECORD
  5
1C39
102
{ACAD_REACTORS
330
1C38
102
}
330
1C38
100
AcDbXrecord
340
1C26
  0
XRECORD
  5
1C3A
102
{ACAD_REACTORS
330
1C38
102
}
330
1C38
100
AcDbXrecord
340
1C25
  0
DICTIONARYVAR
  5
1C34
102
{ACAD_REACTORS
330
CA8
102
}
330
CA8
100
DictionaryVariables
280
     0
  1
STANDARD
  0
DICTIONARYVAR
  5
1C37
102
{ACAD_REACTORS
330
CA8
102
}
330
CA8
100
DictionaryVariables
280
     0
  1
0
  0
XRECORD
  5
1022
102
{ACAD_REACTORS
330
1020
102
}
330
1020
100
AcDbXrecord
280
     1
330
0
330
0
330
0
330
0
330
0
330
0
330
0
330
0
330
0
330
0
  0
DICTIONARY
  5
1C3B
330
1D
100
AcDbDictionary
280
     1
281
     1
  3
ACAD_XREC_ROUNDTRIP
360
1C3C
  0
DICTIONARY
  5
1C3D
330
21
100
AcDbDictionary
280
     1
281
     1
  3
ACAD_XREC_ROUNDTRIP
360
1C3E
  0
XRECORD
  5
1C3C
102
{ACAD_REACTORS
330
1C3B
102
}
330
1C3B
100
AcDbXrecord
102
SHADEPLOT
 70
     0
102
SHADEPLOTRESLEVEL
 70
     2
102
SHADEPLOTCUSTOMDPI
 70
   300
  0
XRECORD
  5
1C3E
102
{ACAD_REACTORS
330
1C3D
102
}
330
1C3D
100
AcDbXrecord
102
SHADEPLOT
 70
     0
102
SHADEPLOTRESLEVEL
 70
     2
102
SHADEPLOTCUSTOMDPI
 70
   300
  0
ENDSEC
  0
EOF
