  0
SECTION
  2
HEADER
  9
$ACADVER
  1
AC1015
  9
$ACADMAINTVER
 70
     6
  9
$DWGCODEPAGE
  3
ANSI_1252
  9
$INSBASE
 10
0.0
 20
0.0
 30
0.0
  9
$EXTMIN
 10
5.457469004069377
 20
4.979403247346794
 30
0.0
  9
$EXTMAX
 10
16.4182340977732
 20
32.75349559549029
 30
0.0
  9
$LIMMIN
 10
0.0
 20
0.0
  9
$LIMMAX
 10
24.0
 20
31.5
  9
$ORTHOMODE
 70
     1
  9
$REGENMODE
 70
     1
  9
$FILLMODE
 70
     1
  9
$QTEXTMODE
 70
     0
  9
$MIRRTEXT
 70
     0
  9
$LTSCALE
 40
1.0
  9
$ATTMODE
 70
     1
  9
$TEXTSIZE
 40
0.27
  9
$TRACEWID
 40
0.05
  9
$TEXTSTYLE
  7
STANDARD
  9
$CLAYER
  8
0
  9
$CELTYPE
  6
ByLayer
  9
$CECOLOR
 62
   256
  9
$CELTSCALE
 40
1.0
  9
$DISPSILH
 70
     0
  9
$DIMSCALE
 40
3.0
  9
$DIMASZ
 40
0.125
  9
$DIMEXO
 40
0.062
  9
$DIMDLI
 40
0.375
  9
$DIMRND
 40
0.0
  9
$DIMDLE
 40
0.0
  9
$DIMEXE
 40
0.08
  9
$DIMTP
 40
0.0
  9
$DIMTM
 40
0.0
  9
$DIMTXT
 40
0.09
  9
$DIMCEN
 40
-0.03125
  9
$DIMTSZ
 40
0.0
  9
$DIMTOL
 70
     0
  9
$DIMLIM
 70
     0
  9
$DIMTIH
 70
     1
  9
$DIMTOH
 70
     1
  9
$DIMSE1
 70
     0
  9
$DIMSE2
 70
     0
  9
$DIMTAD
 70
     0
  9
$DIMZIN
 70
     0
  9
$DIMBLK
  1

  9
$DIMASO
 70
     0
  9
$DIMSHO
 70
     0
  9
$DIMPOST
  1

  9
$DIMAPOST
  1

  9
$DIMALT
 70
     0
  9
$DIMALTD
 70
     2
  9
$DIMALTF
 40
25.4
  9
$DIMLFAC
 40
1.0
  9
$DIMTOFL
 70
     0
  9
$DIMTVP
 40
0.0
  9
$DIMTIX
 70
     0
  9
$DIMSOXD
 70
     0
  9
$DIMSAH
 70
     0
  9
$DIMBLK1
  1

  9
$DIMBLK2
  1

  9
$DIMSTYLE
  2
Standard
  9
$DIMCLRD
 70
     0
  9
$DIMCLRE
 70
     0
  9
$DIMCLRT
 70
     0
  9
$DIMTFAC
 40
1.0
  9
$DIMGAP
 40
0.09
  9
$DIMJUST
 70
     0
  9
$DIMSD1
 70
     0
  9
$DIMSD2
 70
     0
  9
$DIMTOLJ
 70
     1
  9
$DIMTZIN
 70
     0
  9
$DIMALTZ
 70
     0
  9
$DIMALTTZ
 70
     0
  9
$DIMUPT
 70
     0
  9
$DIMDEC
 70
     5
  9
$DIMTDEC
 70
     5
  9
$DIMALTU
 70
     2
  9
$DIMALTTD
 70
     2
  9
$DIMTXSTY
  7
STANDARD
  9
$DIMAUNIT
 70
     0
  9
$DIMADEC
 70
     0
  9
$DIMALTRND
 40
0.0
  9
$DIMAZIN
 70
     0
  9
$DIMDSEP
 70
    46
  9
$DIMATFIT
 70
     3
  9
$DIMFRAC
 70
     2
  9
$DIMLDRBLK
  1

  9
$DIMLUNIT
 70
     5
  9
$DIMLWD
 70
    -2
  9
$DIMLWE
 70
    -2
  9
$DIMTMOVE
 70
     2
  9
$LUNITS
 70
     2
  9
$LUPREC
 70
     4
  9
$SKETCHINC
 40
0.1
  9
$FILLETRAD
 40
0.45
  9
$AUNITS
 70
     0
  9
$AUPREC
 70
     0
  9
$MENU
  1
qa
  9
$ELEVATION
 40
0.0
  9
$PELEVATION
 40
0.0
  9
$THICKNESS
 40
0.0
  9
$LIMCHECK
 70
     0
  9
$CHAMFERA
 40
0.0
  9
$CHAMFERB
 40
0.0
  9
$CHAMFERC
 40
0.0
  9
$CHAMFERD
 40
0.0
  9
$SKPOLY
 70
     0
  9
$TDCREATE
 40
2450470.769032292
  9
$TDUCREATE
 40
2450471.102365625
  9
$TDUPDATE
 40
2454159.844550903
  9
$TDUUPDATE
 40
2454160.177884236
  9
$TDINDWG
 40
0.3320618403
  9
$TDUSRTIMER
 40
0.3320618403
  9
$USRTIMER
 70
     1
  9
$ANGBASE
 50
0.0
  9
$ANGDIR
 70
     0
  9
$PDMODE
 70
     0
  9
$PDSIZE
 40
0.0
  9
$PLINEWID
 40
0.0
  9
$SPLFRAME
 70
     0
  9
$SPLINETYPE
 70
     6
  9
$SPLINESEGS
 70
     8
  9
$HANDSEED
  5
1BB4
  9
$SURFTAB1
 70
     6
  9
$SURFTAB2
 70
     6
  9
$SURFTYPE
 70
     6
  9
$SURFU
 70
     6
  9
$SURFV
 70
     6
  9
$UCSBASE
  2

  9
$UCSNAME
  2

  9
$UCSORG
 10
0.0
 20
0.0
 30
0.0
  9
$UCSXDIR
 10
1.0
 20
0.0
 30
0.0
  9
$UCSYDIR
 10
0.0
 20
1.0
 30
0.0
  9
$UCSORTHOREF
  2

  9
$UCSORTHOVIEW
 70
     0
  9
$UCSORGTOP
 10
0.0
 20
0.0
 30
0.0
  9
$UCSORGBOTTOM
 10
0.0
 20
0.0
 30
0.0
  9
$UCSORGLEFT
 10
0.0
 20
0.0
 30
0.0
  9
$UCSORGRIGHT
 10
0.0
 20
0.0
 30
0.0
  9
$UCSORGFRONT
 10
0.0
 20
0.0
 30
0.0
  9
$UCSORGBACK
 10
0.0
 20
0.0
 30
0.0
  9
$PUCSBASE
  2

  9
$PUCSNAME
  2

  9
$PUCSORG
 10
0.0
 20
0.0
 30
0.0
  9
$PUCSXDIR
 10
1.0
 20
0.0
 30
0.0
  9
$PUCSYDIR
 10
0.0
 20
1.0
 30
0.0
  9
$PUCSORTHOREF
  2

  9
$PUCSORTHOVIEW
 70
     0
  9
$PUCSORGTOP
 10
0.0
 20
0.0
 30
0.0
  9
$PUCSORGBOTTOM
 10
0.0
 20
0.0
 30
0.0
  9
$PUCSORGLEFT
 10
0.0
 20
0.0
 30
0.0
  9
$PUCSORGRIGHT
 10
0.0
 20
0.0
 30
0.0
  9
$PUCSORGFRONT
 10
0.0
 20
0.0
 30
0.0
  9
$PUCSORGBACK
 10
0.0
 20
0.0
 30
0.0
  9
$USERI1
 70
     0
  9
$USERI2
 70
     0
  9
$USERI3
 70
     0
  9
$USERI4
 70
     0
  9
$USERI5
 70
     0
  9
$USERR1
 40
0.0
  9
$USERR2
 40
0.0
  9
$USERR3
 40
0.0
  9
$USERR4
 40
0.0
  9
$USERR5
 40
0.0
  9
$WORLDVIEW
 70
     1
  9
$SHADEDGE
 70
     3
  9
$SHADEDIF
 70
    70
  9
$TILEMODE
 70
     1
  9
$MAXACTVP
 70
    16
  9
$PINSBASE
 10
0.0
 20
0.0
 30
0.0
  9
$PLIMCHECK
 70
     0
  9
$PEXTMIN
 10
1.000000000000000E+20
 20
1.000000000000000E+20
 30
1.000000000000000E+20
  9
$PEXTMAX
 10
-1.000000000000000E+20
 20
-1.000000000000000E+20
 30
-1.000000000000000E+20
  9
$PLIMMIN
 10
0.0
 20
0.0
  9
$PLIMMAX
 10
12.0
 20
9.0
  9
$UNITMODE
 70
     0
  9
$VISRETAIN
 70
     0
  9
$PLINEGEN
 70
     0
  9
$PSLTSCALE
 70
     0
  9
$TREEDEPTH
 70
  3020
  9
$CMLSTYLE
  2
Standard
  9
$CMLJUST
 70
     0
  9
$CMLSCALE
 40
1.0
  9
$PROXYGRAPHICS
 70
     1
  9
$MEASUREMENT
 70
     0
  9
$CELWEIGHT
370
    -1
  9
$ENDCAPS
280
     0
  9
$JOINSTYLE
280
     0
  9
$LWDISPLAY
290
     0
  9
$INSUNITS
 70
     0
  9
$HYPERLINKBASE
  1

  9
$STYLESHEET
  1

  9
$XEDIT
290
     1
  9
$CEPSNTYPE
380
     0
  9
$PSTYLEMODE
290
     1
  9
$FINGERPRINTGUID
  2
{AA237CAB-720A-11D6-BE3F-00508B5FCD51}
  9
$VERSIONGUID
  2
{DCDD0841-C03A-40A5-8DCB-B18EDB0FE8F3}
  9
$EXTNAMES
290
     1
  9
$PSVPSCALE
 40
0.0
  9
$OLESTARTUP
290
     0
  0
ENDSEC
  0
SECTION
  2
CLASSES
  0
CLASS
  1
ACDBDICTIONARYWDFLT
  2
AcDbDictionaryWithDefault
  3
AutoCAD 2000
 90
        0
280
     0
281
     0
  0
CLASS
  1
ACDBPLACEHOLDER
  2
AcDbPlaceHolder
  3
ObjectDBX Classes
 90
        0
280
     0
281
     0
  0
CLASS
  1
LAYOUT
  2
AcDbLayout
  3
ObjectDBX Classes
 90
        0
280
     0
281
     0
  0
CLASS
  1
LONG_TRANSACTION
  2
AcDbLongTransaction
  3
ObjectDBX Classes
 90
   -65536
280
     1
281
     0
  0
CLASS
  1
LWPOLYLINE
  2
AcDbPolyline
  3
AutoCAD 2000
 90
        0
280
     0
281
     1
  0
CLASS
  1
HATCH
  2
AcDbHatch
  3
AutoCAD 2000
 90
        0
280
     0
281
     1
  0
CLASS
  1
XRECORD
  2
AcDbXrecord
  3
AutoCAD 2000
 90
        0
280
     0
281
     0
  0
CLASS
  1
LONG_TRANSACTION
  2
AcDbLongTransaction
  3
ObjectDBX Classes
 90
   -65536
280
     1
281
     0
  0
CLASS
  1
LWPOLYLINE
  2
AcDbPolyline
  3
AutoCAD 2000
 90
        0
280
     0
281
     1
  0
CLASS
  1
HATCH
  2
AcDbHatch
  3
AutoCAD 2000
 90
        0
280
     0
281
     1
  0
CLASS
  1
XRECORD
  2
AcDbXrecord
  3
AutoCAD 2000
 90
        0
280
     0
281
     0
  0
CLASS
  1
LONG_TRANSACTION
  2
AcDbLongTransaction
  3
ObjectDBX Classes
 90
   -65536
280
     1
281
     0
  0
CLASS
  1
LWPOLYLINE
  2
AcDbPolyline
  3
AutoCAD 2000
 90
        0
280
     0
281
     1
  0
CLASS
  1
HATCH
  2
AcDbHatch
  3
AutoCAD 2000
 90
        0
280
     0
281
     1
  0
CLASS
  1
XRECORD
  2
AcDbXrecord
  3
AutoCAD 2000
 90
        0
280
     0
281
     0
  0
CLASS
  1
LONG_TRANSACTION
  2
AcDbLongTransaction
  3
ObjectDBX Classes
 90
   -65536
280
     1
281
     0
  0
CLASS
  1
LWPOLYLINE
  2
AcDbPolyline
  3
AutoCAD 2000
 90
        0
280
     0
281
     1
  0
CLASS
  1
HATCH
  2
AcDbHatch
  3
AutoCAD 2000
 90
        0
280
     0
281
     1
  0
CLASS
  1
XRECORD
  2
AcDbXrecord
  3
AutoCAD 2000
 90
        0
280
     0
281
     0
  0
CLASS
  1
LONG_TRANSACTION
  2
AcDbLongTransaction
  3
ObjectDBX Classes
 90
   -65536
280
     1
281
     0
  0
CLASS
  1
LWPOLYLINE
  2
AcDbPolyline
  3
AutoCAD 2000
 90
        0
280
     0
281
     1
  0
CLASS
  1
HATCH
  2
AcDbHatch
  3
AutoCAD 2000
 90
        0
280
     0
281
     1
  0
CLASS
  1
XRECORD
  2
AcDbXrecord
  3
AutoCAD 2000
 90
        0
280
     0
281
     0
  0
CLASS
  1
LONG_TRANSACTION
  2
AcDbLongTransaction
  3
ObjectDBX Classes
 90
   -65536
280
     1
281
     0
  0
CLASS
  1
LWPOLYLINE
  2
AcDbPolyline
  3
AutoCAD 2000
 90
        0
280
     0
281
     1
  0
CLASS
  1
HATCH
  2
AcDbHatch
  3
AutoCAD 2000
 90
        0
280
     0
281
     1
  0
CLASS
  1
XRECORD
  2
AcDbXrecord
  3
AutoCAD 2000
 90
        0
280
     0
281
     0
  0
CLASS
  1
LONG_TRANSACTION
  2
AcDbLongTransaction
  3
ObjectDBX Classes
 90
   -65536
280
     1
281
     0
  0
CLASS
  1
LWPOLYLINE
  2
AcDbPolyline
  3
AutoCAD 2000
 90
        0
280
     0
281
     1
  0
CLASS
  1
HATCH
  2
AcDbHatch
  3
AutoCAD 2000
 90
        0
280
     0
281
     1
  0
CLASS
  1
XRECORD
  2
AcDbXrecord
  3
AutoCAD 2000
 90
        0
280
     0
281
     0
  0
CLASS
  1
LONG_TRANSACTION
  2
AcDbLongTransaction
  3
ObjectDBX Classes
 90
   -65536
280
     1
281
     0
  0
CLASS
  1
LWPOLYLINE
  2
AcDbPolyline
  3
AutoCAD 2000
 90
        0
280
     0
281
     1
  0
CLASS
  1
HATCH
  2
AcDbHatch
  3
AutoCAD 2000
 90
        0
280
     0
281
     1
  0
CLASS
  1
XRECORD
  2
AcDbXrecord
  3
AutoCAD 2000
 90
        0
280
     0
281
     0
  0
CLASS
  1
LONG_TRANSACTION
  2
AcDbLongTransaction
  3
ObjectDBX Classes
 90
   -65536
280
     1
281
     0
  0
CLASS
  1
LWPOLYLINE
  2
AcDbPolyline
  3
AutoCAD 2000
 90
        0
280
     0
281
     1
  0
CLASS
  1
HATCH
  2
AcDbHatch
  3
AutoCAD 2000
 90
        0
280
     0
281
     1
  0
CLASS
  1
XRECORD
  2
AcDbXrecord
  3
AutoCAD 2000
 90
        0
280
     0
281
     0
  0
CLASS
  1
LONG_TRANSACTION
  2
AcDbLongTransaction
  3
ObjectDBX Classes
 90
   -65536
280
     1
281
     0
  0
CLASS
  1
LWPOLYLINE
  2
AcDbPolyline
  3
AutoCAD 2000
 90
        0
280
     0
281
     1
  0
CLASS
  1
HATCH
  2
AcDbHatch
  3
AutoCAD 2000
 90
        0
280
     0
281
     1
  0
CLASS
  1
XRECORD
  2
AcDbXrecord
  3
AutoCAD 2000
 90
        0
280
     0
281
     0
  0
CLASS
  1
LONG_TRANSACTION
  2
AcDbLongTransaction
  3
ObjectDBX Classes
 90
   -65536
280
     1
281
     0
  0
CLASS
  1
LWPOLYLINE
  2
AcDbPolyline
  3
AutoCAD 2000
 90
        0
280
     0
281
     1
  0
CLASS
  1
HATCH
  2
AcDbHatch
  3
AutoCAD 2000
 90
        0
280
     0
281
     1
  0
CLASS
  1
XRECORD
  2
AcDbXrecord
  3
AutoCAD 2000
 90
        0
280
     0
281
     0
  0
CLASS
  1
DICTIONARYVAR
  2
AcDbDictionaryVar
  3
AutoCAD 2000
 90
        0
280
     0
281
     0
  0
CLASS
  1
LONG_TRANSACTION
  2
AcDbLongTransaction
  3
ObjectDBX Classes
 90
   -65536
280
     1
281
     0
  0
CLASS
  1
LWPOLYLINE
  2
AcDbPolyline
  3
AutoCAD 2000
 90
        0
280
     0
281
     1
  0
CLASS
  1
HATCH
  2
AcDbHatch
  3
AutoCAD 2000
 90
        0
280
     0
281
     1
  0
CLASS
  1
XRECORD
  2
AcDbXrecord
  3
AutoCAD 2000
 90
        0
280
     0
281
     0
  0
CLASS
  1
LONG_TRANSACTION
  2
AcDbLongTransaction
  3
ObjectDBX Classes
 90
   -65536
280
     1
281
     0
  0
CLASS
  1
LWPOLYLINE
  2
AcDbPolyline
  3
AutoCAD 2000
 90
        0
280
     0
281
     1
  0
CLASS
  1
HATCH
  2
AcDbHatch
  3
AutoCAD 2000
 90
        0
280
     0
281
     1
  0
CLASS
  1
XRECORD
  2
AcDbXrecord
  3
AutoCAD 2000
 90
        0
280
     0
281
     0
  0
CLASS
  1
LONG_TRANSACTION
  2
AcDbLongTransaction
  3
ObjectDBX Classes
 90
   -65536
280
     1
281
     0
  0
CLASS
  1
LWPOLYLINE
  2
AcDbPolyline
  3
AutoCAD 2000
 90
        0
280
     0
281
     1
  0
CLASS
  1
HATCH
  2
AcDbHatch
  3
AutoCAD 2000
 90
        0
280
     0
281
     1
  0
CLASS
  1
XRECORD
  2
AcDbXrecord
  3
AutoCAD 2000
 90
        0
280
     0
281
     0
  0
CLASS
  1
LONG_TRANSACTION
  2
AcDbLongTransaction
  3
ObjectDBX Classes
 90
   -65536
280
     1
281
     0
  0
CLASS
  1
LWPOLYLINE
  2
AcDbPolyline
  3
AutoCAD 2000
 90
        0
280
     0
281
     1
  0
CLASS
  1
HATCH
  2
AcDbHatch
  3
AutoCAD 2000
 90
        0
280
     0
281
     1
  0
CLASS
  1
XRECORD
  2
AcDbXrecord
  3
AutoCAD 2000
 90
        0
280
     0
281
     0
  0
CLASS
  1
LONG_TRANSACTION
  2
AcDbLongTransaction
  3
ObjectDBX Classes
 90
   -65536
280
     1
281
     0
  0
CLASS
  1
LWPOLYLINE
  2
AcDbPolyline
  3
AutoCAD 2000
 90
        0
280
     0
281
     1
  0
CLASS
  1
HATCH
  2
AcDbHatch
  3
AutoCAD 2000
 90
        0
280
     0
281
     1
  0
CLASS
  1
XRECORD
  2
AcDbXrecord
  3
AutoCAD 2000
 90
        0
280
     0
281
     0
  0
CLASS
  1
TABLESTYLE
  2
AcDbTableStyle
  3
ObjectDBX Classes
 90
     2047
280
     1
281
     0
  0
ENDSEC
  0
SECTION
  2
TABLES
  0
TABLE
  2
VPORT
  5
8
330
0
100
AcDbSymbolTable
 70
     5
  0
VPORT
  5
1BA4
330
8
100
AcDbSymbolTableRecord
100
AcDbViewportTableRecord
  2
*Active
 70
     0
 10
0.0
 20
0.0
 11
1.0
 21
1.0
 12
21.92010670648332
 22
23.30025413496177
 13
0.0
 23
0.0
 14
0.063
 24
0.063
 15
0.25
 25
0.25
 16
0.0
 26
0.0
 36
1.0
 17
0.0
 27
0.0
 37
0.0
 40
39.923741650895
 41
1.814583333333334
 42
50.0
 43
0.0
 44
0.0
 50
0.0
 51
0.0
 71
     0
 72
   100
 73
     1
 74
     0
 75
     0
 76
     0
 77
     0
 78
     0
281
     0
 65
     1
110
0.0
120
0.0
130
0.0
111
1.0
121
0.0
131
0.0
112
0.0
122
1.0
132
0.0
 79
     0
146
0.0
  0
ENDTAB
  0
TABLE
  2
LTYPE
  5
5
330
0
100
AcDbSymbolTable
 70
     3
  0
LTYPE
  5
13
330
5
100
AcDbSymbolTableRecord
100
AcDbLinetypeTableRecord
  2
ByBlock
 70
     0
  3

 72
    65
 73
     0
 40
0.0
  0
LTYPE
  5
14
330
5
100
AcDbSymbolTableRecord
100
AcDbLinetypeTableRecord
  2
ByLayer
 70
     0
  3

 72
    65
 73
     0
 40
0.0
  0
LTYPE
  5
15
330
5
100
AcDbSymbolTableRecord
100
AcDbLinetypeTableRecord
  2
CONTINUOUS
 70
     0
  3
Solid line
 72
    65
 73
     0
 40
0.0
  0
LTYPE
  5
32
330
5
100
AcDbSymbolTableRecord
100
AcDbLinetypeTableRecord
  2
HIDDEN
 70
     0
  3
_ _ _ _ _ _ _ _ _ _ _ _ _ _ _ _ _ _ _ _ _ _ _
 72
    65
 73
     2
 40
0.375
 49
0.25
 74
     0
 49
-0.125
 74
     0
  0
LTYPE
  5
37
330
5
100
AcDbSymbolTableRecord
100
AcDbLinetypeTableRecord
  2
HIDDEN2
 70
     0
  3
_ _ _ _ _ _ _ _ _ _ _ _ _ _ _ _ _ _ _ _ _ _ _ _
 72
    65
 73
     2
 40
0.1875
 49
0.125
 74
     0
 49
-0.0625
 74
     0
  0
ENDTAB
  0
TABLE
  2
LAYER
  5
2
102
{ACAD_XDICTIONARY
360
1B66
102
}
330
0
100
AcDbSymbolTable
 70
     5
  0
LAYER
  5
10
330
2
100
AcDbSymbolTableRecord
100
AcDbLayerTableRecord
  2
0
 70
     0
 62
     7
  6
CONTINUOUS
370
    -3
390
F
  0
LAYER
  5
3F
330
2
100
AcDbSymbolTableRecord
100
AcDbLayerTableRecord
  2
DIM
 70
     0
 62
     5
  6
CONTINUOUS
370
    -3
390
F
  0
ENDTAB
  0
TABLE
  2
STYLE
  5
3
330
0
100
AcDbSymbolTable
 70
     1
  0
STYLE
  5
11
330
3
100
AcDbSymbolTableRecord
100
AcDbTextStyleTableRecord
  2
STANDARD
 70
     0
 40
0.0
 41
1.0
 50
0.0
 71
     0
 42
0.27
  3
TXT
  4

  0
ENDTAB
  0
TABLE
  2
VIEW
  5
6
330
0
100
AcDbSymbolTable
 70
     0
  0
ENDTAB
  0
TABLE
  2
UCS
  5
7
330
0
100
AcDbSymbolTable
 70
     0
  0
ENDTAB
  0
TABLE
  2
APPID
  5
9
330
0
100
AcDbSymbolTable
 70
     3
  0
APPID
  5
12
330
9
100
AcDbSymbolTableRecord
100
AcDbRegAppTableRecord
  2
ACAD
 70
     0
  0
APPID
  5
B4B
330
9
100
AcDbSymbolTableRecord
100
AcDbRegAppTableRecord
  2
CONTENTBLOCKICON
 70
     0
  0
APPID
  5
1021
330
9
100
AcDbSymbolTableRecord
100
AcDbRegAppTableRecord
  2
DCO15
 70
     0
  0
ENDTAB
  0
TABLE
  2
DIMSTYLE
  5
A
330
0
100
AcDbSymbolTable
 70
     1
100
AcDbDimStyleTable
  0
DIMSTYLE
105
65F
330
A
100
AcDbSymbolTableRecord
100
AcDbDimStyleTableRecord
  2
Standard
 70
     0
  3

  4

340
11
  0
ENDTAB
  0
TABLE
  2
BLOCK_RECORD
  5
1
330
0
100
AcDbSymbolTable
 70
     0
  0
BLOCK_RECORD
  5
1E
330
1
100
AcDbSymbolTableRecord
100
AcDbBlockTableRecord
  2
*Model_Space
340
21
  0
BLOCK_RECORD
  5
1A
330
1
100
AcDbSymbolTableRecord
100
AcDbBlockTableRecord
  2
*Paper_Space
340
1D
  0
ENDTAB
  0
ENDSEC
  0
SECTION
  2
BLOCKS
  0
BLOCK
  5
4F
330
1E
100
AcDbEntity
  8
0
100
AcDbBlockBegin
  2
*Model_Space
 70
     0
 10
0.0
 20
0.0
 30
0.0
  3
*Model_Space
  1

  4

  0
ENDBLK
  5
50
330
1E
100
AcDbEntity
  8
0
100
AcDbBlockEnd
  0
BLOCK
  5
4D
330
1A
100
AcDbEntity
 67
     1
  8
0
100
AcDbBlockBegin
  2
*Paper_Space
 70
     0
 10
0.0
 20
0.0
 30
0.0
  3
*Paper_Space
  1

  4

  0
ENDBLK
  5
4E
330
1A
100
AcDbEntity
 67
     1
  8
0
100
AcDbBlockEnd
  0
ENDSEC
  0
SECTION
  2
ENTITIES
  0
TEXT
  5
577
330
1E
100
AcDbEntity
  8
DIM
100
AcDbText
 10
11.34514394317928
 20
21.59921556538293
 30
0.0
 40
0.27
  1
   
 11
11.34514394317928
 21
21.73421556538293
 31
0.0
100
AcDbText
 73
     2
  0
ARC
  5
11B3
330
1E
100
AcDbEntity
  8
0
100
AcDbCircle
 10
6.774102566207024
 20
20.4213431457066
 30
0.0
 40
0.3437500000000253
100
AcDbArc
 50
0.0
 51
44.99999999999842
  0
ARC
  5
11B4
330
1E
100
AcDbEntity
  8
0
100
AcDbCircle
 10
6.836602566206731
 20
20.44723149335452
 30
0.0
 40
0.4062499999999813
100
AcDbArc
 50
0.0
 51
45.00000000000072
  0
LINE
  5
11B5
330
1E
100
AcDbEntity
  8
0
100
AcDbLine
 10
8.380352566207066
 20
14.16211740542057
 30
0.0
 11
8.38035256620708
 21
23.66397948895046
 31
0.0
  0
LINE
  5
11B6
330
1E
100
AcDbEntity
  8
0
100
AcDbLine
 10
5.48035256620706
 20
14.16211740542057
 30
0.0
 11
5.480352566207049
 21
23.66397948895046
 31
0.0
  0
LINE
  5
11B7
330
1E
100
AcDbEntity
  8
0
100
AcDbLine
 10
8.305352566207063
 20
15.48898012721217
 30
0.0
 11
8.305352566207075
 21
23.66397948895046
 31
0.0
  0
LINE
  5
11B8
330
1E
100
AcDbEntity
  8
0
100
AcDbLine
 10
5.555352566207063
 20
15.48898012721216
 30
0.0
 11
5.55535256620705
 21
23.66397948895046
 31
0.0
  0
ARC
  5
11B9
330
1E
100
AcDbEntity
  8
0
100
AcDbCircle
 10
7.479457149125436
 20
13.86360583610032
 30
0.0
 40
0.5
100
AcDbArc
 50
331.4700216176344
 51
18.37063897486511
  0
ARC
  5
11BA
330
1E
100
AcDbEntity
  8
0
100
AcDbCircle
 10
6.381247983298662
 20
13.86360583608197
 30
0.0
 40
0.5
100
AcDbArc
 50
161.6293610254283
 51
208.5299783842803
  0
ARC
  5
11BB
330
1E
100
AcDbEntity
  8
0
100
AcDbCircle
 10
6.930352566207064
 20
14.16211740542058
 30
0.0
 40
1.450000000000002
100
AcDbArc
 50
180.0000000000001
 51
359.9999999999999
  0
LINE
  5
11BE
330
1E
100
AcDbEntity
  8
0
  6
HIDDEN
100
AcDbLine
 10
6.461602566207091
 20
13.9271174054206
 30
0.0
 11
6.461602566207091
 21
14.16211740542059
 31
0.0
  0
LINE
  5
11BF
330
1E
100
AcDbEntity
  8
0
  6
HIDDEN
100
AcDbLine
 10
7.399102566207091
 20
13.9271174054206
 30
0.0
 11
7.399102566207091
 21
14.16211740542059
 31
0.0
  0
ARC
  5
11C3
330
1E
100
AcDbEntity
  8
0
100
AcDbCircle
 10
6.930352566207064
 20
14.16211740542057
 30
0.0
 40
1.375000000000001
100
AcDbArc
 50
179.9999999999999
 51
0.000000000000074
  0
ARC
  5
11C5
330
1E
100
AcDbEntity
  8
0
100
AcDbCircle
 10
6.930352566207063
 20
14.16211740542057
 30
0.0
 40
0.875
100
AcDbArc
 50
221.0161299651608
 51
318.9838700348407
  0
LINE
  5
11C8
330
1E
100
AcDbEntity
  8
0
  6
HIDDEN
100
AcDbLine
 10
5.555352385307089
 20
13.9271174054206
 30
0.0
 11
8.305352747107094
 21
13.9271174054206
 31
0.0
  0
ARC
  5
11C9
330
1E
100
AcDbEntity
  8
0
100
AcDbCircle
 10
6.097113892843595
 20
13.01228554240235
 30
0.0
 40
0.225
100
AcDbArc
 50
54.07060958445209
 51
128.045634685684
  0
ARC
  5
11CA
330
1E
100
AcDbEntity
  8
0
100
AcDbCircle
 10
6.097113892843595
 20
13.01228554240235
 30
0.0
 40
0.3
100
AcDbArc
 50
54.07060958445209
 51
129.400278351404
  0
LINE
  5
11CB
330
1E
100
AcDbEntity
  8
0
100
AcDbLine
 10
5.555337856907045
 20
13.92672331872058
 30
0.0
 11
5.555334917907032
 21
13.92664359702059
 31
0.0
  0
LINE
  5
11CC
330
1E
100
AcDbEntity
  8
0
100
AcDbLine
 10
5.555334918007048
 20
13.92664359892058
 30
0.0
 11
5.555352385307032
 21
13.9271174054206
 31
0.0
  0
LINE
  5
11CD
330
1E
100
AcDbEntity
  8
0
100
AcDbLine
 10
5.555352385307089
 20
13.9271174054206
 30
0.0
 11
5.555334917907089
 21
13.92664359812059
 31
0.0
  0
LINE
  5
11CE
330
1E
100
AcDbEntity
  8
0
100
AcDbLine
 10
5.555334917907089
 20
13.9266435983206
 30
0.0
 11
5.555337856907073
 21
13.9267233194206
 31
0.0
  0
ARC
  5
11D0
330
1E
100
AcDbEntity
  8
0
100
AcDbCircle
 10
7.659243368923569
 20
12.94346314857997
 30
0.0
 40
0.225
100
AcDbArc
 50
194.8591430753795
 51
213.4067541948397
  0
ARC
  5
11D1
330
1E
100
AcDbEntity
  8
0
100
AcDbCircle
 10
6.201461763490556
 20
12.94346314857997
 30
0.0
 40
0.225
100
AcDbArc
 50
345.1408569246204
 51
59.11588202585634
  0
ARC
  5
11D2
330
1E
100
AcDbEntity
  8
0
100
AcDbCircle
 10
6.930352566207063
 20
14.16211740542057
 30
0.0
 40
1.195
100
AcDbArc
 50
234.0706095844477
 51
239.1158820258582
  0
ARC
  5
11D3
330
1E
100
AcDbEntity
  8
0
100
AcDbCircle
 10
6.930352566207063
 20
14.16211740542057
 30
0.0
 40
1.12
100
AcDbArc
 50
234.0706095844477
 51
239.1158820258582
  0
ARC
  5
11D4
330
1E
100
AcDbEntity
  8
0
100
AcDbCircle
 10
6.201461763490556
 20
12.94346314857997
 30
0.0
 40
0.3
100
AcDbArc
 50
343.786213258901
 51
59.11588202585634
  0
ARC
  5
11D5
330
1E
100
AcDbEntity
  8
0
100
AcDbCircle
 10
7.659243368923569
 20
12.94346314857997
 30
0.0
 40
0.3
100
AcDbArc
 50
196.213786741099
 51
210.6218476449434
  0
ARC
  5
11D6
330
1E
100
AcDbEntity
  8
0
100
AcDbCircle
 10
6.104491980762077
 20
13.59824304582574
 30
0.0
 40
0.125
100
AcDbArc
 50
214.3241612918685
 51
315.2820058643696
  0
LINE
  5
11D8
330
1E
100
AcDbEntity
  8
0
100
AcDbLine
 10
6.193314297368829
 20
13.51029080837492
 30
0.0
 11
6.27014331727338
 21
13.58787986953284
 31
0.0
  0
ARC
  5
11D9
330
1E
100
AcDbEntity
  8
0
100
AcDbCircle
 10
7.76359123957053
 20
13.01228554240235
 30
0.0
 40
0.225
100
AcDbArc
 50
33.40675419485633
 51
51.9543653143155
  0
ARC
  5
11DA
330
1E
100
AcDbEntity
  8
0
100
AcDbCircle
 10
7.756213151652048
 20
13.59824304582577
 30
0.0
 40
0.125
100
AcDbArc
 50
224.7179941356442
 51
325.6758387081356
  0
ARC
  5
11DC
330
1E
100
AcDbEntity
  8
0
100
AcDbCircle
 10
7.76359123957053
 20
13.01228554240235
 30
0.0
 40
0.3
100
AcDbArc
 50
33.40675419485633
 51
50.59972164859586
  0
LINE
  5
11DE
330
1E
100
AcDbEntity
  8
0
100
AcDbLine
 10
7.667390835045325
 20
13.51029080837492
 30
0.0
 11
7.590561815140745
 21
13.58787986953284
 31
0.0
  0
LINE
  5
11DF
330
1E
100
AcDbEntity
  8
0
100
AcDbLine
 10
8.305370214407077
 20
13.92664359892058
 30
0.0
 11
8.305352747107094
 21
13.9271174054206
 31
0.0
  0
LINE
  5
11E0
330
1E
100
AcDbEntity
  8
0
100
AcDbLine
 10
8.305367275507109
 20
13.92672331872058
 30
0.0
 11
8.305370214507065
 21
13.92664359702059
 31
0.0
  0
LINE
  5
11E2
330
1E
100
AcDbEntity
  8
0
100
AcDbLine
 10
7.018333746049661
 20
16.8386511879214
 30
0.0
 11
7.907174930251522
 21
14.16211740542059
 31
0.0
  0
LINE
  5
11E3
330
1E
100
AcDbEntity
  8
0
100
AcDbLine
 10
5.555352566207091
 20
14.16211740542059
 30
0.0
 11
8.30535256620712
 21
14.16211740542059
 31
0.0
  0
LINE
  5
11E4
330
1E
100
AcDbEntity
  8
0
100
AcDbLine
 10
6.867852566207006
 20
16.99623256155547
 30
0.0
 11
6.867852566207048
 21
17.32223149335474
 31
0.0
  0
LINE
  5
11E5
330
1E
100
AcDbEntity
  8
0
100
AcDbLine
 10
6.992852566206764
 20
17.29634314570613
 30
0.0
 11
6.99285256620675
 21
16.99623256155651
 31
0.0
  0
LINE
  5
11E6
330
1E
100
AcDbEntity
  8
0
100
AcDbLine
 10
5.953530202177863
 20
14.16211740542059
 30
0.0
 11
6.842371386364093
 21
16.83865118792039
 31
0.0
  0
ARC
  5
11E7
330
1E
100
AcDbEntity
  8
0
100
AcDbCircle
 10
5.352852566207019
 20
14.32836345800526
 30
0.0
 40
0.187
100
AcDbArc
 50
312.9858860802076
 51
0.0
  0
ARC
  5
11E8
330
1E
100
AcDbEntity
  8
0
100
AcDbCircle
 10
5.352852566207019
 20
14.45336345800526
 30
0.0
 40
0.187
100
AcDbArc
 50
0.0
 51
47.01411391979238
  0
LINE
  5
11E9
330
1E
100
AcDbEntity
  8
0
100
AcDbLine
 10
5.539852566207017
 20
14.42211345800524
 30
0.0
 11
5.539852566207017
 21
14.35961345800524
 31
0.0
  0
LINE
  5
11EA
330
1E
100
AcDbEntity
  8
0
100
AcDbLine
 10
5.555352566207063
 20
14.16211740542057
 30
0.0
 11
5.555352566207063
 21
15.48898012721216
 31
0.0
  0
LINE
  5
11EC
330
1E
100
AcDbEntity
  8
0
 62
     3
100
AcDbLine
 10
5.55533507100705
 20
14.16119822082061
 30
0.0
 11
5.555352566207034
 21
14.16211647592058
 31
0.0
  0
LINE
  5
11ED
330
1E
100
AcDbEntity
  8
0
 62
     3
100
AcDbLine
 10
5.555352566207091
 20
14.1621164758206
 30
0.0
 11
5.555335071007079
 21
14.16119821922058
 31
0.0
  0
ARC
  5
11F0
330
1E
100
AcDbEntity
  8
0
100
AcDbCircle
 10
6.367852566206983
 20
16.9962325615555
 30
0.0
 40
0.5000000000000241
100
AcDbArc
 50
341.6293610254274
 51
359.9999999999968
  0
ARC
  5
11F1
330
1E
100
AcDbEntity
  8
0
100
AcDbCircle
 10
7.492852566206759
 20
16.99623256155651
 30
0.0
 40
0.5000000000000098
100
AcDbArc
 50
180.0
 51
198.3706389745726
  0
LINE
  5
11F2
330
1E
100
AcDbEntity
  8
0
100
AcDbLine
 10
7.017170522239937
 20
18.41441110173943
 30
0.0
 11
6.736840436350022
 21
18.69474118762935
 31
0.0
  0
ARC
  5
11F3
330
1E
100
AcDbEntity
  8
0
100
AcDbCircle
 10
7.02410256620702
 20
18.98200331748637
 30
0.0
 40
0.4062499999999684
100
AcDbArc
 50
179.9999999999959
 51
225.0000000000028
  0
LINE
  5
11F4
330
1E
100
AcDbEntity
  8
0
100
AcDbLine
 10
6.617852566207048
 20
18.9820033174864
 30
0.0
 11
6.617852566207048
 21
19.32223149335474
 31
0.0
  0
ARC
  5
11F5
330
1E
100
AcDbEntity
  8
0
100
AcDbCircle
 10
7.02410256620702
 20
19.32223149335476
 30
0.0
 40
0.4062499999999711
100
AcDbArc
 50
134.9999999999972
 51
180.0000000000041
  0
LINE
  5
11F6
330
1E
100
AcDbEntity
  8
0
100
AcDbLine
 10
6.736840436350022
 20
19.60949362321179
 30
0.0
 11
7.017170522239908
 21
19.88982370910168
 31
0.0
  0
ARC
  5
11F7
330
1E
100
AcDbEntity
  8
0
100
AcDbCircle
 10
6.774102566207077
 20
20.13289166513455
 30
0.0
 40
0.343749999999967
100
AcDbArc
 50
314.9999999999949
 51
0.0000000000024427
  0
LINE
  5
11F8
330
1E
100
AcDbEntity
  8
0
100
AcDbLine
 10
7.117852566207048
 20
20.13289166513457
 30
0.0
 11
7.117852566207048
 21
20.4213431457066
 31
0.0
  0
ARC
  5
11F9
330
1E
100
AcDbEntity
  8
0
100
AcDbCircle
 10
7.274102566207084
 20
17.32223149335475
 30
0.0
 40
0.4062500000000355
100
AcDbArc
 50
135.0000000000032
 51
180.0000000000016
  0
LINE
  5
11FA
330
1E
100
AcDbEntity
  8
0
100
AcDbLine
 10
6.986840436350008
 20
17.60949362321179
 30
0.0
 11
7.017170522239951
 21
17.63982370910171
 31
0.0
  0
ARC
  5
11FB
330
1E
100
AcDbEntity
  8
0
100
AcDbCircle
 10
6.774102566207079
 20
17.88289166513454
 30
0.0
 40
0.3437499999999666
100
AcDbArc
 50
315.0000000000051
 51
0.0
  0
LINE
  5
11FC
330
1E
100
AcDbEntity
  8
0
100
AcDbLine
 10
7.117852566207048
 20
17.88289166513454
 30
0.0
 11
7.117852566207048
 21
18.17134314570657
 31
0.0
  0
ARC
  5
11FD
330
1E
100
AcDbEntity
  8
0
100
AcDbCircle
 10
6.774102566207002
 20
18.17134314570656
 30
0.0
 40
0.3437500000000457
100
AcDbArc
 50
0.0000000000032569
 51
44.99999999999367
  0
ARC
  5
11FE
330
1E
100
AcDbEntity
  8
0
100
AcDbCircle
 10
7.336602566206732
 20
17.29634314570613
 30
0.0
 40
0.343749999999966
100
AcDbArc
 50
134.9999999999983
 51
180.0
  0
LINE
  5
11FF
330
1E
100
AcDbEntity
  8
0
100
AcDbLine
 10
7.123864696063791
 20
17.56974118762891
 30
0.0
 11
7.09353461017389
 21
17.53941110173899
 31
0.0
  0
ARC
  5
1200
330
1E
100
AcDbEntity
  8
0
100
AcDbCircle
 10
6.836602566206638
 20
17.85700331748596
 30
0.0
 40
0.4062500000000964
100
AcDbArc
 50
315.0000000000098
 51
0.0000000000081422
  0
LINE
  5
1201
330
1E
100
AcDbEntity
  8
0
100
AcDbLine
 10
7.242852566206736
 20
18.19723149335455
 30
0.0
 11
7.242852566206736
 21
17.85700331748602
 31
0.0
  0
ARC
  5
1202
330
1E
100
AcDbEntity
  8
0
100
AcDbCircle
 10
6.83660256620667
 20
18.19723149335454
 30
0.0
 40
0.4062500000000645
100
AcDbArc
 50
0.0000000000016284
 51
44.99999999999223
  0
LINE
  5
1203
330
1E
100
AcDbEntity
  8
0
100
AcDbLine
 10
6.843534610173848
 20
18.76482370910149
 30
0.0
 11
7.123864696063791
 21
18.48449362321158
 31
0.0
  0
ARC
  5
1204
330
1E
100
AcDbEntity
  8
0
100
AcDbCircle
 10
7.086602566206775
 20
19.00789166513441
 30
0.0
 40
0.343750000000068
100
AcDbArc
 50
180.0000000000098
 51
224.9999999999984
  0
LINE
  5
1205
330
1E
100
AcDbEntity
  8
0
100
AcDbLine
 10
6.742852566206707
 20
19.29634314570613
 30
0.0
 11
6.742852566206707
 21
19.00789166513435
 31
0.0
  0
ARC
  5
1206
330
1E
100
AcDbEntity
  8
0
100
AcDbCircle
 10
7.086602566206631
 20
19.29634314570609
 30
0.0
 40
0.3437499999999243
100
AcDbArc
 50
134.9999999999947
 51
179.9999999999927
  0
LINE
  5
1207
330
1E
100
AcDbEntity
  8
0
100
AcDbLine
 10
7.123864696063791
 20
19.81974118762895
 30
0.0
 11
6.843534610173833
 21
19.53941110173894
 31
0.0
  0
ARC
  5
1208
330
1E
100
AcDbEntity
  8
0
100
AcDbCircle
 10
6.836602566206695
 20
20.10700331748602
 30
0.0
 40
0.4062500000000684
100
AcDbArc
 50
315.0000000000027
 51
359.9999999999919
  0
LINE
  5
1209
330
1E
100
AcDbEntity
  8
0
100
AcDbLine
 10
7.242852566206707
 20
20.44723149335452
 30
0.0
 11
7.242852566206764
 21
20.10700331748596
 31
0.0
  0
CIRCLE
  5
120A
330
1E
100
AcDbEntity
  8
0
100
AcDbCircle
 10
6.680352566207063
 20
18.02711740542057
 30
0.0
 40
0.1325
  0
CIRCLE
  5
120B
330
1E
100
AcDbEntity
  8
0
100
AcDbCircle
 10
7.180352566207063
 20
19.15211740542057
 30
0.0
 40
0.1325
  0
CIRCLE
  5
120C
330
1E
100
AcDbEntity
  8
0
100
AcDbCircle
 10
6.680352566207063
 20
20.27711740542057
 30
0.0
 40
0.1325
  0
CIRCLE
  5
120D
330
1E
100
AcDbEntity
  8
0
100
AcDbCircle
 10
6.117852566207063
 20
19.15211740542057
 30
0.0
 40
0.1325
  0
ARC
  5
120E
330
1E
100
AcDbEntity
  8
0
100
AcDbCircle
 10
8.507852566207106
 20
14.32836345800526
 30
0.0
 40
0.187
100
AcDbArc
 50
180.0
 51
227.0141139197924
  0
ARC
  5
120F
330
1E
100
AcDbEntity
  8
0
100
AcDbCircle
 10
8.507852566207106
 20
14.45336345800526
 30
0.0
 40
0.187
100
AcDbArc
 50
132.9858860802076
 51
180.0
  0
LINE
  5
1210
330
1E
100
AcDbEntity
  8
0
100
AcDbLine
 10
8.320852566207108
 20
14.42211345800524
 30
0.0
 11
8.320852566207108
 21
14.35961345800524
 31
0.0
  0
LINE
  5
1211
330
1E
100
AcDbEntity
  8
0
100
AcDbLine
 10
8.305352566207063
 20
14.16211740542057
 30
0.0
 11
8.305352566207063
 21
15.48898012721216
 31
0.0
  0
LINE
  5
1212
330
1E
100
AcDbEntity
  8
0
100
AcDbLine
 10
8.245852566207105
 20
14.45336345800524
 30
0.0
 11
8.245852566207105
 21
14.32836345800524
 31
0.0
  0
LINE
  5
1213
330
1E
100
AcDbEntity
  8
0
 62
     3
100
AcDbLine
 10
8.305370061407047
 20
14.16119822082061
 30
0.0
 11
8.30535256620712
 21
14.16211647592058
 31
0.0
  0
ARC
  5
1214
330
1E
100
AcDbEntity
  8
0
100
AcDbCircle
 10
8.507852566207102
 20
14.45336345800526
 30
0.0
 40
0.2619999999999996
100
AcDbArc
 50
140.6150942955349
 51
179.9999999999996
  0
ARC
  5
1215
330
1E
100
AcDbEntity
  8
0
100
AcDbCircle
 10
8.507852566207102
 20
14.32836345800526
 30
0.0
 40
0.2619999999999969
100
AcDbArc
 50
180.0000000000004
 51
219.3849057044642
  0
CIRCLE
  5
1216
330
1E
100
AcDbEntity
  8
0
100
AcDbCircle
 10
7.742852566207063
 20
18.02711740542057
 30
0.0
 40
0.1325
  0
CIRCLE
  5
1217
330
1E
100
AcDbEntity
  8
0
100
AcDbCircle
 10
7.742852566207063
 20
20.27711740542057
 30
0.0
 40
0.1325
  0
LINE
  5
121B
330
1E
100
AcDbEntity
  8
0
100
AcDbLine
 10
6.617852566207048
 20
21.23200331748643
 30
0.0
 11
6.617852566207077
 21
21.57223149335474
 31
0.0
  0
ARC
  5
121C
330
1E
100
AcDbEntity
  8
0
100
AcDbCircle
 10
7.024102566207079
 20
21.57223149335476
 30
0.0
 40
0.4062500000000018
100
AcDbArc
 50
134.9999999999985
 51
180.0000000000041
  0
LINE
  5
121D
330
1E
100
AcDbEntity
  8
0
100
AcDbLine
 10
6.73684043635005
 20
21.8594936232118
 30
0.0
 11
7.01717052223988
 21
22.13982370910165
 31
0.0
  0
ARC
  5
121E
330
1E
100
AcDbEntity
  8
0
100
AcDbCircle
 10
6.77410256620696
 20
22.38289166513455
 30
0.0
 40
0.3437500000000461
100
AcDbArc
 50
315.000000000003
 51
359.9999999999992
  0
LINE
  5
121F
330
1E
100
AcDbEntity
  8
0
100
AcDbLine
 10
7.117852566207006
 20
22.38289166513454
 30
0.0
 11
7.117852566207048
 21
22.67134314570657
 31
0.0
  0
ARC
  5
1220
330
1E
100
AcDbEntity
  8
0
100
AcDbCircle
 10
6.77410256620708
 20
22.67134314570662
 30
0.0
 40
0.3437499999999689
100
AcDbArc
 50
359.9999999999927
 51
44.99999999999842
  0
LINE
  5
1221
330
1E
100
AcDbEntity
  8
0
100
AcDbLine
 10
7.017170522239937
 20
22.91441110173946
 30
0.0
 11
6.736840436350022
 21
23.19474118762935
 31
0.0
  0
ARC
  5
1222
330
1E
100
AcDbEntity
  8
0
100
AcDbCircle
 10
7.024102566207123
 20
23.4820033174864
 30
0.0
 40
0.4062500000000607
100
AcDbArc
 50
180.0
 51
224.9999999999957
  0
LINE
  5
1223
330
1E
100
AcDbEntity
  8
0
100
AcDbLine
 10
7.017170522239923
 20
20.66441110173949
 30
0.0
 11
6.736840436350008
 21
20.94474118762932
 31
0.0
  0
ARC
  5
1224
330
1E
100
AcDbEntity
  8
0
100
AcDbCircle
 10
7.024102566207061
 20
21.23200331748636
 30
0.0
 40
0.4062500000000121
100
AcDbArc
 50
179.9999999999886
 51
224.9999999999982
  0
LINE
  5
1225
330
1E
100
AcDbEntity
  8
0
100
AcDbLine
 10
6.617852566207063
 20
23.4820033174864
 30
0.0
 11
6.617852566207055
 21
23.66397948895045
 31
0.0
  0
LINE
  5
1226
330
1E
100
AcDbEntity
  8
0
100
AcDbLine
 10
6.843534610173848
 20
21.01482370910152
 30
0.0
 11
7.123864696063748
 21
20.73449362321155
 31
0.0
  0
ARC
  5
1227
330
1E
100
AcDbEntity
  8
0
100
AcDbCircle
 10
7.086602566206697
 20
21.25789166513441
 30
0.0
 40
0.3437499999999893
100
AcDbArc
 50
180.0000000000098
 51
225.0000000000049
  0
LINE
  5
1228
330
1E
100
AcDbEntity
  8
0
100
AcDbLine
 10
6.742852566206764
 20
21.54634314570613
 30
0.0
 11
6.742852566206707
 21
21.25789166513435
 31
0.0
  0
ARC
  5
1229
330
1E
100
AcDbEntity
  8
0
100
AcDbCircle
 10
7.086602566206688
 20
21.54634314570609
 30
0.0
 40
0.3437499999999243
100
AcDbArc
 50
134.9999999999947
 51
179.9999999999927
  0
LINE
  5
122A
330
1E
100
AcDbEntity
  8
0
100
AcDbLine
 10
7.123864696063848
 20
22.06974118762894
 30
0.0
 11
6.84353461017389
 21
21.78941110173894
 31
0.0
  0
ARC
  5
122B
330
1E
100
AcDbEntity
  8
0
100
AcDbCircle
 10
6.836602566206931
 20
22.35700331748593
 30
0.0
 40
0.4062499999998885
100
AcDbArc
 50
314.9999999999916
 51
0.0000000000040711
  0
LINE
  5
122C
330
1E
100
AcDbEntity
  8
0
100
AcDbLine
 10
7.242852566206707
 20
22.69723149335448
 30
0.0
 11
7.242852566206821
 21
22.35700331748596
 31
0.0
  0
ARC
  5
122D
330
1E
100
AcDbEntity
  8
0
100
AcDbCircle
 10
6.836602566206674
 20
22.69723149335447
 30
0.0
 40
0.4062500000000325
100
AcDbArc
 50
0.0000000000016284
 51
44.99999999999367
  0
LINE
  5
122E
330
1E
100
AcDbEntity
  8
0
100
AcDbLine
 10
6.843534610173848
 20
23.26482370910149
 30
0.0
 11
7.123864696063762
 21
22.98449362321149
 31
0.0
  0
ARC
  5
122F
330
1E
100
AcDbEntity
  8
0
100
AcDbCircle
 10
7.086602566206775
 20
23.50789166513441
 30
0.0
 40
0.343750000000068
100
AcDbArc
 50
180.0000000000098
 51
224.9999999999984
  0
LINE
  5
1230
330
1E
100
AcDbEntity
  8
0
100
AcDbLine
 10
6.742852566206707
 20
23.66397948895046
 30
0.0
 11
6.742852566206707
 21
23.50789166513435
 31
0.0
  0
CIRCLE
  5
1231
330
1E
100
AcDbEntity
  8
0
100
AcDbCircle
 10
7.180352566207063
 20
21.40211740542057
 30
0.0
 40
0.1325
  0
CIRCLE
  5
1232
330
1E
100
AcDbEntity
  8
0
100
AcDbCircle
 10
6.680352566207063
 20
22.52711740542057
 30
0.0
 40
0.1325
  0
CIRCLE
  5
1234
330
1E
100
AcDbEntity
  8
0
100
AcDbCircle
 10
6.117852566207063
 20
21.40211740542057
 30
0.0
 40
0.1325
  0
CIRCLE
  5
1246
330
1E
100
AcDbEntity
  8
0
100
AcDbCircle
 10
7.742852566207063
 20
22.52711740542057
 30
0.0
 40
0.1325
  0
LINE
  5
1248
330
1E
100
AcDbEntity
  8
0
100
AcDbLine
 10
15.02493289241017
 20
23.66397948895046
 30
0.0
 11
14.29868121254108
 21
17.74913421419801
 31
0.0
  0
LINE
  5
1249
330
1E
100
AcDbEntity
  8
0
100
AcDbLine
 10
16.37474167372402
 20
23.66397948895046
 30
0.0
 11
16.374741673724
 21
12.92211740542059
 31
0.0
  0
LINE
  5
124A
330
1E
100
AcDbEntity
  8
0
  6
HIDDEN
100
AcDbLine
 10
16.29974167372404
 20
23.66397948895046
 30
0.0
 11
16.29974167372401
 21
12.92211740542059
 31
0.0
  0
ARC
  5
124B
330
1E
100
AcDbEntity
  8
0
100
AcDbCircle
 10
16.16474167372402
 20
12.92211740542059
 30
0.0
 40
0.21
100
AcDbArc
 50
270.0
 51
0.0
  0
ARC
  5
124C
330
1E
100
AcDbEntity
  8
0
  6
HIDDEN
100
AcDbCircle
 10
16.16474167372402
 20
12.92211740542059
 30
0.0
 40
0.135
100
AcDbArc
 50
270.0
 51
0.0
  0
LINE
  5
124E
330
1E
100
AcDbEntity
  8
0
  6
HIDDEN
100
AcDbLine
 10
15.53563165293872
 20
13.92710884652058
 30
0.0
 11
15.53563165293872
 21
14.16210884652058
 31
0.0
  0
LINE
  5
124F
330
1E
100
AcDbEntity
  8
0
  6
HIDDEN
100
AcDbLine
 10
14.59813165293872
 20
13.92710884652058
 30
0.0
 11
14.59813165293872
 21
14.16210884652058
 31
0.0
  0
ARC
  5
1250
330
1E
100
AcDbEntity
  8
0
  6
HIDDEN
100
AcDbCircle
 10
15.56688165293872
 20
13.67710884652058
 30
0.0
 40
0.485
100
AcDbArc
 50
0.0
 51
90.0
  0
ARC
  5
1251
330
1E
100
AcDbEntity
  8
0
  6
HIDDEN
100
AcDbCircle
 10
14.56688165293872
 20
13.67710884652058
 30
0.0
 40
0.485
100
AcDbArc
 50
90.0
 51
180.0
  0
LINE
  5
1252
330
1E
100
AcDbEntity
  8
0
  6
HIDDEN
100
AcDbLine
 10
15.56688165293872
 20
13.92710884652058
 30
0.0
 11
14.56688165293872
 21
13.92710884652058
 31
0.0
  0
LINE
  5
1253
330
1E
100
AcDbEntity
  8
0
100
AcDbLine
 10
16.16474167372402
 20
12.71211740542057
 30
0.0
 11
13.06244167372404
 21
12.71211740542061
 31
0.0
  0
LINE
  5
1254
330
1E
100
AcDbEntity
  8
0
  6
HIDDEN
100
AcDbLine
 10
16.16474167372402
 20
12.78711740542057
 30
0.0
 11
13.06244167372404
 21
12.78711740542062
 31
0.0
  0
LINE
  5
1255
330
1E
100
AcDbEntity
  8
0
  6
HIDDEN
100
AcDbLine
 10
14.08188165293871
 20
13.67710884582058
 30
0.0
 11
14.31688165293872
 21
13.67710884582058
 31
0.0
  0
LINE
  5
1257
330
1E
100
AcDbEntity
  8
0
  6
HIDDEN
100
AcDbLine
 10
14.31688165293872
 20
13.67710884652058
 30
0.0
 11
14.31688165293872
 21
12.78711740542057
 31
0.0
  0
LINE
  5
1258
330
1E
100
AcDbEntity
  8
0
  6
HIDDEN
100
AcDbLine
 10
14.08188165293871
 20
13.67710884652058
 30
0.0
 11
14.08188165293871
 21
12.78711740542057
 31
0.0
  0
ARC
  5
1259
330
1E
100
AcDbEntity
  8
0
  6
HIDDEN
100
AcDbCircle
 10
14.56688165293872
 20
13.67710884652058
 30
0.0
 40
0.25
100
AcDbArc
 50
90.0
 51
180.0
  0
LINE
  5
125C
330
1E
100
AcDbEntity
  8
0
100
AcDbLine
 10
14.49724167372406
 20
12.71211740542059
 30
0.0
 11
14.49724167372401
 21
12.78711740542059
 31
0.0
  0
LINE
  5
1262
330
1E
100
AcDbEntity
  8
0
  6
HIDDEN
100
AcDbLine
 10
16.0518816529387
 20
13.67710884582058
 30
0.0
 11
15.81688165293872
 21
13.67710884582058
 31
0.0
  0
LINE
  5
1264
330
1E
100
AcDbEntity
  8
0
  6
HIDDEN
100
AcDbLine
 10
16.0518816529387
 20
13.67710884652058
 30
0.0
 11
16.0518816529387
 21
12.78711740542057
 31
0.0
  0
LINE
  5
1265
330
1E
100
AcDbEntity
  8
0
  6
HIDDEN
100
AcDbLine
 10
15.81688165293872
 20
13.67710884652058
 30
0.0
 11
15.81688165293872
 21
12.78711740542057
 31
0.0
  0
ARC
  5
1266
330
1E
100
AcDbEntity
  8
0
  6
HIDDEN
100
AcDbCircle
 10
15.56688165293872
 20
13.67710884652058
 30
0.0
 40
0.25
100
AcDbArc
 50
0.0
 51
90.0
  0
LINE
  5
1267
330
1E
100
AcDbEntity
  8
0
100
AcDbLine
 10
15.62224167372401
 20
12.71211740542057
 30
0.0
 11
15.62224167372401
 21
12.78711740542059
 31
0.0
  0
LINE
  5
1268
330
1E
100
AcDbEntity
  8
0
  6
HIDDEN
100
AcDbLine
 10
15.56688165293872
 20
14.16210884652058
 30
0.0
 11
14.56688165293872
 21
14.16210884652058
 31
0.0
  0
ARC
  5
1269
330
1E
100
AcDbEntity
  8
0
100
AcDbCircle
 10
12.31358890925848
 20
17.9928729010083
 30
0.0
 40
1.999999999999958
100
AcDbArc
 50
341.6293610254258
 51
352.9999999999998
  0
LINE
  5
126C
330
1E
100
AcDbEntity
  8
0
100
AcDbLine
 10
16.37474167372402
 20
23.66397948895046
 30
0.0
 11
15.02493289241017
 21
23.66397948895046
 31
0.0
  0
ARC
  5
127D
330
1E
100
AcDbEntity
  8
0
100
AcDbCircle
 10
8.507870061407086
 20
14.45244427340527
 30
0.0
 40
0.2619999999999996
100
AcDbArc
 50
119.1200568327365
 51
140.6150942955354
  0
ARC
  5
127E
330
1E
100
AcDbEntity
  8
0
100
AcDbCircle
 10
8.507870061407086
 20
14.32744427340527
 30
0.0
 40
0.2619999999999969
100
AcDbArc
 50
219.384905704464
 51
240.5485520109477
  0
ARC
  5
1280
330
1E
100
AcDbEntity
  8
0
100
AcDbCircle
 10
5.352835071007124
 20
14.45244427340527
 30
0.0
 40
0.2619999999999996
100
AcDbArc
 50
39.3849057044646
 51
60.87994316726351
  0
ARC
  5
1281
330
1E
100
AcDbEntity
  8
0
100
AcDbCircle
 10
5.352852566207108
 20
14.45336345800526
 30
0.0
 40
0.2619999999999996
100
AcDbArc
 50
0.0000000000003887
 51
39.38490570446513
  0
LINE
  5
1282
330
1E
100
AcDbEntity
  8
0
100
AcDbLine
 10
5.614852566207105
 20
14.45336345800524
 30
0.0
 11
5.614852566207105
 21
14.32836345800524
 31
0.0
  0
ARC
  5
1283
330
1E
100
AcDbEntity
  8
0
100
AcDbCircle
 10
5.352852566207108
 20
14.32836345800526
 30
0.0
 40
0.2619999999999969
100
AcDbArc
 50
320.6150942955358
 51
359.9999999999996
  0
ARC
  5
1284
330
1E
100
AcDbEntity
  8
0
100
AcDbCircle
 10
5.352835071007124
 20
14.32744427340527
 30
0.0
 40
0.2619999999999969
100
AcDbArc
 50
299.4514479890523
 51
320.6150942955361
  0
ARC
  5
1286
330
1E
100
AcDbEntity
  8
0
100
AcDbCircle
 10
6.201461763490558
 20
12.94346314857997
 30
0.0
 40
0.225
100
AcDbArc
 50
326.5932458051603
 51
345.1408569246205
  0
ARC
  5
1287
330
1E
100
AcDbEntity
  8
0
100
AcDbCircle
 10
6.201461763490558
 20
12.94346314857997
 30
0.0
 40
0.3
100
AcDbArc
 50
329.3781523550567
 51
343.786213258901
  0
ARC
  5
1288
330
1E
100
AcDbEntity
  8
0
100
AcDbCircle
 10
6.097113892843597
 20
13.01228554240235
 30
0.0
 40
0.3
100
AcDbArc
 50
129.4002783514042
 51
146.5932458051437
  0
ARC
  5
1289
330
1E
100
AcDbEntity
  8
0
100
AcDbCircle
 10
6.097113892843597
 20
13.01228554240235
 30
0.0
 40
0.225
100
AcDbArc
 50
128.0456346856845
 51
146.5932458051437
  0
ARC
  5
128A
330
1E
100
AcDbEntity
  8
0
100
AcDbCircle
 10
7.763591239570532
 20
13.01228554240235
 30
0.0
 40
0.3
100
AcDbArc
 50
50.599721648596
 51
125.9293904155479
  0
ARC
  5
128B
330
1E
100
AcDbEntity
  8
0
100
AcDbCircle
 10
7.763591239570532
 20
13.01228554240235
 30
0.0
 40
0.225
100
AcDbArc
 50
51.95436531431596
 51
125.9293904155479
  0
ARC
  5
128C
330
1E
100
AcDbEntity
  8
0
100
AcDbCircle
 10
7.659243368923571
 20
12.94346314857997
 30
0.0
 40
0.3
100
AcDbArc
 50
120.8841179741437
 51
196.213786741099
  0
ARC
  5
128D
330
1E
100
AcDbEntity
  8
0
100
AcDbCircle
 10
7.659243368923571
 20
12.94346314857997
 30
0.0
 40
0.225
100
AcDbArc
 50
120.8841179741437
 51
194.8591430753796
  0
ARC
  5
128E
330
1E
100
AcDbEntity
  8
0
100
AcDbCircle
 10
6.930352566207064
 20
14.16211740542057
 30
0.0
 40
1.12
100
AcDbArc
 50
300.8841179741418
 51
305.9293904155523
  0
ARC
  5
128F
330
1E
100
AcDbEntity
  8
0
100
AcDbCircle
 10
6.930352566207064
 20
14.16211740542057
 30
0.0
 40
1.195
100
AcDbArc
 50
300.8841179741418
 51
305.9293904155523
  0
CIRCLE
  5
13BE
330
1E
100
AcDbEntity
  8
0
100
AcDbCircle
 10
15.29974167372406
 20
14.39086345800524
 30
0.0
 40
0.1992945539851405
  0
CIRCLE
  5
13C5
330
1E
100
AcDbEntity
  8
0
100
AcDbCircle
 10
15.29974167372406
 20
14.39086345800524
 30
0.0
 40
0.1489496572372531
  0
LINE
  5
17D1
330
1E
100
AcDbEntity
  8
0
100
AcDbLine
 10
5.480352566207049
 20
23.66397948895046
 30
0.0
 11
6.617852566207054
 21
23.66397948895046
 31
0.0
  0
LINE
  5
17D2
330
1E
100
AcDbEntity
  8
0
100
AcDbLine
 10
6.742852566206707
 20
23.66397948895046
 30
0.0
 11
8.380352566207078
 21
23.66397948895046
 31
0.0
  0
LINE
  5
198F
330
1E
100
AcDbEntity
  8
0
100
AcDbLine
 10
14.21166418988677
 20
17.36254740646784
 30
0.0
 11
13.08792285356695
 21
13.93219877905572
 31
0.0
  0
LINE
  5
1A11
330
1E
100
AcDbEntity
  8
0
100
AcDbLine
 10
13.06244167372404
 20
12.71211740542061
 30
0.0
 11
13.06244167372404
 21
13.77461740542061
 31
0.0
  0
LINE
  5
1A13
330
1E
100
AcDbEntity
  8
0
  6
HIDDEN
100
AcDbLine
 10
14.08188165293871
 20
13.67710884652058
 30
0.0
 11
14.08188165293871
 21
12.78711740542057
 31
0.0
  0
ARC
  5
1A1E
330
1E
100
AcDbEntity
  8
0
100
AcDbCircle
 10
13.81349167372363
 20
12.88928554240238
 30
0.0
 40
0.2875
100
AcDbArc
 50
4.371830798164571
 51
175.6281692018354
  0
ARC
  5
1A1F
330
1E
100
AcDbEntity
  8
0
100
AcDbCircle
 10
13.81349167372363
 20
12.93311711537173
 30
0.0
 40
0.1875
100
AcDbArc
 50
186.7123144673349
 51
353.2876855326651
  0
ARC
  5
1A20
330
1E
100
AcDbEntity
  8
0
100
AcDbCircle
 10
13.81349167372363
 20
12.88928554240238
 30
0.0
 40
0.1875
100
AcDbArc
 50
6.7123144673341
 51
173.2876855326667
  0
ARC
  5
1A21
330
1E
100
AcDbEntity
  8
0
100
AcDbCircle
 10
13.81349167372363
 20
12.93311711537173
 30
0.0
 40
0.2875
100
AcDbArc
 50
184.3718307981646
 51
230.2368132403833
  0
ARC
  5
1A22
330
1E
100
AcDbEntity
  8
0
100
AcDbCircle
 10
13.81349167372363
 20
12.93311711537173
 30
0.0
 40
0.2875
100
AcDbArc
 50
309.7631867596155
 51
355.6281692018354
  0
ARC
  5
1A24
330
1E
100
AcDbEntity
  8
0
100
AcDbCircle
 10
13.56244167372404
 20
13.77461740542061
 30
0.0
 40
0.5
100
AcDbArc
 50
161.6293610254266
 51
180.0
  0
CIRCLE
  5
1AC2
330
1E
100
AcDbEntity
  8
0
100
AcDbCircle
 10
15.29974167372408
 20
19.83961740542019
 30
0.0
 40
0.3435
  0
LINE
  5
1B6C
330
1E
100
AcDbEntity
  8
0
100
AcDbLine
 10
8.000667055603319
 20
30.50450064634902
 30
0.0
 11
6.000667055603323
 21
30.50450064634902
 31
0.0
  0
ELLIPSE
  5
1B6D
330
1E
100
AcDbEntity
  8
0
100
AcDbEllipse
 10
7.775028247176994
 20
27.72325064634902
 30
0.0
 11
0.0
 21
-0.34375
 31
0.0
210
0.0
220
0.0
230
1.0
 40
0.8181818181818156
 41
0.0
 42
6.283185307179586
  0
ELLIPSE
  5
1B6E
330
1E
100
AcDbEntity
  8
0
100
AcDbEllipse
 10
7.775028247176994
 20
27.72325064634902
 30
0.0
 11
0.0
 21
-0.2578125
 31
0.0
210
0.0
220
0.0
230
1.0
 40
0.8181818181818156
 41
0.0
 42
6.283185307179586
  0
ELLIPSE
  5
1B6F
330
1E
100
AcDbEntity
  8
0
100
AcDbEllipse
 10
6.226305864029659
 20
27.72325064634902
 30
0.0
 11
0.0
 21
-0.2578125
 31
0.0
210
0.0
220
0.0
230
-1.0
 40
0.8181818181818156
 41
0.0
 42
6.283185307179586
  0
ELLIPSE
  5
1B70
330
1E
100
AcDbEntity
  8
0
100
AcDbEllipse
 10
6.226305864029659
 20
27.72325064634902
 30
0.0
 11
0.0
 21
-0.34375
 31
0.0
210
0.0
220
0.0
230
-1.0
 40
0.8181818181818156
 41
0.0
 42
6.283185307179586
  0
ARC
  5
1B71
330
1E
100
AcDbEntity
  8
0
100
AcDbCircle
 10
7.000667055603326
 20
29.25450064634902
 30
0.0
 40
0.5
100
AcDbArc
 50
0.0
 51
180.0
  0
ARC
  5
1B72
330
1E
100
AcDbEntity
  8
0
100
AcDbCircle
 10
7.000667055603326
 20
29.12950064634902
 30
0.0
 40
0.5
100
AcDbArc
 50
180.0
 51
0.0
  0
LINE
  5
1B73
330
1E
100
AcDbEntity
  8
0
100
AcDbLine
 10
5.550667055603324
 20
27.19200064634902
 30
0.0
 11
8.450667055603319
 21
27.19200064634902
 31
0.0
  0
CIRCLE
  5
1B74
330
1E
100
AcDbEntity
  8
0
100
AcDbCircle
 10
7.000667055603332
 20
29.19200064634902
 30
0.0
 40
0.34375
  0
LINE
  5
1B75
330
1E
100
AcDbEntity
  8
0
100
AcDbLine
 10
5.719798209903328
 20
30.12950064634902
 30
0.0
 11
8.281535901303322
 21
30.12950064634902
 31
0.0
  0
LINE
  5
1B76
330
1E
100
AcDbEntity
  8
0
  6
HIDDEN
100
AcDbLine
 10
5.719798209903328
 20
29.87950064634902
 30
0.0
 11
8.281535901303322
 21
29.87950064634902
 31
0.0
  0
LINE
  5
1B77
330
1E
100
AcDbEntity
  8
0
  6
HIDDEN
100
AcDbLine
 10
5.719798209903328
 20
28.37950064634902
 30
0.0
 11
8.281535901303322
 21
28.37950064634902
 31
0.0
  0
LINE
  5
1B78
330
1E
100
AcDbEntity
  8
0
100
AcDbLine
 10
5.719798209903328
 20
28.12950064634902
 30
0.0
 11
8.281535901303322
 21
28.12950064634902
 31
0.0
  0
LINE
  5
1B79
330
1E
100
AcDbEntity
  8
0
100
AcDbLine
 10
8.000667055603323
 20
30.42950064634901
 30
0.0
 11
6.000667055603326
 21
30.42950064634901
 31
0.0
  0
LWPOLYLINE
  5
1B7A
330
1E
100
AcDbEntity
  8
0
100
AcDbPolyline
 90
       10
 70
     0
 43
0.0
 10
5.625682929203325
 20
29.67000781574902
 10
5.625909349103328
 20
29.70878737444901
 10
5.626831887503325
 20
29.74502518364902
 10
5.629149389203324
 20
29.77802076344901
 10
5.633787195703324
 20
29.80764968094901
 10
5.641661742303324
 20
29.83283938944901
 10
5.653506970303322
 20
29.85283084714902
 10
5.670258590303323
 20
29.86756153834901
 10
5.692427650003321
 20
29.87653726644901
 10
5.719798209903328
 20
29.87950064634902
  0
LWPOLYLINE
  5
1B7B
330
1E
100
AcDbEntity
  8
0
100
AcDbPolyline
 90
       11
 70
     0
 43
0.0
 10
5.625667055603326
 20
29.63048928604901
 10
5.625682929203325
 20
29.71051498514902
 10
5.625909349103328
 20
29.78807410254902
 10
5.626831887503325
 20
29.86054972094902
 10
5.629149389203324
 20
29.92654088054901
 10
5.633787195703324
 20
29.98579871554902
 10
5.641661742303324
 20
30.03617813244902
 10
5.653506970303322
 20
30.07616104784901
 10
5.670258590303323
 20
30.10562243024901
 10
5.692427650003321
 20
30.12357388654901
 10
5.719798209903328
 20
30.12950064634902
  0
LINE
  5
1B7C
330
1E
100
AcDbEntity
  8
0
100
AcDbLine
 10
5.550667055603324
 20
27.19200064634902
 30
0.0
 11
5.550667055603324
 21
30.02012897244919
 31
0.0
  0
ARC
  5
1B7D
330
1E
100
AcDbEntity
  8
0
100
AcDbCircle
 10
6.000667055603323
 20
30.05450064634901
 30
0.0
 40
0.45
100
AcDbArc
 50
90.00000000000003
 51
180.0
  0
ARC
  5
1B7E
330
1E
100
AcDbEntity
  8
0
100
AcDbCircle
 10
6.000667055603326
 20
30.05450064634901
 30
0.0
 40
0.375
100
AcDbArc
 50
90.00000000000003
 51
180.0
  0
LINE
  5
1B7F
330
1E
100
AcDbEntity
  8
0
100
AcDbLine
 10
5.625667055603326
 20
27.19200064634902
 30
0.0
 11
5.625667055603326
 21
29.49200064634902
 31
0.0
  0
LWPOLYLINE
  5
1B80
330
1E
100
AcDbEntity
  8
0
100
AcDbPolyline
 90
       10
 70
     0
 43
0.0
 10
5.719798209903328
 20
28.37950064634902
 10
5.692427647103326
 20
28.38246402694902
 10
5.670258585803328
 20
28.39143975714902
 10
5.65350696540332
 20
28.40617045164901
 10
5.641661737803329
 20
28.42616191374901
 10
5.633787192203325
 20
28.45135162764902
 10
5.629149386903325
 20
28.48098055104901
 10
5.626831886303325
 20
28.51397613704902
 10
5.625909348703328
 20
28.55021395294902
 10
5.625682929103324
 20
28.58899351804902
  0
LWPOLYLINE
  5
1B81
330
1E
100
AcDbEntity
  8
0
100
AcDbPolyline
 90
       11
 70
     0
 43
0.0
 10
5.719798209903328
 20
28.12950064634902
 10
5.692427647103326
 20
28.13542740754901
 10
5.670258585803328
 20
28.15337886794901
 10
5.65350696540332
 20
28.18284025694901
 10
5.641661737803329
 20
28.22282318114901
 10
5.633787192203325
 20
28.27320260894901
 10
5.629149386903325
 20
28.33246045564901
 10
5.626831886303325
 20
28.39845162774902
 10
5.625909348703328
 20
28.47092725954902
 10
5.625682929103324
 20
28.54848638964901
 10
5.625667055603326
 20
28.62851209944902
  0
LINE
  5
1B82
330
1E
100
AcDbEntity
  8
0
  6
HIDDEN
100
AcDbLine
 10
5.695667154053329
 20
28.81012558954902
 30
0.0
 11
5.695667154053329
 21
29.44887558954902
 31
0.0
  0
ARC
  5
1B83
330
1E
100
AcDbEntity
  8
0
  6
HIDDEN
100
AcDbCircle
 10
5.680042154053329
 20
29.44887558954902
 30
0.0
 40
0.015625
100
AcDbArc
 50
359.9999999999998
 51
89.99999999999982
  0
LINE
  5
1B84
330
1E
100
AcDbEntity
  8
0
  6
HIDDEN
100
AcDbLine
 10
5.680042154053329
 20
29.46450058954902
 30
0.0
 11
5.625667055603326
 21
29.46450058954902
 31
0.0
  0
LINE
  5
1B85
330
1E
100
AcDbEntity
  8
0
100
AcDbLine
 10
5.625666860403324
 20
29.62950064634902
 30
0.0
 11
5.625667252603325
 21
29.63048928594902
 31
0.0
  0
LINE
  5
1B86
330
1E
100
AcDbEntity
  8
0
100
AcDbLine
 10
5.625667055603326
 20
29.46450058954902
 30
0.0
 11
5.625667055603326
 21
29.62950064634902
 31
0.0
  0
ARC
  5
1B87
330
1E
100
AcDbEntity
  8
0
  6
HIDDEN
100
AcDbCircle
 10
5.680042154053329
 20
28.81012558954902
 30
0.0
 40
0.015625
100
AcDbArc
 50
269.9999999999998
 51
359.9999999999998
  0
LINE
  5
1B88
330
1E
100
AcDbEntity
  8
0
  6
HIDDEN
100
AcDbLine
 10
5.625667055603326
 20
28.79450058954902
 30
0.0
 11
5.680042154053329
 21
28.79450058954902
 31
0.0
  0
LINE
  5
1B89
330
1E
100
AcDbEntity
  8
0
100
AcDbLine
 10
5.625667055603326
 20
28.62851209944902
 30
0.0
 11
5.625667055603326
 21
28.79450058954902
 31
0.0
  0
LINE
  5
1B8A
330
1E
100
AcDbEntity
  8
0
100
AcDbLine
 10
6.500667055603326
 20
29.25450064634902
 30
0.0
 11
6.500667055603326
 21
29.12950064634902
 31
0.0
  0
LWPOLYLINE
  5
1B8B
330
1E
100
AcDbEntity
  8
0
100
AcDbPolyline
 90
       11
 70
     0
 43
0.0
 10
8.281535901303322
 20
30.12950064634902
 10
8.30890646710332
 20
30.12357388374902
 10
8.331075530103327
 20
30.10562241894901
 10
8.347827151003322
 20
30.07616102304901
 10
8.359672378203321
 20
30.03617808934902
 10
8.367546922803321
 20
29.98579865014902
 10
8.372184726803326
 20
29.92654079084902
 10
8.374502226203326
 20
29.86054960544901
 10
8.375424763003323
 20
29.78807395954902
 10
8.375651182103319
 20
29.71051481584901
 10
8.375667055603323
 20
29.63048909464902
  0
LWPOLYLINE
  5
1B8C
330
1E
100
AcDbEntity
  8
0
100
AcDbPolyline
 90
       10
 70
     0
 43
0.0
 10
8.281535901303322
 20
29.87950064634902
 10
8.30890646710332
 20
29.87653726504901
 10
8.331075530103327
 20
29.86756153264902
 10
8.347827151003322
 20
29.85283083464901
 10
8.359672378203321
 20
29.83283936784902
 10
8.367546922803321
 20
29.80764964824901
 10
8.372184726803326
 20
29.77802071864902
 10
8.374502226203326
 20
29.74502512594902
 10
8.375424763003323
 20
29.70878730294901
 10
8.375651182103319
 20
29.67000773114902
  0
LINE
  5
1B8D
330
1E
100
AcDbEntity
  8
0
100
AcDbLine
 10
8.450667055603319
 20
27.19200064634902
 30
0.0
 11
8.450667055603319
 21
30.05450064634901
 31
0.0
  0
ARC
  5
1B8E
330
1E
100
AcDbEntity
  8
0
100
AcDbCircle
 10
8.000667055603319
 20
30.05450064634901
 30
0.0
 40
0.45
100
AcDbArc
 50
0.0
 51
90.00000000000003
  0
ARC
  5
1B8F
330
1E
100
AcDbEntity
  8
0
100
AcDbCircle
 10
8.000667055603323
 20
30.05450064634901
 30
0.0
 40
0.375
100
AcDbArc
 50
0.0
 51
90.00000000000003
  0
LINE
  5
1B90
330
1E
100
AcDbEntity
  8
0
100
AcDbLine
 10
8.375667055603323
 20
27.19200064634902
 30
0.0
 11
8.375667055603323
 21
29.49200064634902
 31
0.0
  0
LINE
  5
1B91
330
1E
100
AcDbEntity
  8
0
100
AcDbLine
 10
7.500667055603326
 20
29.25450064634902
 30
0.0
 11
7.500667055603326
 21
29.12950064634902
 31
0.0
  0
LWPOLYLINE
  5
1B92
330
1E
100
AcDbEntity
  8
0
100
AcDbPolyline
 90
       10
 70
     0
 43
0.0
 10
8.375651182103319
 20
28.58899351134902
 10
8.375424762403327
 20
28.55021394734902
 10
8.374502224803322
 20
28.51397613254902
 10
8.372184724003326
 20
28.48098054744902
 10
8.367546918503322
 20
28.45135162504901
 10
8.359672372703322
 20
28.42616191204902
 10
8.347827145003322
 20
28.40617045064901
 10
8.331075524603321
 20
28.39143975674902
 10
8.308906463603321
 20
28.38246402684902
 10
8.281535901303322
 20
28.37950064634902
  0
LWPOLYLINE
  5
1B93
330
1E
100
AcDbEntity
  8
0
100
AcDbPolyline
 90
       11
 70
     0
 43
0.0
 10
8.375667055603323
 20
28.62851208444901
 10
8.375651182103319
 20
28.54848637634902
 10
8.375424762403327
 20
28.47092724824902
 10
8.374502224803322
 20
28.39845161864902
 10
8.372184724003326
 20
28.33246044864902
 10
8.367546918503322
 20
28.27320260374901
 10
8.359672372703322
 20
28.22282317774901
 10
8.347827145003322
 20
28.18284025494902
 10
8.331075524603321
 20
28.15337886704902
 10
8.308906463603321
 20
28.13542740734901
 10
8.281535901303322
 20
28.12950064634902
  0
LINE
  5
1B94
330
1E
100
AcDbEntity
  8
0
  6
HIDDEN
100
AcDbLine
 10
8.305666957153321
 20
28.81012558954901
 30
0.0
 11
8.305666957153321
 21
29.44887558954902
 31
0.0
  0
LINE
  5
1B95
330
1E
100
AcDbEntity
  8
0
  6
HIDDEN
100
AcDbLine
 10
8.375667055603323
 20
29.63048909464902
 30
0.0
 11
8.375667022984672
 21
29.46450058954902
 31
0.0
  0
ARC
  5
1B96
330
1E
100
AcDbEntity
  8
0
  6
HIDDEN
100
AcDbCircle
 10
8.321291957153321
 20
29.44887558954902
 30
0.0
 40
0.015625
100
AcDbArc
 50
90.00000000000003
 51
180.0
  0
LINE
  5
1B97
330
1E
100
AcDbEntity
  8
0
  6
HIDDEN
100
AcDbLine
 10
8.321291957153321
 20
29.46450058954902
 30
0.0
 11
8.375667022984672
 21
29.46450058954902
 31
0.0
  0
LINE
  5
1B98
330
1E
100
AcDbEntity
  8
0
100
AcDbLine
 10
8.37566689132197
 20
28.79450058954901
 30
0.0
 11
8.375666858703326
 21
28.62851208444901
 31
0.0
  0
ARC
  5
1B99
330
1E
100
AcDbEntity
  8
0
  6
HIDDEN
100
AcDbCircle
 10
8.321291957153321
 20
28.81012558954901
 30
0.0
 40
0.015625
100
AcDbArc
 50
180.0
 51
270.0
  0
LINE
  5
1B9A
330
1E
100
AcDbEntity
  8
0
  6
HIDDEN
100
AcDbLine
 10
8.37566689132197
 20
28.79450058954901
 30
0.0
 11
8.321291957153321
 21
28.79450058954901
 31
0.0
  0
ENDSEC
  0
SECTION
  2
OBJECTS
  0
DICTIONARY
  5
C
330
0
100
AcDbDictionary
281
     1
  3
ACAD_COLOR
350
1B5F
  3
ACAD_GROUP
350
D
  3
ACAD_LAYOUT
350
19
  3
ACAD_MATERIAL
350
1B5E
  3
ACAD_MLINESTYLE
350
16
  3
ACAD_PLOTSETTINGS
350
18
  3
ACAD_PLOTSTYLENAME
350
E
  3
ACAD_TABLESTYLE
350
1B60
  3
ACDBHEADERROUNDTRIPXREC
350
1BAD
  3
AcDbVariableDictionary
350
CA8
  3
ASE_INDEX_DICTIONARY
350
1020
  0
DICTIONARY
  5
1B66
330
2
100
AcDbDictionary
280
     1
281
     1
  3
ACAD_LAYERFILTERS
360
1BA3
  3
ACLYDICTIONARY
360
1BA2
  0
DICTIONARY
  5
1B5F
102
{ACAD_REACTORS
330
C
102
}
330
C
100
AcDbDictionary
281
     1
  0
DICTIONARY
  5
D
102
{ACAD_REACTORS
330
C
102
}
330
C
100
AcDbDictionary
281
     1
  0
DICTIONARY
  5
19
102
{ACAD_REACTORS
330
C
102
}
330
C
100
AcDbDictionary
281
     1
  3
Layout1
350
1D
  3
Model
350
21
  0
DICTIONARY
  5
1B5E
102
{ACAD_REACTORS
330
C
102
}
330
C
100
AcDbDictionary
281
     1
  0
DICTIONARY
  5
16
102
{ACAD_REACTORS
330
C
102
}
330
C
100
AcDbDictionary
281
     1
  3
Standard
350
17
  0
DICTIONARY
  5
18
102
{ACAD_REACTORS
330
C
102
}
330
C
100
AcDbDictionary
281
     1
  0
ACDBDICTIONARYWDFLT
  5
E
102
{ACAD_REACTORS
330
C
102
}
330
C
100
AcDbDictionary
281
     1
  3
Normal
350
F
100
AcDbDictionaryWithDefault
340
F
  0
DICTIONARY
  5
1B60
102
{ACAD_REACTORS
330
C
102
}
330
C
100
AcDbDictionary
281
     1
  3
Standard
350
1B61
  0
DICTIONARY
  5
1BAD
102
{ACAD_REACTORS
330
C
102
}
330
C
100
AcDbDictionary
281
     1
  3
COLORDICT
350
1BAE
  3
MATERIALDICT
350
1BAF
  0
DICTIONARY
  5
CA8
102
{ACAD_REACTORS
330
C
102
}
330
C
100
AcDbDictionary
281
     1
  3
CTABLESTYLE
350
1B65
  3
SORTENTS
350
1BAC
  0
DICTIONARY
  5
1020
102
{ACAD_REACTORS
330
C
102
}
330
C
100
AcDbDictionary
281
     1
  3
ASEBlockHierarchyIndexRecord
350
1022
1001
DCO15
1040
1521459692.647
  0
DICTIONARY
  5
1BA3
102
{ACAD_REACTORS
330
1B66
102
}
330
1B66
100
AcDbDictionary
281
     1
  0
DICTIONARY
  5
1BA2
102
{ACAD_REACTORS
330
1B66
102
}
330
1B66
100
AcDbDictionary
281
     1
1001
ACAD
1000
<All
  0
LAYOUT
  5
1D
102
{ACAD_REACTORS
330
19
102
}
102
{ACAD_XDICTIONARY
360
1BB0
102
}
330
19
100
AcDbPlotSettings
  1

  2
HP LaserJet 2100 Series PS
  4

  6

 40
0.0
 41
0.0
 42
0.0
 43
0.0
 44
0.0
 45
0.0
 46
0.0
 47
0.0
 48
0.0
 49
0.0
140
0.0
141
0.0
142
1.0
143
1.0
 70
   688
 72
     0
 73
     0
 74
     5
  7

 75
    16
147
1.0
148
0.0
149
0.0
100
AcDbLayout
  1
Layout1
 70
     0
 71
     1
 10
0.0
 20
0.0
 11
12.0
 21
9.0
 12
0.0
 22
0.0
 32
0.0
 14
1.000000000000000E+20
 24
1.000000000000000E+20
 34
1.000000000000000E+20
 15
-1.000000000000000E+20
 25
-1.000000000000000E+20
 35
-1.000000000000000E+20
146
0.0
 13
0.0
 23
0.0
 33
0.0
 16
1.0
 26
0.0
 36
0.0
 17
0.0
 27
1.0
 37
0.0
 76
     0
330
1A
  0
LAYOUT
  5
21
102
{ACAD_REACTORS
330
19
102
}
102
{ACAD_XDICTIONARY
360
1BB2
102
}
330
19
100
AcDbPlotSettings
  1

  2
HP LaserJet 2100 Series PS
  4
Letter
  6

 40
5.365749835968018
 41
5.408084392547607
 42
5.4080810546875
 43
5.365753173828125
 44
215.8999938964844
 45
279.3999938964844
 46
0.0
 47
0.0
 48
0.0
 49
0.0
140
0.0
141
0.0
142
1.0
143
2.978488807384696
 70
 28336
 72
     0
 73
     0
 74
     2
  7

 75
     0
147
0.335740727821658
148
0.0
149
0.0
100
AcDbLayout
  1
Model
 70
     1
 71
     0
 10
0.0
 20
0.0
 11
12.0
 21
9.0
 12
0.0
 22
0.0
 32
0.0
 14
0.0
 24
0.0
 34
0.0
 15
0.0
 25
0.0
 35
0.0
146
0.0
 13
0.0
 23
0.0
 33
0.0
 16
1.0
 26
0.0
 36
0.0
 17
0.0
 27
1.0
 37
0.0
 76
     0
330
1E
  0
MLINESTYLE
  5
17
102
{ACAD_REACTORS
330
16
102
}
330
16
100
AcDbMlineStyle
  2
STANDARD
 70
     0
  3

 62
   256
 51
90.0
 52
90.0
 71
     2
 49
0.5
 62
   256
  6
BYLAYER
 49
-0.5
 62
   256
  6
BYLAYER
  0
ACDBPLACEHOLDER
  5
F
102
{ACAD_REACTORS
330
E
102
}
330
E
  0
ACAD_PROXY_OBJECT
  5
1B61
102
{ACAD_REACTORS
330
1B60
102
}
330
1B60
100
AcDbProxyObject
 90
      499
 91
      568
 95
   983063
 70
     0
 93
     1841
310
4214DD185B99185C9928B81E85EB51B8AE3F2E07A17AD46E2B8FC02B5E8DC0F42B1CFD028000000C1008070000C3001FDFF8000000C1003FBFF000000182007F7FE00000030400FEFFC00000060801FDFF8000000C1003FBFF00000018200000000000000681FA0B0000001820100E000186003FBFF000000182007F7FE000
310
00030400FEFFC00000060801FDFF8000000C1003FBFF000000182007F7FE000000304000AD7A3703D0AC73F4160000003040201C00030C007F7FE00000030400FEFFC00000060801FDFF8000000C1003FBFF000000182007F7FE00000030400FEFFC000000608000
340
11
340
11
340
11
 94
        0
  0
XRECORD
  5
1BAE
102
{ACAD_REACTORS
330
1BAD
102
}
330
1BAD
100
AcDbXrecord
340
1B5F
  0
XRECORD
  5
1BAF
102
{ACAD_REACTORS
330
1BAD
102
}
330
1BAD
100
AcDbXrecord
340
1B5E
  0
DICTIONARYVAR
  5
1B65
102
{ACAD_REACTORS
330
CA8
102
}
330
CA8
100
DictionaryVariables
280
     0
  1
STANDARD
  0
DICTIONARYVAR
  5
1BAC
102
{ACAD_REACTORS
330
CA8
102
}
330
CA8
100
DictionaryVariables
280
     0
  1
0
  0
XRECORD
  5
1022
102
{ACAD_REACTORS
330
1020
102
}
330
1020
100
AcDbXrecord
280
     1
330
0
330
0
330
0
330
0
330
0
330
0
330
0
330
0
330
0
330
0
  0
DICTIONARY
  5
1BB0
330
1D
100
AcDbDictionary
280
     1
281
     1
  3
ACAD_XREC_ROUNDTRIP
360
1BB1
  0
DICTIONARY
  5
1BB2
330
21
100
AcDbDictionary
280
     1
281
     1
  3
ACAD_XREC_ROUNDTRIP
360
1BB3
  0
XRECORD
  5
1BB1
102
{ACAD_REACTORS
330
1BB0
102
}
330
1BB0
100
AcDbXrecord
102
SHADEPLOT
 70
     0
102
SHADEPLOTRESLEVEL
 70
     2
102
SHADEPLOTCUSTOMDPI
 70
   300
  0
XRECORD
  5
1BB3
102
{ACAD_REACTORS
330
1BB2
102
}
330
1BB2
100
AcDbXrecord
102
SHADEPLOT
 70
     0
102
SHADEPLOTRESLEVEL
 70
     2
102
SHADEPLOTCUSTOMDPI
 70
   300
  0
ENDSEC
  0
EOF
