  0
SECTION
  2
HEADER
  9
$ACADVER
  1
AC1015
  9
$ACADMAINTVER
 70
     6
  9
$DWGCODEPAGE
  3
ANSI_1252
  9
$INSBASE
 10
0.0
 20
0.0
 30
0.0
  9
$EXTMIN
 10
5.87878424241066
 20
11.21504983005004
 30
-0.0000000000022883
  9
$EXTMAX
 10
17.10314946191286
 20
27.8984757161216
 30
0.0000000000000007
  9
$LIMMIN
 10
0.0
 20
0.0
  9
$LIMMAX
 10
24.0
 20
31.5
  9
$ORTHOMODE
 70
     1
  9
$REGENMODE
 70
     1
  9
$FILLMODE
 70
     1
  9
$QTEXTMODE
 70
     0
  9
$MIRRTEXT
 70
     0
  9
$LTSCALE
 40
1.0
  9
$ATTMODE
 70
     1
  9
$TEXTSIZE
 40
0.27
  9
$TRACEWID
 40
0.05
  9
$TEXTSTYLE
  7
STANDARD
  9
$CLAYER
  8
0
  9
$CELTYPE
  6
ByLayer
  9
$CECOLOR
 62
   256
  9
$CELTSCALE
 40
1.0
  9
$DISPSILH
 70
     0
  9
$DIMSCALE
 40
3.0
  9
$DIMASZ
 40
0.125
  9
$DIMEXO
 40
0.062
  9
$DIMDLI
 40
0.375
  9
$DIMRND
 40
0.0
  9
$DIMDLE
 40
0.0
  9
$DIMEXE
 40
0.08
  9
$DIMTP
 40
0.0
  9
$DIMTM
 40
0.0
  9
$DIMTXT
 40
0.09
  9
$DIMCEN
 40
-0.03125
  9
$DIMTSZ
 40
0.0
  9
$DIMTOL
 70
     0
  9
$DIMLIM
 70
     0
  9
$DIMTIH
 70
     1
  9
$DIMTOH
 70
     1
  9
$DIMSE1
 70
     0
  9
$DIMSE2
 70
     0
  9
$DIMTAD
 70
     0
  9
$DIMZIN
 70
     0
  9
$DIMBLK
  1

  9
$DIMASO
 70
     0
  9
$DIMSHO
 70
     0
  9
$DIMPOST
  1

  9
$DIMAPOST
  1

  9
$DIMALT
 70
     0
  9
$DIMALTD
 70
     2
  9
$DIMALTF
 40
25.4
  9
$DIMLFAC
 40
1.0
  9
$DIMTOFL
 70
     0
  9
$DIMTVP
 40
0.0
  9
$DIMTIX
 70
     0
  9
$DIMSOXD
 70
     0
  9
$DIMSAH
 70
     0
  9
$DIMBLK1
  1

  9
$DIMBLK2
  1

  9
$DIMSTYLE
  2
Standard
  9
$DIMCLRD
 70
     0
  9
$DIMCLRE
 70
     0
  9
$DIMCLRT
 70
     0
  9
$DIMTFAC
 40
1.0
  9
$DIMGAP
 40
0.09
  9
$DIMJUST
 70
     0
  9
$DIMSD1
 70
     0
  9
$DIMSD2
 70
     0
  9
$DIMTOLJ
 70
     1
  9
$DIMTZIN
 70
     0
  9
$DIMALTZ
 70
     0
  9
$DIMALTTZ
 70
     0
  9
$DIMUPT
 70
     0
  9
$DIMDEC
 70
     5
  9
$DIMTDEC
 70
     5
  9
$DIMALTU
 70
     2
  9
$DIMALTTD
 70
     2
  9
$DIMTXSTY
  7
STANDARD
  9
$DIMAUNIT
 70
     0
  9
$DIMADEC
 70
     0
  9
$DIMALTRND
 40
0.0
  9
$DIMAZIN
 70
     0
  9
$DIMDSEP
 70
    46
  9
$DIMATFIT
 70
     3
  9
$DIMFRAC
 70
     2
  9
$DIMLDRBLK
  1

  9
$DIMLUNIT
 70
     5
  9
$DIMLWD
 70
    -2
  9
$DIMLWE
 70
    -2
  9
$DIMTMOVE
 70
     2
  9
$LUNITS
 70
     2
  9
$LUPREC
 70
     4
  9
$SKETCHINC
 40
0.1
  9
$FILLETRAD
 40
0.45
  9
$AUNITS
 70
     0
  9
$AUPREC
 70
     0
  9
$MENU
  1
qa
  9
$ELEVATION
 40
0.0
  9
$PELEVATION
 40
0.0
  9
$THICKNESS
 40
0.0
  9
$LIMCHECK
 70
     0
  9
$CHAMFERA
 40
0.0
  9
$CHAMFERB
 40
0.0
  9
$CHAMFERC
 40
0.0
  9
$CHAMFERD
 40
0.0
  9
$SKPOLY
 70
     0
  9
$TDCREATE
 40
2450470.769032292
  9
$TDUCREATE
 40
2450471.102365625
  9
$TDUPDATE
 40
2454159.850135255
  9
$TDUUPDATE
 40
2454160.183468588
  9
$TDINDWG
 40
0.3624123611
  9
$TDUSRTIMER
 40
0.3624123611
  9
$USRTIMER
 70
     1
  9
$ANGBASE
 50
0.0
  9
$ANGDIR
 70
     0
  9
$PDMODE
 70
     0
  9
$PDSIZE
 40
0.0
  9
$PLINEWID
 40
0.0
  9
$SPLFRAME
 70
     0
  9
$SPLINETYPE
 70
     6
  9
$SPLINESEGS
 70
     8
  9
$HANDSEED
  5
200D
  9
$SURFTAB1
 70
     6
  9
$SURFTAB2
 70
     6
  9
$SURFTYPE
 70
     6
  9
$SURFU
 70
     6
  9
$SURFV
 70
     6
  9
$UCSBASE
  2

  9
$UCSNAME
  2

  9
$UCSORG
 10
0.0
 20
0.0
 30
0.0
  9
$UCSXDIR
 10
1.0
 20
0.0
 30
0.0
  9
$UCSYDIR
 10
0.0
 20
1.0
 30
0.0
  9
$UCSORTHOREF
  2

  9
$UCSORTHOVIEW
 70
     0
  9
$UCSORGTOP
 10
0.0
 20
0.0
 30
0.0
  9
$UCSORGBOTTOM
 10
0.0
 20
0.0
 30
0.0
  9
$UCSORGLEFT
 10
0.0
 20
0.0
 30
0.0
  9
$UCSORGRIGHT
 10
0.0
 20
0.0
 30
0.0
  9
$UCSORGFRONT
 10
0.0
 20
0.0
 30
0.0
  9
$UCSORGBACK
 10
0.0
 20
0.0
 30
0.0
  9
$PUCSBASE
  2

  9
$PUCSNAME
  2

  9
$PUCSORG
 10
0.0
 20
0.0
 30
0.0
  9
$PUCSXDIR
 10
1.0
 20
0.0
 30
0.0
  9
$PUCSYDIR
 10
0.0
 20
1.0
 30
0.0
  9
$PUCSORTHOREF
  2

  9
$PUCSORTHOVIEW
 70
     0
  9
$PUCSORGTOP
 10
0.0
 20
0.0
 30
0.0
  9
$PUCSORGBOTTOM
 10
0.0
 20
0.0
 30
0.0
  9
$PUCSORGLEFT
 10
0.0
 20
0.0
 30
0.0
  9
$PUCSORGRIGHT
 10
0.0
 20
0.0
 30
0.0
  9
$PUCSORGFRONT
 10
0.0
 20
0.0
 30
0.0
  9
$PUCSORGBACK
 10
0.0
 20
0.0
 30
0.0
  9
$USERI1
 70
     0
  9
$USERI2
 70
     0
  9
$USERI3
 70
     0
  9
$USERI4
 70
     0
  9
$USERI5
 70
     0
  9
$USERR1
 40
0.0
  9
$USERR2
 40
0.0
  9
$USERR3
 40
0.0
  9
$USERR4
 40
0.0
  9
$USERR5
 40
0.0
  9
$WORLDVIEW
 70
     1
  9
$SHADEDGE
 70
     3
  9
$SHADEDIF
 70
    70
  9
$TILEMODE
 70
     1
  9
$MAXACTVP
 70
    16
  9
$PINSBASE
 10
0.0
 20
0.0
 30
0.0
  9
$PLIMCHECK
 70
     0
  9
$PEXTMIN
 10
1.000000000000000E+20
 20
1.000000000000000E+20
 30
1.000000000000000E+20
  9
$PEXTMAX
 10
-1.000000000000000E+20
 20
-1.000000000000000E+20
 30
-1.000000000000000E+20
  9
$PLIMMIN
 10
0.0
 20
0.0
  9
$PLIMMAX
 10
12.0
 20
9.0
  9
$UNITMODE
 70
     0
  9
$VISRETAIN
 70
     0
  9
$PLINEGEN
 70
     0
  9
$PSLTSCALE
 70
     0
  9
$TREEDEPTH
 70
  3020
  9
$CMLSTYLE
  2
Standard
  9
$CMLJUST
 70
     0
  9
$CMLSCALE
 40
1.0
  9
$PROXYGRAPHICS
 70
     1
  9
$MEASUREMENT
 70
     0
  9
$CELWEIGHT
370
    -1
  9
$ENDCAPS
280
     0
  9
$JOINSTYLE
280
     0
  9
$LWDISPLAY
290
     0
  9
$INSUNITS
 70
     0
  9
$HYPERLINKBASE
  1

  9
$STYLESHEET
  1

  9
$XEDIT
290
     1
  9
$CEPSNTYPE
380
     0
  9
$PSTYLEMODE
290
     1
  9
$FINGERPRINTGUID
  2
{AA237CAB-720A-11D6-BE3F-00508B5FCD51}
  9
$VERSIONGUID
  2
{A10B039F-0DAB-4689-903C-F9FA0FA339D9}
  9
$EXTNAMES
290
     1
  9
$PSVPSCALE
 40
0.0
  9
$OLESTARTUP
290
     0
  0
ENDSEC
  0
SECTION
  2
CLASSES
  0
CLASS
  1
ACDBDICTIONARYWDFLT
  2
AcDbDictionaryWithDefault
  3
AutoCAD 2000
 90
        0
280
     0
281
     0
  0
CLASS
  1
ACDBPLACEHOLDER
  2
AcDbPlaceHolder
  3
ObjectDBX Classes
 90
        0
280
     0
281
     0
  0
CLASS
  1
LAYOUT
  2
AcDbLayout
  3
ObjectDBX Classes
 90
        0
280
     0
281
     0
  0
CLASS
  1
LONG_TRANSACTION
  2
AcDbLongTransaction
  3
ObjectDBX Classes
 90
   -65536
280
     1
281
     0
  0
CLASS
  1
LWPOLYLINE
  2
AcDbPolyline
  3
AutoCAD 2000
 90
        0
280
     0
281
     1
  0
CLASS
  1
HATCH
  2
AcDbHatch
  3
AutoCAD 2000
 90
        0
280
     0
281
     1
  0
CLASS
  1
XRECORD
  2
AcDbXrecord
  3
AutoCAD 2000
 90
        0
280
     0
281
     0
  0
CLASS
  1
LONG_TRANSACTION
  2
AcDbLongTransaction
  3
ObjectDBX Classes
 90
   -65536
280
     1
281
     0
  0
CLASS
  1
LWPOLYLINE
  2
AcDbPolyline
  3
AutoCAD 2000
 90
        0
280
     0
281
     1
  0
CLASS
  1
HATCH
  2
AcDbHatch
  3
AutoCAD 2000
 90
        0
280
     0
281
     1
  0
CLASS
  1
XRECORD
  2
AcDbXrecord
  3
AutoCAD 2000
 90
        0
280
     0
281
     0
  0
CLASS
  1
LONG_TRANSACTION
  2
AcDbLongTransaction
  3
ObjectDBX Classes
 90
   -65536
280
     1
281
     0
  0
CLASS
  1
LWPOLYLINE
  2
AcDbPolyline
  3
AutoCAD 2000
 90
        0
280
     0
281
     1
  0
CLASS
  1
HATCH
  2
AcDbHatch
  3
AutoCAD 2000
 90
        0
280
     0
281
     1
  0
CLASS
  1
XRECORD
  2
AcDbXrecord
  3
AutoCAD 2000
 90
        0
280
     0
281
     0
  0
CLASS
  1
LONG_TRANSACTION
  2
AcDbLongTransaction
  3
ObjectDBX Classes
 90
   -65536
280
     1
281
     0
  0
CLASS
  1
LWPOLYLINE
  2
AcDbPolyline
  3
AutoCAD 2000
 90
        0
280
     0
281
     1
  0
CLASS
  1
HATCH
  2
AcDbHatch
  3
AutoCAD 2000
 90
        0
280
     0
281
     1
  0
CLASS
  1
XRECORD
  2
AcDbXrecord
  3
AutoCAD 2000
 90
        0
280
     0
281
     0
  0
CLASS
  1
LONG_TRANSACTION
  2
AcDbLongTransaction
  3
ObjectDBX Classes
 90
   -65536
280
     1
281
     0
  0
CLASS
  1
LWPOLYLINE
  2
AcDbPolyline
  3
AutoCAD 2000
 90
        0
280
     0
281
     1
  0
CLASS
  1
HATCH
  2
AcDbHatch
  3
AutoCAD 2000
 90
        0
280
     0
281
     1
  0
CLASS
  1
XRECORD
  2
AcDbXrecord
  3
AutoCAD 2000
 90
        0
280
     0
281
     0
  0
CLASS
  1
LONG_TRANSACTION
  2
AcDbLongTransaction
  3
ObjectDBX Classes
 90
   -65536
280
     1
281
     0
  0
CLASS
  1
LWPOLYLINE
  2
AcDbPolyline
  3
AutoCAD 2000
 90
        0
280
     0
281
     1
  0
CLASS
  1
HATCH
  2
AcDbHatch
  3
AutoCAD 2000
 90
        0
280
     0
281
     1
  0
CLASS
  1
XRECORD
  2
AcDbXrecord
  3
AutoCAD 2000
 90
        0
280
     0
281
     0
  0
CLASS
  1
LONG_TRANSACTION
  2
AcDbLongTransaction
  3
ObjectDBX Classes
 90
   -65536
280
     1
281
     0
  0
CLASS
  1
LWPOLYLINE
  2
AcDbPolyline
  3
AutoCAD 2000
 90
        0
280
     0
281
     1
  0
CLASS
  1
HATCH
  2
AcDbHatch
  3
AutoCAD 2000
 90
        0
280
     0
281
     1
  0
CLASS
  1
XRECORD
  2
AcDbXrecord
  3
AutoCAD 2000
 90
        0
280
     0
281
     0
  0
CLASS
  1
LONG_TRANSACTION
  2
AcDbLongTransaction
  3
ObjectDBX Classes
 90
   -65536
280
     1
281
     0
  0
CLASS
  1
LWPOLYLINE
  2
AcDbPolyline
  3
AutoCAD 2000
 90
        0
280
     0
281
     1
  0
CLASS
  1
HATCH
  2
AcDbHatch
  3
AutoCAD 2000
 90
        0
280
     0
281
     1
  0
CLASS
  1
XRECORD
  2
AcDbXrecord
  3
AutoCAD 2000
 90
        0
280
     0
281
     0
  0
CLASS
  1
LONG_TRANSACTION
  2
AcDbLongTransaction
  3
ObjectDBX Classes
 90
   -65536
280
     1
281
     0
  0
CLASS
  1
LWPOLYLINE
  2
AcDbPolyline
  3
AutoCAD 2000
 90
        0
280
     0
281
     1
  0
CLASS
  1
HATCH
  2
AcDbHatch
  3
AutoCAD 2000
 90
        0
280
     0
281
     1
  0
CLASS
  1
XRECORD
  2
AcDbXrecord
  3
AutoCAD 2000
 90
        0
280
     0
281
     0
  0
CLASS
  1
LONG_TRANSACTION
  2
AcDbLongTransaction
  3
ObjectDBX Classes
 90
   -65536
280
     1
281
     0
  0
CLASS
  1
LWPOLYLINE
  2
AcDbPolyline
  3
AutoCAD 2000
 90
        0
280
     0
281
     1
  0
CLASS
  1
HATCH
  2
AcDbHatch
  3
AutoCAD 2000
 90
        0
280
     0
281
     1
  0
CLASS
  1
XRECORD
  2
AcDbXrecord
  3
AutoCAD 2000
 90
        0
280
     0
281
     0
  0
CLASS
  1
LONG_TRANSACTION
  2
AcDbLongTransaction
  3
ObjectDBX Classes
 90
   -65536
280
     1
281
     0
  0
CLASS
  1
LWPOLYLINE
  2
AcDbPolyline
  3
AutoCAD 2000
 90
        0
280
     0
281
     1
  0
CLASS
  1
HATCH
  2
AcDbHatch
  3
AutoCAD 2000
 90
        0
280
     0
281
     1
  0
CLASS
  1
XRECORD
  2
AcDbXrecord
  3
AutoCAD 2000
 90
        0
280
     0
281
     0
  0
CLASS
  1
DICTIONARYVAR
  2
AcDbDictionaryVar
  3
AutoCAD 2000
 90
        0
280
     0
281
     0
  0
CLASS
  1
LONG_TRANSACTION
  2
AcDbLongTransaction
  3
ObjectDBX Classes
 90
   -65536
280
     1
281
     0
  0
CLASS
  1
LWPOLYLINE
  2
AcDbPolyline
  3
AutoCAD 2000
 90
        0
280
     0
281
     1
  0
CLASS
  1
HATCH
  2
AcDbHatch
  3
AutoCAD 2000
 90
        0
280
     0
281
     1
  0
CLASS
  1
XRECORD
  2
AcDbXrecord
  3
AutoCAD 2000
 90
        0
280
     0
281
     0
  0
CLASS
  1
LONG_TRANSACTION
  2
AcDbLongTransaction
  3
ObjectDBX Classes
 90
   -65536
280
     1
281
     0
  0
CLASS
  1
LWPOLYLINE
  2
AcDbPolyline
  3
AutoCAD 2000
 90
        0
280
     0
281
     1
  0
CLASS
  1
HATCH
  2
AcDbHatch
  3
AutoCAD 2000
 90
        0
280
     0
281
     1
  0
CLASS
  1
XRECORD
  2
AcDbXrecord
  3
AutoCAD 2000
 90
        0
280
     0
281
     0
  0
CLASS
  1
LONG_TRANSACTION
  2
AcDbLongTransaction
  3
ObjectDBX Classes
 90
   -65536
280
     1
281
     0
  0
CLASS
  1
LWPOLYLINE
  2
AcDbPolyline
  3
AutoCAD 2000
 90
        0
280
     0
281
     1
  0
CLASS
  1
HATCH
  2
AcDbHatch
  3
AutoCAD 2000
 90
        0
280
     0
281
     1
  0
CLASS
  1
XRECORD
  2
AcDbXrecord
  3
AutoCAD 2000
 90
        0
280
     0
281
     0
  0
CLASS
  1
LONG_TRANSACTION
  2
AcDbLongTransaction
  3
ObjectDBX Classes
 90
   -65536
280
     1
281
     0
  0
CLASS
  1
LWPOLYLINE
  2
AcDbPolyline
  3
AutoCAD 2000
 90
        0
280
     0
281
     1
  0
CLASS
  1
HATCH
  2
AcDbHatch
  3
AutoCAD 2000
 90
        0
280
     0
281
     1
  0
CLASS
  1
XRECORD
  2
AcDbXrecord
  3
AutoCAD 2000
 90
        0
280
     0
281
     0
  0
CLASS
  1
LONG_TRANSACTION
  2
AcDbLongTransaction
  3
ObjectDBX Classes
 90
   -65536
280
     1
281
     0
  0
CLASS
  1
LWPOLYLINE
  2
AcDbPolyline
  3
AutoCAD 2000
 90
        0
280
     0
281
     1
  0
CLASS
  1
HATCH
  2
AcDbHatch
  3
AutoCAD 2000
 90
        0
280
     0
281
     1
  0
CLASS
  1
XRECORD
  2
AcDbXrecord
  3
AutoCAD 2000
 90
        0
280
     0
281
     0
  0
CLASS
  1
TABLESTYLE
  2
AcDbTableStyle
  3
ObjectDBX Classes
 90
     2047
280
     1
281
     0
  0
ENDSEC
  0
SECTION
  2
TABLES
  0
TABLE
  2
VPORT
  5
8
330
0
100
AcDbSymbolTable
 70
     2
  0
VPORT
  5
1FFC
330
8
100
AcDbSymbolTableRecord
100
AcDbViewportTableRecord
  2
*Active
 70
     0
 10
0.0
 20
0.0
 11
1.0
 21
1.0
 12
19.64101489316488
 22
21.79636824036849
 13
0.0
 23
0.0
 14
0.063
 24
0.063
 15
0.25
 25
0.25
 16
0.0
 26
0.0
 36
1.0
 17
0.0
 27
0.0
 37
0.0
 40
31.89293142701762
 41
1.814583333333333
 42
50.0
 43
0.0
 44
0.0
 50
0.0
 51
0.0
 71
     0
 72
   100
 73
     1
 74
     0
 75
     0
 76
     0
 77
     0
 78
     0
281
     0
 65
     1
110
0.0
120
0.0
130
0.0
111
1.0
121
0.0
131
0.0
112
0.0
122
1.0
132
0.0
 79
     0
146
0.0
  0
ENDTAB
  0
TABLE
  2
LTYPE
  5
5
330
0
100
AcDbSymbolTable
 70
     2
  0
LTYPE
  5
13
330
5
100
AcDbSymbolTableRecord
100
AcDbLinetypeTableRecord
  2
ByBlock
 70
     0
  3

 72
    65
 73
     0
 40
0.0
  0
LTYPE
  5
14
330
5
100
AcDbSymbolTableRecord
100
AcDbLinetypeTableRecord
  2
ByLayer
 70
     0
  3

 72
    65
 73
     0
 40
0.0
  0
LTYPE
  5
15
330
5
100
AcDbSymbolTableRecord
100
AcDbLinetypeTableRecord
  2
CONTINUOUS
 70
     0
  3
Solid line
 72
    65
 73
     0
 40
0.0
  0
LTYPE
  5
32
330
5
100
AcDbSymbolTableRecord
100
AcDbLinetypeTableRecord
  2
HIDDEN
 70
     0
  3
_ _ _ _ _ _ _ _ _ _ _ _ _ _ _ _ _ _ _ _ _ _ _
 72
    65
 73
     2
 40
0.375
 49
0.25
 74
     0
 49
-0.125
 74
     0
  0
ENDTAB
  0
TABLE
  2
LAYER
  5
2
102
{ACAD_XDICTIONARY
360
1FF9
102
}
330
0
100
AcDbSymbolTable
 70
     5
  0
LAYER
  5
10
330
2
100
AcDbSymbolTableRecord
100
AcDbLayerTableRecord
  2
0
 70
     0
 62
     7
  6
CONTINUOUS
370
    -3
390
F
  0
LAYER
  5
3F
330
2
100
AcDbSymbolTableRecord
100
AcDbLayerTableRecord
  2
DIM
 70
     0
 62
     5
  6
CONTINUOUS
370
    -3
390
F
  0
ENDTAB
  0
TABLE
  2
STYLE
  5
3
330
0
100
AcDbSymbolTable
 70
     1
  0
STYLE
  5
11
330
3
100
AcDbSymbolTableRecord
100
AcDbTextStyleTableRecord
  2
STANDARD
 70
     0
 40
0.0
 41
1.0
 50
0.0
 71
     0
 42
0.27
  3
TXT
  4

  0
ENDTAB
  0
TABLE
  2
VIEW
  5
6
330
0
100
AcDbSymbolTable
 70
     0
  0
ENDTAB
  0
TABLE
  2
UCS
  5
7
330
0
100
AcDbSymbolTable
 70
     0
  0
ENDTAB
  0
TABLE
  2
APPID
  5
9
330
0
100
AcDbSymbolTable
 70
     3
  0
APPID
  5
12
330
9
100
AcDbSymbolTableRecord
100
AcDbRegAppTableRecord
  2
ACAD
 70
     0
  0
APPID
  5
B4B
330
9
100
AcDbSymbolTableRecord
100
AcDbRegAppTableRecord
  2
CONTENTBLOCKICON
 70
     0
  0
APPID
  5
1021
330
9
100
AcDbSymbolTableRecord
100
AcDbRegAppTableRecord
  2
DCO15
 70
     0
  0
ENDTAB
  0
TABLE
  2
DIMSTYLE
  5
A
330
0
100
AcDbSymbolTable
 70
     1
100
AcDbDimStyleTable
  0
DIMSTYLE
105
65F
330
A
100
AcDbSymbolTableRecord
100
AcDbDimStyleTableRecord
  2
Standard
 70
     0
  3

  4

340
11
  0
ENDTAB
  0
TABLE
  2
BLOCK_RECORD
  5
1
330
0
100
AcDbSymbolTable
 70
     0
  0
BLOCK_RECORD
  5
1E
330
1
100
AcDbSymbolTableRecord
100
AcDbBlockTableRecord
  2
*Model_Space
340
21
  0
BLOCK_RECORD
  5
1A
330
1
100
AcDbSymbolTableRecord
100
AcDbBlockTableRecord
  2
*Paper_Space
340
1D
  0
ENDTAB
  0
ENDSEC
  0
SECTION
  2
BLOCKS
  0
BLOCK
  5
4F
330
1E
100
AcDbEntity
  8
0
100
AcDbBlockBegin
  2
*Model_Space
 70
     0
 10
0.0
 20
0.0
 30
0.0
  3
*Model_Space
  1

  4

  0
ENDBLK
  5
50
330
1E
100
AcDbEntity
  8
0
100
AcDbBlockEnd
  0
BLOCK
  5
4D
330
1A
100
AcDbEntity
 67
     1
  8
0
100
AcDbBlockBegin
  2
*Paper_Space
 70
     0
 10
0.0
 20
0.0
 30
0.0
  3
*Paper_Space
  1

  4

  0
ENDBLK
  5
4E
330
1A
100
AcDbEntity
 67
     1
  8
0
100
AcDbBlockEnd
  0
ENDSEC
  0
SECTION
  2
ENTITIES
  0
TEXT
  5
577
330
1E
100
AcDbEntity
  8
DIM
100
AcDbText
 10
11.34514394317928
 20
21.59921556538293
 30
0.0
 40
0.27
  1
   
 11
11.34514394317928
 21
21.73421556538293
 31
0.0
100
AcDbText
 73
     2
  0
CIRCLE
  5
13BE
330
1E
100
AcDbEntity
  8
0
100
AcDbCircle
 10
15.91072043292594
 20
13.01062513434292
 30
0.0
 40
0.1992945539851405
  0
CIRCLE
  5
13C5
330
1E
100
AcDbEntity
  8
0
100
AcDbCircle
 10
15.91072043292594
 20
13.01062513434292
 30
0.0
 40
0.1489496572372531
  0
LINE
  5
175C
330
1E
100
AcDbEntity
  8
0
100
AcDbLine
 10
13.44890161276889
 20
12.59842937182545
 30
0.0
 11
14.63453479693563
 21
16.16868165933649
 31
0.0
  0
LINE
  5
175D
330
1E
100
AcDbEntity
  8
0
100
AcDbLine
 10
16.77572043292591
 20
11.27187908175824
 30
0.0
 11
13.42342043292584
 21
11.27187908175829
 31
0.0
  0
LINE
  5
175E
330
1E
100
AcDbEntity
  8
0
  6
HIDDEN
100
AcDbLine
 10
16.77572043292591
 20
11.40687908175825
 30
0.0
 11
13.42342043292584
 21
11.40687908175829
 31
0.0
  0
LINE
  5
1764
330
1E
100
AcDbEntity
  8
0
100
AcDbLine
 10
7.582400753596787
 20
23.85425529954945
 30
0.0
 11
7.302070667706872
 21
24.13458538543952
 31
0.0
  0
LINE
  5
1765
330
1E
100
AcDbEntity
  8
0
100
AcDbLine
 10
7.195376493883046
 20
24.06450286396699
 30
0.0
 11
7.475706579772933
 21
23.78417277807716
 31
0.0
  0
LINE
  5
1766
330
1E
100
AcDbEntity
  8
0
100
AcDbLine
 10
5.878888623740096
 20
12.78187908175825
 30
0.0
 11
5.878888623740095
 21
27.89687908175824
 31
0.0
  0
LINE
  5
1767
330
1E
100
AcDbEntity
  8
0
100
AcDbLine
 10
6.013888623740087
 20
14.10874180354983
 30
0.0
 11
6.013888623740087
 21
27.89687908175825
 31
0.0
  0
LINE
  5
1768
330
1E
100
AcDbEntity
  8
0
100
AcDbLine
 10
8.763888623740087
 20
14.10874180354985
 30
0.0
 11
8.763888623740089
 21
27.89687908175825
 31
0.0
  0
LINE
  5
1769
330
1E
100
AcDbEntity
  8
0
100
AcDbLine
 10
8.898888623740078
 20
12.78187908175825
 30
0.0
 11
8.898888623740092
 21
27.89687908175824
 31
0.0
  0
ARC
  5
176A
330
1E
100
AcDbEntity
  8
0
100
AcDbCircle
 10
7.388888623740087
 20
12.78187908175825
 30
0.0
 40
1.375
100
AcDbArc
 50
180.0
 51
0.0
  0
ARC
  5
176B
330
1E
100
AcDbEntity
  8
0
100
AcDbCircle
 10
7.388888623740087
 20
12.78187908175825
 30
0.0
 40
1.51
100
AcDbArc
 50
180.0
 51
0.0
  0
LINE
  5
176D
330
1E
100
AcDbEntity
  8
0
100
AcDbLine
 10
6.013888623740115
 20
12.78187908175826
 30
0.0
 11
8.763888623740144
 21
12.78187908175826
 31
0.0
  0
LINE
  5
176E
330
1E
100
AcDbEntity
  8
0
  6
HIDDEN
100
AcDbLine
 10
6.013888442840113
 20
12.54687908175828
 30
0.0
 11
8.763888804640118
 21
12.54687908175828
 31
0.0
  0
LINE
  5
176F
330
1E
100
AcDbEntity
  8
0
100
AcDbLine
 10
7.582400753596801
 20
17.10425529954955
 30
0.0
 11
7.302070667706843
 21
17.38458538543948
 31
0.0
  0
ARC
  5
1770
330
1E
100
AcDbEntity
  8
0
100
AcDbCircle
 10
7.482638623740002
 20
17.60176499382398
 30
0.0
 40
0.4062499999999005
100
AcDbArc
 50
179.9999999999898
 51
224.9999999999986
  0
LINE
  5
1771
330
1E
100
AcDbEntity
  8
0
100
AcDbLine
 10
6.013888623740087
 20
12.78187908175825
 30
0.0
 11
6.013888623740087
 21
14.10874180354983
 31
0.0
  0
LINE
  5
1772
330
1E
100
AcDbEntity
  8
0
100
AcDbLine
 10
7.300907443897131
 20
15.27020898218954
 30
0.0
 11
6.47456625971089
 21
12.78187908175826
 31
0.0
  0
LINE
  5
1773
330
1E
100
AcDbEntity
  8
0
100
AcDbLine
 10
8.303210987769381
 20
12.78187908175826
 30
0.0
 11
7.476869803582716
 21
15.27020898219101
 31
0.0
  0
ARC
  5
1774
330
1E
100
AcDbEntity
  8
0
  6
HIDDEN
100
AcDbCircle
 10
7.388888623740087
 20
12.78187908175825
 30
0.0
 40
0.875
100
AcDbArc
 50
221.016129965161
 51
318.983870034841
  0
ARC
  5
1775
330
1E
100
AcDbEntity
  8
0
100
AcDbCircle
 10
6.65999782102358
 20
11.56322482491764
 30
0.0
 40
0.3
100
AcDbArc
 50
343.7862132589013
 51
59.11588202585632
  0
LWPOLYLINE
  5
1777
330
1E
100
AcDbEntity
  8
0
100
AcDbPolyline
 90
       11
 70
     0
 43
0.0
 10
6.013870975440113
 20
12.54640527445827
 10
6.013903457240104
 20
12.54358689225828
 10
6.014115403840094
 20
12.53400698935826
 10
6.014980226640091
 20
12.51864258975826
 10
6.017154823240105
 20
12.49805569405825
 10
6.021509322440096
 20
12.47236138435827
 10
6.028905628340112
 20
12.44241493975827
 10
6.04003242744011
 20
12.40932460015827
 10
6.05576481524011
 20
12.37329251405828
 10
6.076578508040086
 20
12.33530819915828
 10
6.102265135940115
 20
12.29687908175828
  0
LINE
  5
177D
330
1E
100
AcDbEntity
  8
0
100
AcDbLine
 10
6.920138623740115
 20
12.54687908175828
 30
0.0
 11
6.920138623740115
 21
12.78187908175826
 31
0.0
  0
LINE
  5
177E
330
1E
100
AcDbEntity
  8
0
100
AcDbLine
 10
6.013873914440097
 20
12.78095989555825
 30
0.0
 11
6.013873914440097
 21
12.54640527445827
 31
0.0
  0
LINE
  5
177F
330
1E
100
AcDbEntity
  8
0
100
AcDbLine
 10
6.013873914440069
 20
12.54640527525825
 30
0.0
 11
6.013873914440069
 21
12.78095989705827
 31
0.0
  0
LINE
  5
1780
330
1E
100
AcDbEntity
  8
0
100
AcDbLine
 10
6.013870975440113
 20
12.54640527465827
 30
0.0
 11
6.013873914440097
 21
12.54648499575828
 31
0.0
  0
LINE
  5
1781
330
1E
100
AcDbEntity
  8
0
100
AcDbLine
 10
6.013888442840113
 20
12.54687908175828
 30
0.0
 11
6.013870975440113
 21
12.54640527445827
 31
0.0
  0
LINE
  5
1782
330
1E
100
AcDbEntity
  8
0
100
AcDbLine
 10
6.013870975540073
 20
12.54640527525825
 30
0.0
 11
6.013888442840056
 21
12.54687908175828
 31
0.0
  0
LINE
  5
1783
330
1E
100
AcDbEntity
  8
0
100
AcDbLine
 10
6.013873914440069
 20
12.54648499505825
 30
0.0
 11
6.013870975440057
 21
12.54640527335826
 31
0.0
  0
ARC
  5
1788
330
1E
100
AcDbEntity
  8
0
100
AcDbCircle
 10
6.563028038295101
 20
12.21800472216341
 30
0.0
 40
0.125
100
AcDbArc
 50
214.3241612918686
 51
315.2820058643697
  0
LINE
  5
178A
330
1E
100
AcDbEntity
  8
0
100
AcDbLine
 10
6.797737010277615
 20
11.47237926507211
 30
0.0
 11
6.756917125620106
 21
11.41048853725097
 31
0.0
  0
LINE
  5
178B
330
1E
100
AcDbEntity
  8
0
100
AcDbLine
 10
6.41791076112267
 20
11.72289277858563
 30
0.0
 11
6.377090876465189
 21
11.66100205076447
 31
0.0
  0
ARC
  5
178C
330
1E
100
AcDbEntity
  8
0
100
AcDbCircle
 10
7.388888623740087
 20
12.78187908175825
 30
0.0
 40
1.255
100
AcDbArc
 50
234.0706095844477
 51
239.1158820258582
  0
ARC
  5
178D
330
1E
100
AcDbEntity
  8
0
100
AcDbCircle
 10
6.65999782102358
 20
11.56322482491764
 30
0.0
 40
0.165
100
AcDbArc
 50
348.1726305062566
 51
59.11588202585632
  0
ARC
  5
178E
330
1E
100
AcDbEntity
  8
0
100
AcDbCircle
 10
6.555649950376619
 20
11.63204721874003
 30
0.0
 40
0.165
100
AcDbArc
 50
54.07060958445224
 51
125.0138611040474
  0
LINE
  5
178F
330
1E
100
AcDbEntity
  8
0
100
AcDbLine
 10
6.30521506082394
 20
11.79722096391382
 30
0.0
 11
6.279217571379121
 21
11.75780381325883
 31
0.0
  0
LINE
  5
1790
330
1E
100
AcDbEntity
  8
0
100
AcDbLine
 10
6.910432710576316
 20
11.39805107974388
 30
0.0
 11
6.884435221131497
 21
11.35863392908895
 31
0.0
  0
ARC
  5
1791
330
1E
100
AcDbEntity
  8
0
100
AcDbCircle
 10
7.388888623740087
 20
12.78187908175825
 30
0.0
 40
1.12
100
AcDbArc
 50
234.0706095844477
 51
239.1158820258582
  0
ARC
  5
1792
330
1E
100
AcDbEntity
  8
0
100
AcDbCircle
 10
6.555649950376619
 20
11.63204721874003
 30
0.0
 40
0.3
100
AcDbArc
 50
54.07060958445224
 51
129.4002783514038
  0
ARC
  5
1793
330
1E
100
AcDbEntity
  8
0
100
AcDbCircle
 10
6.661441211799243
 20
12.39271939363339
 30
0.0
 40
0.3
100
AcDbArc
 50
161.6293610254253
 51
208.1452700653967
  0
LINE
  5
1794
330
1E
100
AcDbEntity
  8
0
100
AcDbLine
 10
7.857638623740115
 20
12.54687908175828
 30
0.0
 11
7.857638623740115
 21
12.78187908175826
 31
0.0
  0
ARC
  5
1796
330
1E
100
AcDbEntity
  8
0
100
AcDbCircle
 10
8.214749209185072
 20
12.21800472216344
 30
0.0
 40
0.125
100
AcDbArc
 50
224.7179941356442
 51
325.675838708136
  0
LINE
  5
1798
330
1E
100
AcDbEntity
  8
0
100
AcDbLine
 10
8.359866486357504
 20
11.7228927785856
 30
0.0
 11
8.400686371014984
 21
11.66100205076448
 31
0.0
  0
LINE
  5
1799
330
1E
100
AcDbEntity
  8
0
100
AcDbLine
 10
7.980040237202587
 20
11.47237926507209
 30
0.0
 11
8.020860121860039
 21
11.41048853725096
 31
0.0
  0
ARC
  5
179A
330
1E
100
AcDbEntity
  8
0
100
AcDbCircle
 10
8.117779426456593
 20
11.56322482491764
 30
0.0
 40
0.165
100
AcDbArc
 50
120.8841179741437
 51
191.8273694937433
  0
ARC
  5
179B
330
1E
100
AcDbEntity
  8
0
100
AcDbCircle
 10
8.222127297103555
 20
11.63204721874003
 30
0.0
 40
0.165
100
AcDbArc
 50
54.98613889595261
 51
125.9293904155478
  0
ARC
  5
179C
330
1E
100
AcDbEntity
  8
0
100
AcDbCircle
 10
7.388888623740087
 20
12.78187908175825
 30
0.0
 40
1.255
100
AcDbArc
 50
300.8841179741419
 51
305.9293904155522
  0
LINE
  5
179D
330
1E
100
AcDbEntity
  8
0
100
AcDbLine
 10
8.472562186656234
 20
11.79722096391382
 30
0.0
 11
8.498559676101053
 21
11.75780381325885
 31
0.0
  0
LINE
  5
179E
330
1E
100
AcDbEntity
  8
0
100
AcDbLine
 10
7.867344536903858
 20
11.39805107974388
 30
0.0
 11
7.893342026348677
 21
11.35863392908895
 31
0.0
  0
ARC
  5
179F
330
1E
100
AcDbEntity
  8
0
100
AcDbCircle
 10
7.388888623740087
 20
12.78187908175825
 30
0.0
 40
1.12
100
AcDbArc
 50
300.8841179741419
 51
305.9293904155522
  0
ARC
  5
17A0
330
1E
100
AcDbEntity
  8
0
100
AcDbCircle
 10
8.117779426456593
 20
11.56322482491764
 30
0.0
 40
0.3
100
AcDbArc
 50
120.8841179741437
 51
196.2137867410987
  0
ARC
  5
17A1
330
1E
100
AcDbEntity
  8
0
100
AcDbCircle
 10
8.222127297103555
 20
11.63204721874003
 30
0.0
 40
0.3
100
AcDbArc
 50
50.59972164859621
 51
125.9293904155478
  0
ARC
  5
17A2
330
1E
100
AcDbEntity
  8
0
100
AcDbCircle
 10
8.116336035681002
 20
12.39271939363351
 30
0.0
 40
0.3
100
AcDbArc
 50
331.854729934612
 51
18.37063897457038
  0
ARC
  5
17A3
330
1E
100
AcDbEntity
  8
0
100
AcDbCircle
 10
7.295138623739604
 20
16.8169931696925
 30
0.0
 40
0.4062500000001279
100
AcDbArc
 50
0.0000000000020356
 51
44.9999999999859
  0
LINE
  5
17A4
330
1E
100
AcDbEntity
  8
0
100
AcDbLine
 10
7.70138862373976
 20
16.47676499382391
 30
0.0
 11
7.701388623739732
 21
16.81699316969251
 31
0.0
  0
ARC
  5
17A5
330
1E
100
AcDbEntity
  8
0
100
AcDbCircle
 10
7.295138623739845
 20
16.47676499382384
 30
0.0
 40
0.4062499999999079
100
AcDbArc
 50
315.0
 51
0.0000000000101778
  0
LINE
  5
17A6
330
1E
100
AcDbEntity
  8
0
100
AcDbLine
 10
7.552070667706886
 20
16.15917277807698
 30
0.0
 11
7.582400753596815
 21
16.18950286396687
 31
0.0
  0
ARC
  5
17A7
330
1E
100
AcDbEntity
  8
0
100
AcDbCircle
 10
7.79513862373976
 20
15.91610482204412
 30
0.0
 40
0.3437499999999858
100
AcDbArc
 50
135.0000000000017
 51
180.0000000000024
  0
LINE
  5
17A8
330
1E
100
AcDbEntity
  8
0
100
AcDbLine
 10
7.451388623739803
 20
15.42779035582609
 30
0.0
 11
7.451388623739774
 21
15.91610482204411
 31
0.0
  0
ARC
  5
17A9
330
1E
100
AcDbEntity
  8
0
100
AcDbCircle
 10
7.951388623739803
 20
15.4277903558261
 30
0.0
 40
0.4999999999999977
100
AcDbArc
 50
180.0000000000016
 51
198.3706389745716
  0
ARC
  5
17AA
330
1E
100
AcDbEntity
  8
0
100
AcDbCircle
 10
6.826388623740016
 20
15.42779035582466
 30
0.0
 40
0.5000000000000284
100
AcDbArc
 50
341.6293610254278
 51
359.9999999999984
  0
LINE
  5
17AB
330
1E
100
AcDbEntity
  8
0
100
AcDbLine
 10
7.326388623740087
 20
15.94199316969244
 30
0.0
 11
7.326388623740044
 21
15.42779035582464
 31
0.0
  0
ARC
  5
17AC
330
1E
100
AcDbEntity
  8
0
100
AcDbCircle
 10
7.732638623740129
 20
15.94199316969242
 30
0.0
 40
0.4062500000000485
100
AcDbArc
 50
135.0000000000057
 51
179.999999999998
  0
LINE
  5
17AD
330
1E
100
AcDbEntity
  8
0
100
AcDbLine
 10
7.475706579772975
 20
16.25958538543938
 30
0.0
 11
7.445376493883032
 21
16.22925529954947
 31
0.0
  0
ARC
  5
17AE
330
1E
100
AcDbEntity
  8
0
100
AcDbCircle
 10
7.232638623740201
 20
16.5026533414722
 30
0.0
 40
0.3437499999998863
100
AcDbArc
 50
314.9999999999948
 51
0.0000000000024427
  0
LINE
  5
17AF
330
1E
100
AcDbEntity
  8
0
100
AcDbLine
 10
7.576388623740073
 20
16.79110482204425
 30
0.0
 11
7.576388623740087
 21
16.50265334147221
 31
0.0
  0
ARC
  5
17B0
330
1E
100
AcDbEntity
  8
0
100
AcDbCircle
 10
7.232638623740087
 20
16.79110482204423
 30
0.0
 40
0.3437499999999877
100
AcDbArc
 50
0.0000000000024427
 51
45.00000000000173
  0
LINE
  5
17B1
330
1E
100
AcDbEntity
  8
0
100
AcDbLine
 10
7.195376493883032
 20
17.31450286396702
 30
0.0
 11
7.475706579772947
 21
17.03417277807711
 31
0.0
  0
CIRCLE
  5
17B2
330
1E
100
AcDbEntity
  8
0
100
AcDbCircle
 10
8.201388623740087
 20
16.64687908175824
 30
0.0
 40
0.1325
  0
CIRCLE
  5
17B3
330
1E
100
AcDbEntity
  8
0
100
AcDbCircle
 10
7.138888623740087
 20
16.64687908175824
 30
0.0
 40
0.1325
  0
LINE
  5
17B4
330
1E
100
AcDbEntity
  8
0
100
AcDbLine
 10
7.302070667706914
 20
20.40917277807689
 30
0.0
 11
7.582400753596872
 21
20.68950286396689
 31
0.0
  0
LINE
  5
17B5
330
1E
100
AcDbEntity
  8
0
100
AcDbLine
 10
7.475706579772904
 20
20.75958538543932
 30
0.0
 11
7.195376493883103
 21
20.47925529954945
 31
0.0
  0
CIRCLE
  5
17B6
330
1E
100
AcDbEntity
  8
0
100
AcDbCircle
 10
6.576388623740087
 20
20.02187908175824
 30
0.0
 40
0.1325
  0
CIRCLE
  5
17B7
330
1E
100
AcDbEntity
  8
0
100
AcDbCircle
 10
6.576388623740087
 20
17.77187908175824
 30
0.0
 40
0.1325
  0
ARC
  5
17B8
330
1E
100
AcDbEntity
  8
0
100
AcDbCircle
 10
7.545138623739689
 20
17.91610482204403
 30
0.0
 40
0.3437499999999574
100
AcDbArc
 50
134.9999999999965
 51
179.9999999999907
  0
ARC
  5
17B9
330
1E
100
AcDbEntity
  8
0
100
AcDbCircle
 10
7.482638623739987
 20
17.94199316969242
 30
0.0
 40
0.4062499999999179
100
AcDbArc
 50
134.9999999999928
 51
180.0000000000021
  0
LINE
  5
17BA
330
1E
100
AcDbEntity
  8
0
100
AcDbLine
 10
7.201388623739717
 20
19.8776533414723
 30
0.0
 11
7.201388623739803
 21
20.16610482204412
 31
0.0
  0
ARC
  5
17BB
330
1E
100
AcDbEntity
  8
0
100
AcDbCircle
 10
7.545138623739774
 20
19.87765334147235
 30
0.0
 40
0.3437500000000581
100
AcDbArc
 50
180.0000000000094
 51
224.9999999999965
  0
LINE
  5
17BC
330
1E
100
AcDbEntity
  8
0
100
AcDbLine
 10
7.582400753596758
 20
19.35425529954951
 30
0.0
 11
7.302070667706843
 21
19.63458538543945
 31
0.0
  0
ARC
  5
17BD
330
1E
100
AcDbEntity
  8
0
100
AcDbCircle
 10
7.295138623739817
 20
19.06699316969251
 30
0.0
 40
0.4062499999999147
100
AcDbArc
 50
359.9999999999959
 51
45.00000000000576
  0
LINE
  5
17BE
330
1E
100
AcDbEntity
  8
0
100
AcDbLine
 10
7.701388623739774
 20
18.72676499382392
 30
0.0
 11
7.701388623739732
 21
19.06699316969248
 31
0.0
  0
ARC
  5
17BF
330
1E
100
AcDbEntity
  8
0
100
AcDbCircle
 10
7.295138623739774
 20
18.72676499382392
 30
0.0
 40
0.4062499999999983
100
AcDbArc
 50
315.0000000000014
 51
0.0
  0
LINE
  5
17C0
330
1E
100
AcDbEntity
  8
0
100
AcDbLine
 10
7.302070667706857
 20
18.15917277807689
 30
0.0
 11
7.582400753596815
 21
18.43950286396689
 31
0.0
  0
LINE
  5
17C1
330
1E
100
AcDbEntity
  8
0
100
AcDbLine
 10
7.475706579772933
 20
18.50958538543935
 30
0.0
 11
7.195376493883046
 21
18.22925529954944
 31
0.0
  0
ARC
  5
17C2
330
1E
100
AcDbEntity
  8
0
100
AcDbCircle
 10
7.232638623740087
 20
18.75265334147224
 30
0.0
 40
0.3437499999999858
100
AcDbArc
 50
314.9999999999948
 51
0.0
  0
LINE
  5
17C3
330
1E
100
AcDbEntity
  8
0
100
AcDbLine
 10
7.576388623740073
 20
19.04110482204428
 30
0.0
 11
7.576388623740073
 21
18.75265334147224
 31
0.0
  0
ARC
  5
17C4
330
1E
100
AcDbEntity
  8
0
100
AcDbCircle
 10
7.232638623740016
 20
19.04110482204426
 30
0.0
 40
0.3437500000000681
100
AcDbArc
 50
0.0000000000024427
 51
44.99999999999827
  0
LINE
  5
17C5
330
1E
100
AcDbEntity
  8
0
100
AcDbLine
 10
7.195376493883046
 20
19.56450286396699
 30
0.0
 11
7.475706579772947
 21
19.28417277807718
 31
0.0
  0
ARC
  5
17C6
330
1E
100
AcDbEntity
  8
0
100
AcDbCircle
 10
7.482638623740186
 20
19.85176499382409
 30
0.0
 40
0.4062500000001137
100
AcDbArc
 50
179.9999999999959
 51
224.9999999999957
  0
LINE
  5
17C7
330
1E
100
AcDbEntity
  8
0
100
AcDbLine
 10
7.076388623740101
 20
20.19199316969241
 30
0.0
 11
7.076388623740073
 21
19.85176499382412
 31
0.0
  0
CIRCLE
  5
17C8
330
1E
100
AcDbEntity
  8
0
100
AcDbCircle
 10
8.201388623740087
 20
18.89687908175824
 30
0.0
 40
0.1325
  0
CIRCLE
  5
17C9
330
1E
100
AcDbEntity
  8
0
100
AcDbCircle
 10
7.638888623740087
 20
20.02187908175824
 30
0.0
 40
0.1325
  0
CIRCLE
  5
17CA
330
1E
100
AcDbEntity
  8
0
100
AcDbCircle
 10
7.138888623740087
 20
18.89687908175824
 30
0.0
 40
0.1325
  0
ARC
  5
17CB
330
1E
100
AcDbEntity
  8
0
100
AcDbCircle
 10
7.545138623739646
 20
20.16610482204409
 30
0.0
 40
0.3437499999998437
100
AcDbArc
 50
134.9999999999916
 51
179.9999999999951
  0
ARC
  5
17CC
330
1E
100
AcDbEntity
  8
0
100
AcDbCircle
 10
7.482638623740101
 20
20.19199316969238
 30
0.0
 40
0.4062499999999983
100
AcDbArc
 50
134.9999999999928
 51
179.9999999999959
  0
ARC
  5
17CD
330
1E
100
AcDbEntity
  8
0
100
AcDbCircle
 10
7.545138623739689
 20
17.62765334147234
 30
0.0
 40
0.3437499999999676
100
AcDbArc
 50
180.0000000000049
 51
225.0000000000017
  0
LINE
  5
17CE
330
1E
100
AcDbEntity
  8
0
100
AcDbLine
 10
7.201388623739717
 20
17.62765334147231
 30
0.0
 11
7.201388623739732
 21
17.91610482204409
 31
0.0
  0
LINE
  5
17CF
330
1E
100
AcDbEntity
  8
0
100
AcDbLine
 10
7.076388623740073
 20
17.94199316969241
 30
0.0
 11
7.076388623740101
 21
17.60176499382405
 31
0.0
  0
CIRCLE
  5
17D0
330
1E
100
AcDbEntity
  8
0
100
AcDbCircle
 10
7.638888623740087
 20
17.77187908175824
 30
0.0
 40
0.1325
  0
CIRCLE
  5
17D1
330
1E
100
AcDbEntity
  8
0
100
AcDbCircle
 10
6.576388623740087
 20
22.27187908175824
 30
0.0
 40
0.1325
  0
ARC
  5
17D2
330
1E
100
AcDbEntity
  8
0
100
AcDbCircle
 10
7.295138623739774
 20
23.56699316969248
 30
0.0
 40
0.4062499999999432
100
AcDbArc
 50
359.9999999999919
 51
44.99999999999568
  0
ARC
  5
17D3
330
1E
100
AcDbEntity
  8
0
100
AcDbCircle
 10
7.23263862374003
 20
23.54110482204426
 30
0.0
 40
0.343750000000038
100
AcDbArc
 50
359.9999999999976
 51
45.0
  0
LINE
  5
17D4
330
1E
100
AcDbEntity
  8
0
100
AcDbLine
 10
7.701388623739774
 20
23.22676499382386
 30
0.0
 11
7.701388623739717
 21
23.56699316969242
 31
0.0
  0
LINE
  5
17D5
330
1E
100
AcDbEntity
  8
0
100
AcDbLine
 10
7.576388623740073
 20
23.54110482204425
 30
0.0
 11
7.576388623740073
 21
23.25265334147227
 31
0.0
  0
CIRCLE
  5
17D6
330
1E
100
AcDbEntity
  8
0
100
AcDbCircle
 10
8.201388623740087
 20
23.39687908175824
 30
0.0
 40
0.1325
  0
CIRCLE
  5
17D7
330
1E
100
AcDbEntity
  8
0
100
AcDbCircle
 10
7.138888623740087
 20
23.39687908175824
 30
0.0
 40
0.1325
  0
ARC
  5
17D8
330
1E
100
AcDbEntity
  8
0
100
AcDbCircle
 10
7.232638623740058
 20
21.00265334147221
 30
0.0
 40
0.3437499999999858
100
AcDbArc
 50
314.9999999999948
 51
0.0
  0
ARC
  5
17D9
330
1E
100
AcDbEntity
  8
0
100
AcDbCircle
 10
7.295138623739831
 20
20.97676499382392
 30
0.0
 40
0.4062499999999983
100
AcDbArc
 50
315.0000000000014
 51
0.0000000000020356
  0
LINE
  5
17DA
330
1E
100
AcDbEntity
  8
0
100
AcDbLine
 10
7.302070667706857
 20
22.65917277807689
 30
0.0
 11
7.582400753596829
 21
22.93950286396684
 31
0.0
  0
ARC
  5
17DB
330
1E
100
AcDbEntity
  8
0
100
AcDbCircle
 10
7.545138623739589
 20
22.41610482204409
 30
0.0
 40
0.3437499999998437
100
AcDbArc
 50
134.9999999999916
 51
179.9999999999951
  0
LINE
  5
17DC
330
1E
100
AcDbEntity
  8
0
100
AcDbLine
 10
7.201388623739717
 20
22.12765334147231
 30
0.0
 11
7.201388623739746
 21
22.41610482204412
 31
0.0
  0
ARC
  5
17DD
330
1E
100
AcDbEntity
  8
0
100
AcDbCircle
 10
7.545138623739788
 20
22.12765334147235
 30
0.0
 40
0.3437500000000681
100
AcDbArc
 50
180.0000000000069
 51
224.9999999999951
  0
LINE
  5
17DE
330
1E
100
AcDbEntity
  8
0
100
AcDbLine
 10
7.582400753596772
 20
21.60425529954945
 30
0.0
 11
7.302070667706843
 21
21.88458538543945
 31
0.0
  0
ARC
  5
17DF
330
1E
100
AcDbEntity
  8
0
100
AcDbCircle
 10
7.295138623739746
 20
21.31699316969247
 30
0.0
 40
0.4062499999999574
100
AcDbArc
 50
359.9999999999939
 51
44.99999999999568
  0
LINE
  5
17E0
330
1E
100
AcDbEntity
  8
0
100
AcDbLine
 10
7.701388623739831
 20
20.97676499382393
 30
0.0
 11
7.701388623739703
 21
21.31699316969242
 31
0.0
  0
LINE
  5
17E1
330
1E
100
AcDbEntity
  8
0
100
AcDbLine
 10
7.576388623740073
 20
21.29110482204425
 30
0.0
 11
7.576388623740044
 21
21.00265334147221
 31
0.0
  0
ARC
  5
17E2
330
1E
100
AcDbEntity
  8
0
100
AcDbCircle
 10
7.232638623740016
 20
21.29110482204425
 30
0.0
 40
0.3437500000000581
100
AcDbArc
 50
0.0
 51
44.99999999999655
  0
LINE
  5
17E3
330
1E
100
AcDbEntity
  8
0
100
AcDbLine
 10
7.195376493883046
 20
21.81450286396702
 30
0.0
 11
7.475706579772947
 21
21.53417277807715
 31
0.0
  0
ARC
  5
17E4
330
1E
100
AcDbEntity
  8
0
100
AcDbCircle
 10
7.482638623740058
 20
22.10176499382403
 30
0.0
 40
0.4062499999999716
100
AcDbArc
 50
179.999999999998
 51
225.0
  0
LINE
  5
17E5
330
1E
100
AcDbEntity
  8
0
100
AcDbLine
 10
7.076388623740073
 20
22.44199316969241
 30
0.0
 11
7.076388623740087
 21
22.10176499382405
 31
0.0
  0
ARC
  5
17E6
330
1E
100
AcDbEntity
  8
0
100
AcDbCircle
 10
7.482638623740058
 20
22.44199316969241
 30
0.0
 40
0.4062499999999882
100
AcDbArc
 50
135.0
 51
180.0
  0
LINE
  5
17E7
330
1E
100
AcDbEntity
  8
0
100
AcDbLine
 10
7.475706579772933
 20
23.00958538543938
 30
0.0
 11
7.195376493883032
 21
22.72925529954944
 31
0.0
  0
CIRCLE
  5
17E8
330
1E
100
AcDbEntity
  8
0
100
AcDbCircle
 10
8.201388623740087
 20
21.14687908175824
 30
0.0
 40
0.1325
  0
CIRCLE
  5
17E9
330
1E
100
AcDbEntity
  8
0
100
AcDbCircle
 10
7.638888623740087
 20
22.27187908175824
 30
0.0
 40
0.1325
  0
CIRCLE
  5
17EA
330
1E
100
AcDbEntity
  8
0
100
AcDbCircle
 10
7.138888623740087
 20
21.14687908175824
 30
0.0
 40
0.1325
  0
ARC
  5
17EB
330
1E
100
AcDbEntity
  8
0
100
AcDbCircle
 10
7.295138623739732
 20
23.22676499382386
 30
0.0
 40
0.4062500000000385
100
AcDbArc
 50
315.0000000000069
 51
0.0
  0
ARC
  5
17EC
330
1E
100
AcDbEntity
  8
0
100
AcDbCircle
 10
7.232638623740087
 20
23.25265334147227
 30
0.0
 40
0.3437499999999858
100
AcDbArc
 50
314.9999999999948
 51
0.0
  0
LINE
  5
17ED
330
1E
100
AcDbEntity
  8
0
100
AcDbLine
 10
8.763888623740087
 20
12.78187908175825
 30
0.0
 11
8.763888623740087
 21
14.10874180354983
 31
0.0
  0
LWPOLYLINE
  5
17EF
330
1E
100
AcDbEntity
  8
0
100
AcDbPolyline
 90
       11
 70
     0
 43
0.0
 10
8.675512111540087
 20
12.29687908175828
 10
8.701198740240073
 20
12.33530820055827
 10
8.72201243364006
 20
12.37329251685827
 10
8.737744821540076
 20
12.40932460405827
 10
8.748871620540143
 20
12.44241494455827
 10
8.756267926140112
 20
12.47236138965826
 10
8.760622424940124
 20
12.49805569925826
 10
8.762797021240061
 20
12.51864259445827
 10
8.76366184384014
 20
12.53400699315827
 10
8.763873790340114
 20
12.54358689445826
 10
8.763906271940101
 20
12.54640527525825
  0
ARC
  5
17F0
330
1E
100
AcDbEntity
  8
0
100
AcDbCircle
 10
8.96638862374013
 20
12.94812513434293
 30
0.0
 40
0.127
100
AcDbArc
 50
180.0
 51
237.8934063879853
  0
ARC
  5
17F1
330
1E
100
AcDbEntity
  8
0
100
AcDbCircle
 10
8.96638862374013
 20
13.07312513434293
 30
0.0
 40
0.127
100
AcDbArc
 50
122.1065936120146
 51
180.0
  0
ARC
  5
17F2
330
1E
100
AcDbEntity
  8
0
100
AcDbCircle
 10
8.96638862374013
 20
12.94812513434293
 30
0.0
 40
0.262
100
AcDbArc
 50
219.3849057044635
 51
254.5117502058546
  0
ARC
  5
17F3
330
1E
100
AcDbEntity
  8
0
100
AcDbCircle
 10
8.96638862374013
 20
13.07312513434293
 30
0.0
 40
0.262
100
AcDbArc
 50
104.9296938212814
 51
140.6150942955365
  0
LINE
  5
17F4
330
1E
100
AcDbEntity
  8
0
100
AcDbLine
 10
8.839388623740121
 20
13.07312513434292
 30
0.0
 11
8.839388623740121
 21
12.94812513434292
 31
0.0
  0
LINE
  5
17F5
330
1E
100
AcDbEntity
  8
0
100
AcDbLine
 10
8.763903333040133
 20
12.54640527525825
 30
0.0
 11
8.763903333040133
 21
12.78095989705827
 31
0.0
  0
LINE
  5
17F6
330
1E
100
AcDbEntity
  8
0
100
AcDbLine
 10
8.763903333040133
 20
12.54648499505825
 30
0.0
 11
8.763906272040089
 21
12.54640527335826
 31
0.0
  0
LINE
  5
17F7
330
1E
100
AcDbEntity
  8
0
100
AcDbLine
 10
8.763906271940101
 20
12.54640527525825
 30
0.0
 11
8.763888804640118
 21
12.54687908175828
 31
0.0
  0
LINE
  5
17F8
330
1E
100
AcDbEntity
  8
0
 62
     3
100
AcDbLine
 10
8.763906118940071
 20
12.78095989715828
 30
0.0
 11
8.763888623740144
 21
12.78187815225826
 31
0.0
  0
LINE
  5
17FA
330
1E
100
AcDbEntity
  8
0
100
AcDbLine
 10
8.614309580704372
 20
11.89958464211088
 30
0.0
 11
8.614309580704372
 21
11.89958464211088
 31
0.0
  0
ARC
  5
17FB
330
1E
100
AcDbEntity
  8
0
100
AcDbCircle
 10
13.92342043292601
 20
12.44084799819034
 30
0.0
 40
0.5000000000000284
100
AcDbArc
 50
161.6293610254278
 51
180.0
  0
LINE
  5
17FC
330
1E
100
AcDbEntity
  8
0
100
AcDbLine
 10
13.42342043292597
 20
11.2718790817583
 30
0.0
 11
13.42342043292598
 21
12.44084799819034
 31
0.0
  0
CIRCLE
  5
17FF
330
1E
100
AcDbEntity
  8
0
100
AcDbCircle
 10
6.576388623740087
 20
24.52187908175824
 30
0.0
 40
0.1325
  0
ARC
  5
1800
330
1E
100
AcDbEntity
  8
0
100
AcDbCircle
 10
7.482638623740172
 20
26.60176499382408
 30
0.0
 40
0.4062500000000995
100
AcDbArc
 50
180.0
 51
224.9999999999957
  0
LINE
  5
1801
330
1E
100
AcDbEntity
  8
0
100
AcDbLine
 10
7.582400753596801
 20
26.10425529954951
 30
0.0
 11
7.302070667706815
 21
26.38458538543951
 31
0.0
  0
ARC
  5
1802
330
1E
100
AcDbEntity
  8
0
100
AcDbCircle
 10
7.295138623739689
 20
25.81699316969252
 30
0.0
 40
0.4062500000000142
100
AcDbArc
 50
359.9999999999919
 51
44.99999999998734
  0
ARC
  5
1803
330
1E
100
AcDbEntity
  8
0
100
AcDbCircle
 10
7.232638623739945
 20
25.79110482204423
 30
0.0
 40
0.3437500000001284
100
AcDbArc
 50
0.0000000000024427
 51
44.99999999999482
  0
LINE
  5
1804
330
1E
100
AcDbEntity
  8
0
100
AcDbLine
 10
7.195376493883046
 20
26.31450286396699
 30
0.0
 11
7.475706579772933
 21
26.03417277807718
 31
0.0
  0
LINE
  5
1805
330
1E
100
AcDbEntity
  8
0
100
AcDbLine
 10
7.201388623739732
 20
26.62765334147231
 30
0.0
 11
7.201388623739717
 21
26.77187908175823
 31
0.0
  0
ARC
  5
1806
330
1E
100
AcDbEntity
  8
0
100
AcDbCircle
 10
7.545138623739675
 20
26.62765334147233
 30
0.0
 40
0.3437499999999475
100
AcDbArc
 50
180.0000000000024
 51
224.9999999999951
  0
LINE
  5
1807
330
1E
100
AcDbEntity
  8
0
100
AcDbLine
 10
7.07638862374008
 20
26.77187908175824
 30
0.0
 11
7.076388623740073
 21
26.60176499382408
 31
0.0
  0
ARC
  5
1808
330
1E
100
AcDbEntity
  8
0
100
AcDbCircle
 10
7.295138623739859
 20
25.47676499382395
 30
0.0
 40
0.406249999999928
100
AcDbArc
 50
314.9999999999885
 51
359.9999999999878
  0
LINE
  5
1809
330
1E
100
AcDbEntity
  8
0
100
AcDbLine
 10
7.302070667706985
 20
24.90917277807698
 30
0.0
 11
7.582400753596787
 21
25.18950286396691
 31
0.0
  0
ARC
  5
180A
330
1E
100
AcDbEntity
  8
0
100
AcDbCircle
 10
7.545138623739845
 20
24.66610482204406
 30
0.0
 40
0.3437500000000142
100
AcDbArc
 50
134.9999999999934
 51
180.0
  0
LINE
  5
180B
330
1E
100
AcDbEntity
  8
0
100
AcDbLine
 10
7.201388623739717
 20
24.37765334147242
 30
0.0
 11
7.201388623739831
 21
24.66610482204406
 31
0.0
  0
ARC
  5
180C
330
1E
100
AcDbEntity
  8
0
100
AcDbCircle
 10
7.54513862373976
 20
24.37765334147245
 30
0.0
 40
0.343750000000048
100
AcDbArc
 50
180.0000000000049
 51
225.0000000000052
  0
ARC
  5
180D
330
1E
100
AcDbEntity
  8
0
100
AcDbCircle
 10
7.482638623740172
 20
24.35176499382408
 30
0.0
 40
0.4062500000000995
100
AcDbArc
 50
180.0
 51
224.9999999999957
  0
LINE
  5
180E
330
1E
100
AcDbEntity
  8
0
100
AcDbLine
 10
7.076388623740101
 20
24.69199316969241
 30
0.0
 11
7.076388623740073
 21
24.35176499382408
 31
0.0
  0
ARC
  5
180F
330
1E
100
AcDbEntity
  8
0
100
AcDbCircle
 10
7.482638623740087
 20
24.69199316969241
 30
0.0
 40
0.4062499999999882
100
AcDbArc
 50
135.0
 51
180.0
  0
LINE
  5
1810
330
1E
100
AcDbEntity
  8
0
100
AcDbLine
 10
7.475706579772904
 20
25.25958538543932
 30
0.0
 11
7.19537649388306
 21
24.97925529954944
 31
0.0
  0
ARC
  5
1811
330
1E
100
AcDbEntity
  8
0
100
AcDbCircle
 10
7.232638623740002
 20
25.50265334147225
 30
0.0
 40
0.3437500000000568
100
AcDbArc
 50
314.9999999999965
 51
359.9999999999976
  0
CIRCLE
  5
1812
330
1E
100
AcDbEntity
  8
0
100
AcDbCircle
 10
7.638888623740087
 20
24.52187908175824
 30
0.0
 40
0.1325
  0
LINE
  5
1813
330
1E
100
AcDbEntity
  8
0
100
AcDbLine
 10
7.701388623739788
 20
25.47676499382386
 30
0.0
 11
7.701388623739703
 21
25.81699316969247
 31
0.0
  0
LINE
  5
1814
330
1E
100
AcDbEntity
  8
0
100
AcDbLine
 10
7.576388623740073
 20
25.79110482204425
 30
0.0
 11
7.576388623740058
 21
25.50265334147224
 31
0.0
  0
CIRCLE
  5
1815
330
1E
100
AcDbEntity
  8
0
100
AcDbCircle
 10
8.201388623740087
 20
25.64687908175824
 30
0.0
 40
0.1325
  0
CIRCLE
  5
1816
330
1E
100
AcDbEntity
  8
0
100
AcDbCircle
 10
7.138888623740087
 20
25.64687908175824
 30
0.0
 40
0.1325
  0
LINE
  5
1817
330
1E
100
AcDbEntity
  8
0
100
AcDbLine
 10
14.73158761682694
 20
16.65949420638869
 30
0.0
 11
15.54572043292594
 21
27.89687908175824
 31
0.0
  0
LINE
  5
1818
330
1E
100
AcDbEntity
  8
0
100
AcDbLine
 10
17.04572043292594
 20
27.89687908175824
 30
0.0
 11
17.04572043292589
 21
11.54187908175827
 31
0.0
  0
LINE
  5
1819
330
1E
100
AcDbEntity
  8
0
  6
HIDDEN
100
AcDbLine
 10
16.91072043292593
 20
27.89687908175824
 30
0.0
 11
16.9107204329259
 21
11.54187908175827
 31
0.0
  0
LINE
  5
181A
330
1E
100
AcDbEntity
  8
0
  6
HIDDEN
100
AcDbLine
 10
16.05689357390406
 20
12.54687052285826
 30
0.0
 11
15.05689357390406
 21
12.54687052285826
 31
0.0
  0
LINE
  5
181B
330
1E
100
AcDbEntity
  8
0
  6
HIDDEN
100
AcDbLine
 10
16.05689357390406
 20
12.78187052285826
 30
0.0
 11
15.05689357390406
 21
12.78187052285826
 31
0.0
  0
ARC
  5
181C
330
1E
100
AcDbEntity
  8
0
  6
HIDDEN
100
AcDbCircle
 10
15.05689357390406
 20
12.29687052285826
 30
0.0
 40
0.485
100
AcDbArc
 50
90.0
 51
180.0
  0
ARC
  5
181D
330
1E
100
AcDbEntity
  8
0
  6
HIDDEN
100
AcDbCircle
 10
15.05689357390406
 20
12.29687052285826
 30
0.0
 40
0.25
100
AcDbArc
 50
90.0
 51
180.0
  0
LINE
  5
181F
330
1E
100
AcDbEntity
  8
0
  6
HIDDEN
100
AcDbLine
 10
15.08814357390406
 20
12.54687052285826
 30
0.0
 11
15.08814357390406
 21
12.78187052285826
 31
0.0
  0
LINE
  5
1821
330
1E
100
AcDbEntity
  8
0
100
AcDbLine
 10
15.10822043292595
 20
11.30687908175827
 30
0.0
 11
15.10822043292589
 21
11.40687908175826
 31
0.0
  0
LINE
  5
1822
330
1E
100
AcDbEntity
  8
0
  6
HIDDEN
100
AcDbLine
 10
14.57189357390405
 20
12.29687052285826
 30
0.0
 11
14.57189357390405
 21
11.40687908175825
 31
0.0
  0
LINE
  5
1823
330
1E
100
AcDbEntity
  8
0
  6
HIDDEN
100
AcDbLine
 10
14.80689357390406
 20
12.29687052285826
 30
0.0
 11
14.80689357390406
 21
11.40687908175825
 31
0.0
  0
ARC
  5
1824
330
1E
100
AcDbEntity
  8
0
  6
HIDDEN
100
AcDbCircle
 10
16.05689357390406
 20
12.29687052285826
 30
0.0
 40
0.485
100
AcDbArc
 50
0.0
 51
90.0
  0
ARC
  5
1825
330
1E
100
AcDbEntity
  8
0
  6
HIDDEN
100
AcDbCircle
 10
16.05689357390406
 20
12.29687052285826
 30
0.0
 40
0.25
100
AcDbArc
 50
0.0
 51
90.0
  0
LINE
  5
1827
330
1E
100
AcDbEntity
  8
0
  6
HIDDEN
100
AcDbLine
 10
16.02564357390406
 20
12.54687052285826
 30
0.0
 11
16.02564357390406
 21
12.78187052285826
 31
0.0
  0
ARC
  5
1829
330
1E
100
AcDbEntity
  8
0
100
AcDbCircle
 10
16.77572043292591
 20
11.54187908175827
 30
0.0
 40
0.27
100
AcDbArc
 50
270.0
 51
0.0
  0
LINE
  5
182A
330
1E
100
AcDbEntity
  8
0
100
AcDbLine
 10
16.23322043292589
 20
11.30687908175825
 30
0.0
 11
16.23322043292589
 21
11.40687908175826
 31
0.0
  0
LINE
  5
182B
330
1E
100
AcDbEntity
  8
0
100
AcDbLine
 10
16.9107204329259
 20
11.65687908175826
 30
0.0
 11
17.01072043292592
 21
11.65687908175826
 31
0.0
  0
ARC
  5
182C
330
1E
100
AcDbEntity
  8
0
  6
HIDDEN
100
AcDbCircle
 10
16.77572043292591
 20
11.54187908175827
 30
0.0
 40
0.135
100
AcDbArc
 50
270.0
 51
0.0
  0
LINE
  5
182D
330
1E
100
AcDbEntity
  8
0
  6
HIDDEN
100
AcDbLine
 10
16.30689357390406
 20
12.29687052285826
 30
0.0
 11
16.30689357390406
 21
11.40687908175825
 31
0.0
  0
LINE
  5
182E
330
1E
100
AcDbEntity
  8
0
  6
HIDDEN
100
AcDbLine
 10
16.54189357390405
 20
12.29687052285826
 30
0.0
 11
16.54189357390405
 21
11.40687908175825
 31
0.0
  0
ARC
  5
182F
330
1E
100
AcDbEntity
  8
0
100
AcDbCircle
 10
12.73645951630726
 20
16.79900715387696
 30
0.0
 40
2.000000000000031
100
AcDbArc
 50
341.6293610254262
 51
355.9999999999994
  0
LINE
  5
1842
330
1E
100
AcDbEntity
  8
0
100
AcDbLine
 10
8.70438862374013
 20
13.07312513434292
 30
0.0
 11
8.70438862374013
 21
12.94812513434292
 31
0.0
  0
ARC
  5
1843
330
1E
100
AcDbEntity
  8
0
100
AcDbCircle
 10
8.96638862374013
 20
13.07312513434293
 30
0.0
 40
0.262
100
AcDbArc
 50
140.6150942955365
 51
180.0
  0
ARC
  5
1844
330
1E
100
AcDbEntity
  8
0
100
AcDbCircle
 10
8.96638862374013
 20
12.94812513434293
 30
0.0
 40
0.262
100
AcDbArc
 50
180.0
 51
219.3849057044635
  0
LINE
  5
1845
330
1E
100
AcDbEntity
  8
0
100
AcDbLine
 10
6.461046801295296
 20
12.73571595996863
 30
0.0
 11
6.38999622166862
 21
12.52703094927034
 31
0.0
  0
LINE
  5
1847
330
1E
100
AcDbEntity
  8
0
100
AcDbLine
 10
8.316329068803285
 20
12.72825350808143
 30
0.0
 11
8.38569860042384
 21
12.51900368935229
 31
0.0
  0
ARC
  5
1848
330
1E
100
AcDbEntity
  8
0
100
AcDbCircle
 10
5.81378257104998
 20
13.0858057767441
 30
0.0
 40
0.262
100
AcDbArc
 50
359.5390839446449
 51
38.92398964910837
  0
ARC
  5
1849
330
1E
100
AcDbEntity
  8
0
100
AcDbCircle
 10
5.81378257104998
 20
13.0858057767441
 30
0.0
 40
0.127
100
AcDbArc
 50
359.5390839446449
 51
57.43249033263025
  0
ARC
  5
184A
330
1E
100
AcDbEntity
  8
0
100
AcDbCircle
 10
5.812777019052959
 20
12.96080982134881
 30
0.0
 40
0.262
100
AcDbArc
 50
320.1541782401814
 51
359.5390839446449
  0
LINE
  5
184B
330
1E
100
AcDbEntity
  8
0
100
AcDbLine
 10
6.075774093558508
 20
13.08369813975833
 30
0.0
 11
6.074768541561486
 21
12.95870218436304
 31
0.0
  0
LINE
  5
184C
330
1E
100
AcDbEntity
  8
0
100
AcDbLine
 10
5.940778461731604
 20
13.08478413591511
 30
0.0
 11
5.939772909734582
 21
12.95978818051982
 31
0.0
  0
ARC
  5
184D
330
1E
100
AcDbEntity
  8
0
100
AcDbCircle
 10
5.812777019052959
 20
12.96080982134881
 30
0.0
 40
0.262
100
AcDbArc
 50
285.0273337387902
 51
320.1541782401814
  0
ARC
  5
184E
330
1E
100
AcDbEntity
  8
0
100
AcDbCircle
 10
5.812777019052959
 20
12.96080982134881
 30
0.0
 40
0.127
100
AcDbArc
 50
301.6456775566596
 51
359.5390839446449
  0
LINE
  5
184F
330
1E
100
AcDbEntity
  8
0
 62
     3
100
AcDbLine
 10
6.013908225454808
 20
12.7920211396061
 30
0.0
 11
6.013933106914642
 21
12.79293922425557
 31
0.0
  0
ARC
  5
1850
330
1E
100
AcDbEntity
  8
0
100
AcDbCircle
 10
5.81378257104998
 20
13.0858057767441
 30
0.0
 40
0.262
100
AcDbArc
 50
38.92398964910837
 51
74.60939012336345
  0
CIRCLE
  5
1A54
330
1E
100
AcDbEntity
  8
0
100
AcDbCircle
 10
6.576388623740087
 20
26.77187908175824
 30
0.0
 40
0.1325
  0
CIRCLE
  5
1A55
330
1E
100
AcDbEntity
  8
0
100
AcDbCircle
 10
7.638888623740087
 20
26.77187908175824
 30
0.0
 40
0.1325
  0
LINE
  5
1A56
330
1E
100
AcDbEntity
  8
0
100
AcDbLine
 10
7.302070667706985
 20
27.15917277807698
 30
0.0
 11
7.582400753596787
 21
27.43950286396691
 31
0.0
  0
LINE
  5
1A57
330
1E
100
AcDbEntity
  8
0
100
AcDbLine
 10
7.475706579772904
 20
27.50958538543932
 30
0.0
 11
7.19537649388306
 21
27.22925529954944
 31
0.0
  0
ARC
  5
1A58
330
1E
100
AcDbEntity
  8
0
100
AcDbCircle
 10
7.482638623740087
 20
26.94199316969241
 30
0.0
 40
0.4062499999999882
100
AcDbArc
 50
135.0
 51
180.0
  0
ARC
  5
1A59
330
1E
100
AcDbEntity
  8
0
100
AcDbCircle
 10
7.232638623740002
 20
27.75265334147225
 30
0.0
 40
0.3437500000000568
100
AcDbArc
 50
314.9999999999965
 51
359.9999999999976
  0
ARC
  5
1A5A
330
1E
100
AcDbEntity
  8
0
100
AcDbCircle
 10
7.295138623739859
 20
27.72676499382395
 30
0.0
 40
0.406249999999928
100
AcDbArc
 50
314.9999999999885
 51
359.9999999999878
  0
LINE
  5
1A5B
330
1E
100
AcDbEntity
  8
0
100
AcDbLine
 10
7.701388623739788
 20
27.72676499382386
 30
0.0
 11
7.701388623739747
 21
27.89687908175825
 31
0.0
  0
LINE
  5
1A5C
330
1E
100
AcDbEntity
  8
0
100
AcDbLine
 10
7.576388623740066
 20
27.89687908175825
 30
0.0
 11
7.576388623740058
 21
27.75265334147224
 31
0.0
  0
ARC
  5
1A61
330
1E
100
AcDbEntity
  8
0
100
AcDbCircle
 10
7.545138623739845
 20
26.91610482204406
 30
0.0
 40
0.3437500000000142
100
AcDbArc
 50
134.9999999999934
 51
180.0
  0
LINE
  5
1A62
330
1E
100
AcDbEntity
  8
0
100
AcDbLine
 10
7.076388623740098
 20
26.94199316969241
 30
0.0
 11
7.07638862374008
 21
26.77187908175824
 31
0.0
  0
LINE
  5
1A63
330
1E
100
AcDbEntity
  8
0
100
AcDbLine
 10
7.201388623739831
 20
26.91610482204406
 30
0.0
 11
7.201388623739717
 21
26.77187908175823
 31
0.0
  0
LINE
  5
1A64
330
1E
100
AcDbEntity
  8
0
100
AcDbLine
 10
5.878888623740095
 20
27.89687908175824
 30
0.0
 11
7.576388623740067
 21
27.89687908175824
 31
0.0
  0
LINE
  5
1A65
330
1E
100
AcDbEntity
  8
0
100
AcDbLine
 10
7.701388623739747
 20
27.89687908175825
 30
0.0
 11
8.898888623740092
 21
27.89687908175824
 31
0.0
  0
ARC
  5
1DB3
330
1E
100
AcDbEntity
  8
0
100
AcDbCircle
 10
14.17447043292539
 20
11.55287879170939
 30
0.0
 40
0.2875
100
AcDbArc
 50
184.3718307981646
 51
355.6281692018354
  0
ARC
  5
1DB4
330
1E
100
AcDbEntity
  8
0
100
AcDbCircle
 10
14.17447043292539
 20
11.50904721874004
 30
0.0
 40
0.2875
100
AcDbArc
 50
4.371830798164571
 51
175.6281692018354
  0
ARC
  5
1DB5
330
1E
100
AcDbEntity
  8
0
100
AcDbCircle
 10
14.17447043292539
 20
11.50904721874004
 30
0.0
 40
0.1875
100
AcDbArc
 50
6.7123144673341
 51
173.2876855326667
  0
ARC
  5
1DB6
330
1E
100
AcDbEntity
  8
0
100
AcDbCircle
 10
14.17447043292539
 20
11.55287879170939
 30
0.0
 40
0.1875
100
AcDbArc
 50
186.7123144673349
 51
353.2876855326651
  0
CIRCLE
  5
1F38
330
1E
100
AcDbEntity
  8
0
100
AcDbCircle
 10
15.91072043292596
 20
22.83437908175783
 30
0.0
 40
0.3435
  0
LINE
  5
1F89
330
1E
100
AcDbEntity
  8
0
100
AcDbLine
 10
17.04572043292594
 20
27.89687908175824
 30
0.0
 11
15.54572043292594
 21
27.89687908175824
 31
0.0
  0
ENDSEC
  0
SECTION
  2
OBJECTS
  0
DICTIONARY
  5
C
330
0
100
AcDbDictionary
281
     1
  3
ACAD_COLOR
350
1FF4
  3
ACAD_GROUP
350
D
  3
ACAD_LAYOUT
350
19
  3
ACAD_MATERIAL
350
1FF3
  3
ACAD_MLINESTYLE
350
16
  3
ACAD_PLOTSETTINGS
350
18
  3
ACAD_PLOTSTYLENAME
350
E
  3
ACAD_TABLESTYLE
350
1FF5
  3
ACDBHEADERROUNDTRIPXREC
350
2006
  3
AcDbVariableDictionary
350
CA8
  3
ASE_INDEX_DICTIONARY
350
1020
  0
DICTIONARY
  5
1FF9
330
2
100
AcDbDictionary
280
     1
281
     1
  3
ACAD_LAYERFILTERS
360
1FFB
  3
ACLYDICTIONARY
360
1FFA
  0
DICTIONARY
  5
1FF4
102
{ACAD_REACTORS
330
C
102
}
330
C
100
AcDbDictionary
281
     1
  0
DICTIONARY
  5
D
102
{ACAD_REACTORS
330
C
102
}
330
C
100
AcDbDictionary
281
     1
  0
DICTIONARY
  5
19
102
{ACAD_REACTORS
330
C
102
}
330
C
100
AcDbDictionary
281
     1
  3
Layout1
350
1D
  3
Model
350
21
  0
DICTIONARY
  5
1FF3
102
{ACAD_REACTORS
330
C
102
}
330
C
100
AcDbDictionary
281
     1
  0
DICTIONARY
  5
16
102
{ACAD_REACTORS
330
C
102
}
330
C
100
AcDbDictionary
281
     1
  3
Standard
350
17
  0
DICTIONARY
  5
18
102
{ACAD_REACTORS
330
C
102
}
330
C
100
AcDbDictionary
281
     1
  0
ACDBDICTIONARYWDFLT
  5
E
102
{ACAD_REACTORS
330
C
102
}
330
C
100
AcDbDictionary
281
     1
  3
Normal
350
F
100
AcDbDictionaryWithDefault
340
F
  0
DICTIONARY
  5
1FF5
102
{ACAD_REACTORS
330
C
102
}
330
C
100
AcDbDictionary
281
     1
  3
Standard
350
1FF6
  0
DICTIONARY
  5
2006
102
{ACAD_REACTORS
330
C
102
}
330
C
100
AcDbDictionary
281
     1
  3
COLORDICT
350
2007
  3
MATERIALDICT
350
2008
  0
DICTIONARY
  5
CA8
102
{ACAD_REACTORS
330
C
102
}
330
C
100
AcDbDictionary
281
     1
  3
CTABLESTYLE
350
2002
  3
SORTENTS
350
2005
  0
DICTIONARY
  5
1020
102
{ACAD_REACTORS
330
C
102
}
330
C
100
AcDbDictionary
281
     1
  3
ASEBlockHierarchyIndexRecord
350
1022
1001
DCO15
1040
1521459692.647
  0
DICTIONARY
  5
1FFB
102
{ACAD_REACTORS
330
1FF9
102
}
330
1FF9
100
AcDbDictionary
281
     1
  0
DICTIONARY
  5
1FFA
102
{ACAD_REACTORS
330
1FF9
102
}
330
1FF9
100
AcDbDictionary
281
     1
1001
ACAD
1000
<All
  0
LAYOUT
  5
1D
102
{ACAD_REACTORS
330
19
102
}
102
{ACAD_XDICTIONARY
360
2009
102
}
330
19
100
AcDbPlotSettings
  1

  2
HP LaserJet 2100 Series PS
  4

  6

 40
0.0
 41
0.0
 42
0.0
 43
0.0
 44
0.0
 45
0.0
 46
0.0
 47
0.0
 48
0.0
 49
0.0
140
0.0
141
0.0
142
1.0
143
1.0
 70
   688
 72
     0
 73
     0
 74
     5
  7

 75
    16
147
1.0
148
0.0
149
0.0
100
AcDbLayout
  1
Layout1
 70
     0
 71
     1
 10
0.0
 20
0.0
 11
12.0
 21
9.0
 12
0.0
 22
0.0
 32
0.0
 14
1.000000000000000E+20
 24
1.000000000000000E+20
 34
1.000000000000000E+20
 15
-1.000000000000000E+20
 25
-1.000000000000000E+20
 35
-1.000000000000000E+20
146
0.0
 13
0.0
 23
0.0
 33
0.0
 16
1.0
 26
0.0
 36
0.0
 17
0.0
 27
1.0
 37
0.0
 76
     0
330
1A
  0
LAYOUT
  5
21
102
{ACAD_REACTORS
330
19
102
}
102
{ACAD_XDICTIONARY
360
200B
102
}
330
19
100
AcDbPlotSettings
  1

  2
HP LaserJet 2100 Series PS
  4
Letter
  6

 40
5.365749835968018
 41
5.408084392547607
 42
5.4080810546875
 43
5.365753173828125
 44
215.8999938964844
 45
279.3999938964844
 46
0.0
 47
0.0
 48
0.0
 49
0.0
140
0.0
141
0.0
142
1.0
143
2.978488807384696
 70
 28336
 72
     0
 73
     0
 74
     2
  7

 75
     0
147
0.335740727821658
148
0.0
149
0.0
100
AcDbLayout
  1
Model
 70
     1
 71
     0
 10
0.0
 20
0.0
 11
12.0
 21
9.0
 12
0.0
 22
0.0
 32
0.0
 14
0.0
 24
0.0
 34
0.0
 15
0.0
 25
0.0
 35
0.0
146
0.0
 13
0.0
 23
0.0
 33
0.0
 16
1.0
 26
0.0
 36
0.0
 17
0.0
 27
1.0
 37
0.0
 76
     0
330
1E
  0
MLINESTYLE
  5
17
102
{ACAD_REACTORS
330
16
102
}
330
16
100
AcDbMlineStyle
  2
STANDARD
 70
     0
  3

 62
   256
 51
90.0
 52
90.0
 71
     2
 49
0.5
 62
   256
  6
BYLAYER
 49
-0.5
 62
   256
  6
BYLAYER
  0
ACDBPLACEHOLDER
  5
F
102
{ACAD_REACTORS
330
E
102
}
330
E
  0
ACAD_PROXY_OBJECT
  5
1FF6
102
{ACAD_REACTORS
330
1FF5
102
}
330
1FF5
100
AcDbProxyObject
 90
      499
 91
      568
 95
   983063
 70
     0
 93
     1841
310
4214DD185B99185C9928B81E85EB51B8AE3F2E07A17AD46E2B8FC02B5E8DC0F42B1CFD028000000C1008070000C3001FDFF8000000C1003FBFF000000182007F7FE00000030400FEFFC00000060801FDFF8000000C1003FBFF00000018200000000000000681FA0B0000001820100E000186003FBFF000000182007F7FE000
310
00030400FEFFC00000060801FDFF8000000C1003FBFF000000182007F7FE000000304000AD7A3703D0AC73F4160000003040201C00030C007F7FE00000030400FEFFC00000060801FDFF8000000C1003FBFF000000182007F7FE00000030400FEFFC000000608000
340
11
340
11
340
11
 94
        0
  0
XRECORD
  5
2007
102
{ACAD_REACTORS
330
2006
102
}
330
2006
100
AcDbXrecord
340
1FF4
  0
XRECORD
  5
2008
102
{ACAD_REACTORS
330
2006
102
}
330
2006
100
AcDbXrecord
340
1FF3
  0
DICTIONARYVAR
  5
2002
102
{ACAD_REACTORS
330
CA8
102
}
330
CA8
100
DictionaryVariables
280
     0
  1
STANDARD
  0
DICTIONARYVAR
  5
2005
102
{ACAD_REACTORS
330
CA8
102
}
330
CA8
100
DictionaryVariables
280
     0
  1
0
  0
XRECORD
  5
1022
102
{ACAD_REACTORS
330
1020
102
}
330
1020
100
AcDbXrecord
280
     1
330
0
330
0
330
0
330
0
330
0
330
0
330
0
330
0
330
0
330
0
  0
DICTIONARY
  5
2009
330
1D
100
AcDbDictionary
280
     1
281
     1
  3
ACAD_XREC_ROUNDTRIP
360
200A
  0
DICTIONARY
  5
200B
330
21
100
AcDbDictionary
280
     1
281
     1
  3
ACAD_XREC_ROUNDTRIP
360
200C
  0
XRECORD
  5
200A
102
{ACAD_REACTORS
330
2009
102
}
330
2009
100
AcDbXrecord
102
SHADEPLOT
 70
     0
102
SHADEPLOTRESLEVEL
 70
     2
102
SHADEPLOTCUSTOMDPI
 70
   300
  0
XRECORD
  5
200C
102
{ACAD_REACTORS
330
200B
102
}
330
200B
100
AcDbXrecord
102
SHADEPLOT
 70
     0
102
SHADEPLOTRESLEVEL
 70
     2
102
SHADEPLOTCUSTOMDPI
 70
   300
  0
ENDSEC
  0
EOF
