  0
SECTION
  2
HEADER
  9
$ACADVER
  1
AC1015
  9
$ACADMAINTVER
 70
    20
  9
$DWGCODEPAGE
  3
ANSI_1252
  9
$INSBASE
 10
0.0
 20
0.0
 30
0.0
  9
$EXTMIN
 10
0.6239999999999995
 20
0.6239999999999981
 30
0.0
  9
$EXTMAX
 10
21.374
 20
16.374
 30
0.0
  9
$LIMMIN
 10
0.0
 20
0.0
  9
$LIMMAX
 10
22.0
 20
17.0
  9
$ORTHOMODE
 70
     0
  9
$REGENMODE
 70
     1
  9
$FILLMODE
 70
     1
  9
$QTEXTMODE
 70
     0
  9
$MIRRTEXT
 70
     0
  9
$LTSCALE
 40
2.0
  9
$ATTMODE
 70
     1
  9
$TEXTSIZE
 40
0.2
  9
$TRACEWID
 40
0.05
  9
$TEXTSTYLE
  7
Standard
  9
$CLAYER
  8
0
  9
$CELTYPE
  6
ByLayer
  9
$CECOLOR
 62
   256
  9
$CELTSCALE
 40
1.0
  9
$DISPSILH
 70
     0
  9
$DIMSCALE
 40
1.0
  9
$DIMASZ
 40
0.0708661417322835
  9
$DIMEXO
 40
0.0625
  9
$DIMDLI
 40
0.38
  9
$DIMRND
 40
0.0
  9
$DIMDLE
 40
0.0
  9
$DIMEXE
 40
0.18
  9
$DIMTP
 40
0.0
  9
$DIMTM
 40
0.0
  9
$DIMTXT
 40
0.0708661417322835
  9
$DIMCEN
 40
0.09
  9
$DIMTSZ
 40
0.0
  9
$DIMTOL
 70
     0
  9
$DIMLIM
 70
     0
  9
$DIMTIH
 70
     1
  9
$DIMTOH
 70
     1
  9
$DIMSE1
 70
     0
  9
$DIMSE2
 70
     0
  9
$DIMTAD
 70
     0
  9
$DIMZIN
 70
     0
  9
$DIMBLK
  1

  9
$DIMASO
 70
     1
  9
$DIMSHO
 70
     1
  9
$DIMPOST
  1

  9
$DIMAPOST
  1

  9
$DIMALT
 70
     0
  9
$DIMALTD
 70
     2
  9
$DIMALTF
 40
25.4
  9
$DIMLFAC
 40
1.0
  9
$DIMTOFL
 70
     0
  9
$DIMTVP
 40
0.0
  9
$DIMTIX
 70
     0
  9
$DIMSOXD
 70
     0
  9
$DIMSAH
 70
     0
  9
$DIMBLK1
  1

  9
$DIMBLK2
  1

  9
$DIMSTYLE
  2
Standard
  9
$DIMCLRD
 70
     0
  9
$DIMCLRE
 70
     0
  9
$DIMCLRT
 70
     0
  9
$DIMTFAC
 40
1.0
  9
$DIMGAP
 40
0.09
  9
$DIMJUST
 70
     0
  9
$DIMSD1
 70
     0
  9
$DIMSD2
 70
     0
  9
$DIMTOLJ
 70
     1
  9
$DIMTZIN
 70
     0
  9
$DIMALTZ
 70
     0
  9
$DIMALTTZ
 70
     0
  9
$DIMUPT
 70
     0
  9
$DIMDEC
 70
     4
  9
$DIMTDEC
 70
     4
  9
$DIMALTU
 70
     2
  9
$DIMALTTD
 70
     2
  9
$DIMTXSTY
  7
Standard
  9
$DIMAUNIT
 70
     0
  9
$DIMADEC
 70
     0
  9
$DIMALTRND
 40
0.0
  9
$DIMAZIN
 70
     0
  9
$DIMDSEP
 70
    46
  9
$DIMATFIT
 70
     3
  9
$DIMFRAC
 70
     0
  9
$DIMLDRBLK
  1

  9
$DIMLUNIT
 70
     2
  9
$DIMLWD
 70
    -2
  9
$DIMLWE
 70
    -2
  9
$DIMTMOVE
 70
     0
  9
$LUNITS
 70
     2
  9
$LUPREC
 70
     4
  9
$SKETCHINC
 40
0.1
  9
$FILLETRAD
 40
0.0
  9
$AUNITS
 70
     0
  9
$AUPREC
 70
     0
  9
$MENU
  1
.
  9
$ELEVATION
 40
0.0
  9
$PELEVATION
 40
0.0
  9
$THICKNESS
 40
0.0
  9
$LIMCHECK
 70
     0
  9
$CHAMFERA
 40
0.0
  9
$CHAMFERB
 40
0.0
  9
$CHAMFERC
 40
0.0
  9
$CHAMFERD
 40
0.0
  9
$SKPOLY
 70
     0
  9
$TDCREATE
 40
2455740.449386065
  9
$TDUCREATE
 40
2455740.741052732
  9
$TDUPDATE
 40
2455740.469034815
  9
$TDUUPDATE
 40
2455740.760701481
  9
$TDINDWG
 40
0.0057198958
  9
$TDUSRTIMER
 40
0.0057198958
  9
$USRTIMER
 70
     1
  9
$ANGBASE
 50
0.0
  9
$ANGDIR
 70
     0
  9
$PDMODE
 70
     0
  9
$PDSIZE
 40
0.0
  9
$PLINEWID
 40
0.0
  9
$SPLFRAME
 70
     0
  9
$SPLINETYPE
 70
     6
  9
$SPLINESEGS
 70
     8
  9
$HANDSEED
  5
50B
  9
$SURFTAB1
 70
     6
  9
$SURFTAB2
 70
     6
  9
$SURFTYPE
 70
     6
  9
$SURFU
 70
     6
  9
$SURFV
 70
     6
  9
$UCSBASE
  2

  9
$UCSNAME
  2

  9
$UCSORG
 10
0.0
 20
0.0
 30
0.0
  9
$UCSXDIR
 10
1.0
 20
0.0
 30
0.0
  9
$UCSYDIR
 10
0.0
 20
1.0
 30
0.0
  9
$UCSORTHOREF
  2

  9
$UCSORTHOVIEW
 70
     0
  9
$UCSORGTOP
 10
0.0
 20
0.0
 30
0.0
  9
$UCSORGBOTTOM
 10
0.0
 20
0.0
 30
0.0
  9
$UCSORGLEFT
 10
0.0
 20
0.0
 30
0.0
  9
$UCSORGRIGHT
 10
0.0
 20
0.0
 30
0.0
  9
$UCSORGFRONT
 10
0.0
 20
0.0
 30
0.0
  9
$UCSORGBACK
 10
0.0
 20
0.0
 30
0.0
  9
$PUCSBASE
  2

  9
$PUCSNAME
  2

  9
$PUCSORG
 10
0.0
 20
0.0
 30
0.0
  9
$PUCSXDIR
 10
1.0
 20
0.0
 30
0.0
  9
$PUCSYDIR
 10
0.0
 20
1.0
 30
0.0
  9
$PUCSORTHOREF
  2

  9
$PUCSORTHOVIEW
 70
     0
  9
$PUCSORGTOP
 10
0.0
 20
0.0
 30
0.0
  9
$PUCSORGBOTTOM
 10
0.0
 20
0.0
 30
0.0
  9
$PUCSORGLEFT
 10
0.0
 20
0.0
 30
0.0
  9
$PUCSORGRIGHT
 10
0.0
 20
0.0
 30
0.0
  9
$PUCSORGFRONT
 10
0.0
 20
0.0
 30
0.0
  9
$PUCSORGBACK
 10
0.0
 20
0.0
 30
0.0
  9
$USERI1
 70
     0
  9
$USERI2
 70
     0
  9
$USERI3
 70
     0
  9
$USERI4
 70
     0
  9
$USERI5
 70
     0
  9
$USERR1
 40
0.0
  9
$USERR2
 40
0.0
  9
$USERR3
 40
0.0
  9
$USERR4
 40
0.0
  9
$USERR5
 40
0.0
  9
$WORLDVIEW
 70
     1
  9
$SHADEDGE
 70
     3
  9
$SHADEDIF
 70
    70
  9
$TILEMODE
 70
     1
  9
$MAXACTVP
 70
    64
  9
$PINSBASE
 10
0.0
 20
0.0
 30
0.0
  9
$PLIMCHECK
 70
     0
  9
$PEXTMIN
 10
0.0
 20
0.0
 30
0.0
  9
$PEXTMAX
 10
22.0
 20
17.0
 30
0.0
  9
$PLIMMIN
 10
0.0
 20
0.0
  9
$PLIMMAX
 10
22.0
 20
17.0
  9
$UNITMODE
 70
     0
  9
$VISRETAIN
 70
     1
  9
$PLINEGEN
 70
     0
  9
$PSLTSCALE
 70
     1
  9
$TREEDEPTH
 70
  3020
  9
$CMLSTYLE
  2
Standard
  9
$CMLJUST
 70
     0
  9
$CMLSCALE
 40
1.0
  9
$PROXYGRAPHICS
 70
     1
  9
$MEASUREMENT
 70
     0
  9
$CELWEIGHT
370
    -1
  9
$ENDCAPS
280
     0
  9
$JOINSTYLE
280
     0
  9
$LWDISPLAY
290
     0
  9
$INSUNITS
 70
     1
  9
$HYPERLINKBASE
  1

  9
$STYLESHEET
  1

  9
$XEDIT
290
     1
  9
$CEPSNTYPE
380
     0
  9
$PSTYLEMODE
290
     1
  9
$FINGERPRINTGUID
  2
{8BACDE01-3406-4404-9CE6-D6B01F79729E}
  9
$VERSIONGUID
  2
{D69EC7D3-F3D4-44C6-BFE0-04F580148904}
  9
$EXTNAMES
290
     1
  9
$PSVPSCALE
 40
0.0
  9
$OLESTARTUP
290
     0
  0
ENDSEC
  0
SECTION
  2
CLASSES
  0
CLASS
  1
ACDBDICTIONARYWDFLT
  2
AcDbDictionaryWithDefault
  3
ObjectDBX Classes
 90
        0
280
     0
281
     0
  0
CLASS
  1
MATERIAL
  2
AcDbMaterial
  3
ObjectDBX Classes
 90
     1153
280
     0
281
     0
  0
CLASS
  1
VISUALSTYLE
  2
AcDbVisualStyle
  3
ObjectDBX Classes
 90
     4095
280
     0
281
     0
  0
CLASS
  1
SCALE
  2
AcDbScale
  3
ObjectDBX Classes
 90
     1153
280
     0
281
     0
  0
CLASS
  1
TABLESTYLE
  2
AcDbTableStyle
  3
ObjectDBX Classes
 90
     4095
280
     0
281
     0
  0
CLASS
  1
MLEADERSTYLE
  2
AcDbMLeaderStyle
  3
ACDB_MLEADERSTYLE_CLASS
 90
     4095
280
     0
281
     0
  0
CLASS
  1
DICTIONARYVAR
  2
AcDbDictionaryVar
  3
ObjectDBX Classes
 90
        0
280
     0
281
     0
  0
CLASS
  1
CELLSTYLEMAP
  2
AcDbCellStyleMap
  3
ObjectDBX Classes
 90
     1152
280
     0
281
     0
  0
CLASS
  1
ACDBPLACEHOLDER
  2
AcDbPlaceHolder
  3
ObjectDBX Classes
 90
        0
280
     0
281
     0
  0
CLASS
  1
LAYOUT
  2
AcDbLayout
  3
ObjectDBX Classes
 90
        0
280
     0
281
     0
  0
ENDSEC
  0
SECTION
  2
TABLES
  0
TABLE
  2
VPORT
  5
8
102
{ACAD_XDICTIONARY
360
43E
102
}
330
0
100
AcDbSymbolTable
 70
     1
  0
VPORT
  5
57
330
8
100
AcDbSymbolTableRecord
100
AcDbViewportTableRecord
  2
*Active
 70
     0
 10
0.0
 20
0.0
 11
1.0
 21
1.0
 12
13.26663736537442
 22
10.08607000399947
 13
0.0
 23
0.0
 14
1.0
 24
1.0
 15
0.0
 25
0.0
 16
0.0
 26
0.0
 36
1.0
 17
0.0
 27
0.0
 37
0.0
 40
16.83808941332452
 41
2.054123711340205
 42
50.0
 43
0.0
 44
0.0
 50
0.0
 51
0.0
 71
     0
 72
   100
 73
     1
 74
     1
 75
     0
 76
     0
 77
     0
 78
     0
281
     0
 65
     1
110
0.0
120
0.0
130
0.0
111
1.0
121
0.0
131
0.0
112
0.0
122
1.0
132
0.0
 79
     0
146
0.0
  0
ENDTAB
  0
TABLE
  2
LTYPE
  5
5
330
0
100
AcDbSymbolTable
 70
    59
  0
LTYPE
  5
5B
330
5
100
AcDbSymbolTableRecord
100
AcDbLinetypeTableRecord
  2
ByBlock
 70
     0
  3

 72
    65
 73
     0
 40
0.0
  0
LTYPE
  5
5C
330
5
100
AcDbSymbolTableRecord
100
AcDbLinetypeTableRecord
  2
ByLayer
 70
     0
  3

 72
    65
 73
     0
 40
0.0
  0
LTYPE
  5
5D
330
5
100
AcDbSymbolTableRecord
100
AcDbLinetypeTableRecord
  2
Continuous
 70
     0
  3
Solid line
 72
    65
 73
     0
 40
0.0
  0
LTYPE
  5
7A
330
5
100
AcDbSymbolTableRecord
100
AcDbLinetypeTableRecord
  2
BY_STANDARD
 70
     0
  3
By Standard ____________    ____    ____   _
 72
    65
 73
     6
 40
1.240299999999999
 49
0.6614
 74
     0
 49
-0.0827
 74
     0
 49
0.1654
 74
     0
 49
-0.0827
 74
     0
 49
0.1654
 74
     0
 49
-0.0827
 74
     0
  0
LTYPE
  5
7B
330
5
100
AcDbSymbolTableRecord
100
AcDbLinetypeTableRecord
  2
CHAIN
 70
     0
  3
Chain ____ _ ____ _ ____ _ ____ _ ____ _ ____
 72
    65
 73
     4
 40
0.7087
 49
0.4724000000000001
 74
     0
 49
-0.0591
 74
     0
 49
0.1181
 74
     0
 49
-0.0591
 74
     0
  0
LTYPE
  5
7C
330
5
100
AcDbSymbolTableRecord
100
AcDbLinetypeTableRecord
  2
DASH_DOT
 70
     0
  3
Dash dot __ . __ . __ . __ . __ . __ . __ . __
 72
    65
 73
     4
 40
0.37
 49
0.24
 74
     0
 49
-0.06
 74
     0
 49
0.01
 74
     0
 49
-0.06
 74
     0
  0
LTYPE
  5
7D
330
5
100
AcDbSymbolTableRecord
100
AcDbLinetypeTableRecord
  2
DOUBLE_DASH_DOT
 70
     0
  3
Double-Dash Dot __ __ . __ __ . __ __ . __ _
 72
    65
 73
     6
 40
0.4398
 49
0.24
 74
     0
 49
-0.06
 74
     0
 49
0.0098
 74
     0
 49
-0.06
 74
     0
 49
0.01
 74
     0
 49
-0.06
 74
     0
  0
LTYPE
  5
7E
330
5
100
AcDbSymbolTableRecord
100
AcDbLinetypeTableRecord
  2
DASH_TRIPLE_DOT
 70
     0
  3
Dash Triple-Dot _ . . . _ . . . _ . . . _
 72
    65
 73
     8
 40
0.51
 49
0.24
 74
     0
 49
-0.06
 74
     0
 49
0.01
 74
     0
 49
-0.06
 74
     0
 49
0.01
 74
     0
 49
-0.06
 74
     0
 49
0.01
 74
     0
 49
-0.06
 74
     0
  0
LTYPE
  5
7F
330
5
100
AcDbSymbolTableRecord
100
AcDbLinetypeTableRecord
  2
DASHED
 70
     0
  3
Dashed __ __ __ __ __ __ __ __ __ __ __ __ __ _
 72
    65
 73
     2
 40
0.2067
 49
0.1654
 74
     0
 49
-0.0413
 74
     0
  0
LTYPE
  5
80
330
5
100
AcDbSymbolTableRecord
100
AcDbLinetypeTableRecord
  2
DASH_DOUBLE_DOT
 70
     0
  3
Dash Double-Dot __ . . __ . . __ . . __ . .
 72
    65
 73
     6
 40
0.4398
 49
0.24
 74
     0
 49
-0.06
 74
     0
 49
0.0098
 74
     0
 49
-0.06
 74
     0
 49
0.01
 74
     0
 49
-0.06
 74
     0
  0
LTYPE
  5
81
330
5
100
AcDbSymbolTableRecord
100
AcDbLinetypeTableRecord
  2
DASHED_SPACE
 70
     0
  3
Dashed Space __ __ __ __ __ __ __ __ __ __ __ _
 72
    65
 73
     2
 40
0.2067
 49
0.1654
 74
     0
 49
-0.0413
 74
     0
  0
LTYPE
  5
82
330
5
100
AcDbSymbolTableRecord
100
AcDbLinetypeTableRecord
  2
DOTTED
 70
     0
  3
Dotted . . . . . . . . . . . . . . . . . . . . 
 72
    65
 73
     2
 40
0.0482
 49
0.0069
 74
     0
 49
-0.0413
 74
     0
  0
LTYPE
  5
83
330
5
100
AcDbSymbolTableRecord
100
AcDbLinetypeTableRecord
  2
DOUBLE_DASH_CHAIN
 70
     0
  3
Double-Dash Chain ______  __  __  ______  __  _
 72
    65
 73
     6
 40
1.240299999999999
 49
0.6614
 74
     0
 49
-0.0827
 74
     0
 49
0.1654
 74
     0
 49
-0.0827
 74
     0
 49
0.1654
 74
     0
 49
-0.0827
 74
     0
  0
LTYPE
  5
85
330
5
100
AcDbSymbolTableRecord
100
AcDbLinetypeTableRecord
  2
DOUBLE_DASH_DOUBLE_DOT
 70
     0
  3
Double-Dash Double-dot _ _ . . _ _ . . _
 72
    65
 73
     8
 40
0.7400000000000001
 49
0.24
 74
     0
 49
-0.06
 74
     0
 49
0.24
 74
     0
 49
-0.06
 74
     0
 49
0.01
 74
     0
 49
-0.06
 74
     0
 49
0.01
 74
     0
 49
-0.06
 74
     0
  0
LTYPE
  5
86
330
5
100
AcDbSymbolTableRecord
100
AcDbLinetypeTableRecord
  2
DOUBLE_DASH_TRIPLE_DOT
 70
     0
  3
Double Dash Triple Dot __ __ . . . __ __ . .
 72
    65
 73
    10
 40
0.8100000000000001
 49
0.24
 74
     0
 49
-0.06
 74
     0
 49
0.24
 74
     0
 49
-0.06
 74
     0
 49
0.01
 74
     0
 49
-0.06
 74
     0
 49
0.01
 74
     0
 49
-0.06
 74
     0
 49
0.01
 74
     0
 49
-0.06
 74
     0
  0
LTYPE
  5
87
330
5
100
AcDbSymbolTableRecord
100
AcDbLinetypeTableRecord
  2
LONG_DASH_DOTTED
 70
     0
  3
Long Dash Dotted ____ . ____ . ____ . ____ . _
 72
    65
 73
     4
 40
0.3543
 49
0.2362
 74
     0
 49
-0.0295
 74
     0
 49
0.0591
 74
     0
 49
-0.0295
 74
     0
  0
LTYPE
  5
88
330
5
100
AcDbSymbolTableRecord
100
AcDbLinetypeTableRecord
  2
LONG_DASH_DOUBLE_DOT
 70
     0
  3
Long Dash Double Dot ________  .  .  ________  
 72
    65
 73
     6
 40
0.6799999999999999
 49
0.48
 74
     0
 49
-0.06
 74
     0
 49
0.01
 74
     0
 49
-0.06
 74
     0
 49
0.01
 74
     0
 49
-0.06
 74
     0
  0
LTYPE
  5
89
330
5
100
AcDbSymbolTableRecord
100
AcDbLinetypeTableRecord
  2
LONG_DASH_TRIPLE_DOT
 70
     0
  3
Long Dash Triple Dot ____ ... ____ ... ____
 72
    65
 73
     8
 40
0.3689
 49
0.2362
 74
     0
 49
-0.0295
 74
     0
 49
0.0049
 74
     0
 49
-0.0295
 74
     0
 49
0.0049
 74
     0
 49
-0.0295
 74
     0
 49
0.0049
 74
     0
 49
-0.0295
 74
     0
  0
LTYPE
  5
8A
330
5
100
AcDbSymbolTableRecord
100
AcDbLinetypeTableRecord
  2
BORDER
 70
     0
  3
Border __ __ . __ __ . __ __ . __ __ . __ __ .
 72
    65
 73
     6
 40
1.75
 49
0.5
 74
     0
 49
-0.25
 74
     0
 49
0.5
 74
     0
 49
-0.25
 74
     0
 49
0.0
 74
     0
 49
-0.25
 74
     0
  0
LTYPE
  5
8B
330
5
100
AcDbSymbolTableRecord
100
AcDbLinetypeTableRecord
  2
BORDER2
 70
     0
  3
Border (.5x) __.__.__.__.__.__.__.__.__.__.__.
 72
    65
 73
     6
 40
0.875
 49
0.25
 74
     0
 49
-0.125
 74
     0
 49
0.25
 74
     0
 49
-0.125
 74
     0
 49
0.0
 74
     0
 49
-0.125
 74
     0
  0
LTYPE
  5
8C
330
5
100
AcDbSymbolTableRecord
100
AcDbLinetypeTableRecord
  2
BORDERX2
 70
     0
  3
Border (2x) ____  ____  .  ____  ____  .  ___
 72
    65
 73
     6
 40
3.5
 49
1.0
 74
     0
 49
-0.5
 74
     0
 49
1.0
 74
     0
 49
-0.5
 74
     0
 49
0.0
 74
     0
 49
-0.5
 74
     0
  0
LTYPE
  5
8D
330
5
100
AcDbSymbolTableRecord
100
AcDbLinetypeTableRecord
  2
CENTER
 70
     0
  3
Center ____ _ ____ _ ____ _ ____ _ ____ _ ____
 72
    65
 73
     4
 40
2.0
 49
1.25
 74
     0
 49
-0.25
 74
     0
 49
0.25
 74
     0
 49
-0.25
 74
     0
  0
LTYPE
  5
8E
330
5
100
AcDbSymbolTableRecord
100
AcDbLinetypeTableRecord
  2
CENTER2
 70
     0
  3
Center (.5x) ___ _ ___ _ ___ _ ___ _ ___ _ ___
 72
    65
 73
     4
 40
1.125
 49
0.75
 74
     0
 49
-0.125
 74
     0
 49
0.125
 74
     0
 49
-0.125
 74
     0
  0
LTYPE
  5
8F
330
5
100
AcDbSymbolTableRecord
100
AcDbLinetypeTableRecord
  2
CENTERX2
 70
     0
  3
Center (2x) ________  __  ________  __  _____
 72
    65
 73
     4
 40
4.0
 49
2.5
 74
     0
 49
-0.5
 74
     0
 49
0.5
 74
     0
 49
-0.5
 74
     0
  0
LTYPE
  5
90
330
5
100
AcDbSymbolTableRecord
100
AcDbLinetypeTableRecord
  2
DASHDOT2
 70
     0
  3
Dash dot (.5x) _._._._._._._._._._._._._._._.
 72
    65
 73
     4
 40
0.5
 49
0.25
 74
     0
 49
-0.125
 74
     0
 49
0.0
 74
     0
 49
-0.125
 74
     0
  0
LTYPE
  5
91
330
5
100
AcDbSymbolTableRecord
100
AcDbLinetypeTableRecord
  2
DASHDOTX2
 70
     0
  3
Dash dot (2x) ____  .  ____  .  ____  .  ___
 72
    65
 73
     4
 40
2.0
 49
1.0
 74
     0
 49
-0.5
 74
     0
 49
0.0
 74
     0
 49
-0.5
 74
     0
  0
LTYPE
  5
93
330
5
100
AcDbSymbolTableRecord
100
AcDbLinetypeTableRecord
  2
DASHED2
 70
     0
  3
Dashed (.5x) _ _ _ _ _ _ _ _ _ _ _ _ _ _ _ _ _
 72
    65
 73
     2
 40
0.375
 49
0.25
 74
     0
 49
-0.125
 74
     0
  0
LTYPE
  5
94
330
5
100
AcDbSymbolTableRecord
100
AcDbLinetypeTableRecord
  2
DASHEDX2
 70
     0
  3
Dashed (2x) ____  ____  ____  ____  ____  ___
 72
    65
 73
     2
 40
1.5
 49
1.0
 74
     0
 49
-0.5
 74
     0
  0
LTYPE
  5
95
330
5
100
AcDbSymbolTableRecord
100
AcDbLinetypeTableRecord
  2
DIVIDE
 70
     0
  3
Divide ____ . . ____ . . ____ . . ____ . . ____
 72
    65
 73
     6
 40
1.25
 49
0.5
 74
     0
 49
-0.25
 74
     0
 49
0.0
 74
     0
 49
-0.25
 74
     0
 49
0.0
 74
     0
 49
-0.25
 74
     0
  0
LTYPE
  5
96
330
5
100
AcDbSymbolTableRecord
100
AcDbLinetypeTableRecord
  2
DIVIDE2
 70
     0
  3
Divide (.5x) __..__..__..__..__..__..__..__.._
 72
    65
 73
     6
 40
0.625
 49
0.25
 74
     0
 49
-0.125
 74
     0
 49
0.0
 74
     0
 49
-0.125
 74
     0
 49
0.0
 74
     0
 49
-0.125
 74
     0
  0
LTYPE
  5
97
330
5
100
AcDbSymbolTableRecord
100
AcDbLinetypeTableRecord
  2
DIVIDEX2
 70
     0
  3
Divide (2x) ________  .  .  ________  .  .  _
 72
    65
 73
     6
 40
2.5
 49
1.0
 74
     0
 49
-0.5
 74
     0
 49
0.0
 74
     0
 49
-0.5
 74
     0
 49
0.0
 74
     0
 49
-0.5
 74
     0
  0
LTYPE
  5
98
330
5
100
AcDbSymbolTableRecord
100
AcDbLinetypeTableRecord
  2
DOT
 70
     0
  3
Dot . . . . . . . . . . . . . . . . . . . . . .
 72
    65
 73
     2
 40
0.25
 49
0.0
 74
     0
 49
-0.25
 74
     0
  0
LTYPE
  5
99
330
5
100
AcDbSymbolTableRecord
100
AcDbLinetypeTableRecord
  2
DOT2
 70
     0
  3
Dot (.5x) .....................................
 72
    65
 73
     2
 40
0.125
 49
0.0
 74
     0
 49
-0.125
 74
     0
  0
LTYPE
  5
9A
330
5
100
AcDbSymbolTableRecord
100
AcDbLinetypeTableRecord
  2
DOTX2
 70
     0
  3
Dot (2x) .  .  .  .  .  .  .  .  .  .  .  .  . 
 72
    65
 73
     2
 40
0.5
 49
0.0
 74
     0
 49
-0.5
 74
     0
  0
LTYPE
  5
9B
330
5
100
AcDbSymbolTableRecord
100
AcDbLinetypeTableRecord
  2
HIDDEN
 70
     0
  3
Hidden __ __ __ __ __ __ __ __ __ __ __ __ __ _
 72
    65
 73
     2
 40
0.375
 49
0.25
 74
     0
 49
-0.125
 74
     0
  0
LTYPE
  5
9C
330
5
100
AcDbSymbolTableRecord
100
AcDbLinetypeTableRecord
  2
HIDDEN2
 70
     0
  3
Hidden (.5x) _ _ _ _ _ _ _ _ _ _ _ _ _ _ _ _ _
 72
    65
 73
     2
 40
0.1875
 49
0.125
 74
     0
 49
-0.0625
 74
     0
  0
LTYPE
  5
9D
330
5
100
AcDbSymbolTableRecord
100
AcDbLinetypeTableRecord
  2
HIDDENX2
 70
     0
  3
Hidden (2x) ____ ____ ____ ____ ____ ____ ____
 72
    65
 73
     2
 40
0.75
 49
0.5
 74
     0
 49
-0.25
 74
     0
  0
LTYPE
  5
9E
330
5
100
AcDbSymbolTableRecord
100
AcDbLinetypeTableRecord
  2
PHANTOM
 70
     0
  3
Phantom ______  __  __  ______  __  __  ______
 72
    65
 73
     6
 40
2.5
 49
1.25
 74
     0
 49
-0.25
 74
     0
 49
0.25
 74
     0
 49
-0.25
 74
     0
 49
0.25
 74
     0
 49
-0.25
 74
     0
  0
LTYPE
  5
9F
330
5
100
AcDbSymbolTableRecord
100
AcDbLinetypeTableRecord
  2
PHANTOM2
 70
     0
  3
Phantom (.5x) ___ _ _ ___ _ _ ___ _ _ ___ _ _
 72
    65
 73
     6
 40
1.25
 49
0.625
 74
     0
 49
-0.125
 74
     0
 49
0.125
 74
     0
 49
-0.125
 74
     0
 49
0.125
 74
     0
 49
-0.125
 74
     0
  0
LTYPE
  5
A0
330
5
100
AcDbSymbolTableRecord
100
AcDbLinetypeTableRecord
  2
PHANTOMX2
 70
     0
  3
Phantom (2x) ____________    ____    ____   _
 72
    65
 73
     6
 40
5.0
 49
2.5
 74
     0
 49
-0.5
 74
     0
 49
0.5
 74
     0
 49
-0.5
 74
     0
 49
0.5
 74
     0
 49
-0.5
 74
     0
  0
LTYPE
  5
A1
330
5
100
AcDbSymbolTableRecord
100
AcDbLinetypeTableRecord
  2
ACAD_ISO02W100
 70
     0
  3
ISO dash __ __ __ __ __ __ __ __ __ __ __ __ __
 72
    65
 73
     2
 40
0.59
 49
0.47
 74
     0
 49
-0.12
 74
     0
  0
LTYPE
  5
A2
330
5
100
AcDbSymbolTableRecord
100
AcDbLinetypeTableRecord
  2
ACAD_ISO03W100
 70
     0
  3
ISO dash space __    __    __    __    __    __
 72
    65
 73
     2
 40
1.179999999999999
 49
0.47
 74
     0
 49
-0.71
 74
     0
  0
LTYPE
  5
A3
330
5
100
AcDbSymbolTableRecord
100
AcDbLinetypeTableRecord
  2
ACAD_ISO04W100
 70
     0
  3
ISO long-dash dot ____ . ____ . ____ . ____ . _
 72
    65
 73
     4
 40
1.179999999999999
 49
0.9399999999999998
 74
     0
 49
-0.12
 74
     0
 49
0.0
 74
     0
 49
-0.12
 74
     0
  0
LTYPE
  5
A4
330
5
100
AcDbSymbolTableRecord
100
AcDbLinetypeTableRecord
  2
ACAD_ISO05W100
 70
     0
  3
ISO long-dash double-dot ____ .. ____ .. ____ .
 72
    65
 73
     6
 40
1.299999999999999
 49
0.9399999999999998
 74
     0
 49
-0.12
 74
     0
 49
0.0
 74
     0
 49
-0.12
 74
     0
 49
0.0
 74
     0
 49
-0.12
 74
     0
  0
LTYPE
  5
A5
330
5
100
AcDbSymbolTableRecord
100
AcDbLinetypeTableRecord
  2
ACAD_ISO06W100
 70
     0
  3
ISO long-dash triple-dot ____ ... ____ ... ____
 72
    65
 73
     8
 40
1.419999999999999
 49
0.9399999999999998
 74
     0
 49
-0.12
 74
     0
 49
0.0
 74
     0
 49
-0.12
 74
     0
 49
0.0
 74
     0
 49
-0.12
 74
     0
 49
0.0
 74
     0
 49
-0.12
 74
     0
  0
LTYPE
  5
A6
330
5
100
AcDbSymbolTableRecord
100
AcDbLinetypeTableRecord
  2
ACAD_ISO07W100
 70
     0
  3
ISO dot . . . . . . . . . . . . . . . . . . . .
 72
    65
 73
     2
 40
0.12
 49
0.0
 74
     0
 49
-0.12
 74
     0
  0
LTYPE
  5
A7
330
5
100
AcDbSymbolTableRecord
100
AcDbLinetypeTableRecord
  2
ACAD_ISO08W100
 70
     0
  3
ISO long-dash short-dash ____ __ ____ __ ____ _
 72
    65
 73
     4
 40
0.95
 49
0.47
 74
     0
 49
-0.12
 74
     0
 49
0.24
 74
     0
 49
-0.12
 74
     0
  0
LTYPE
  5
A8
330
5
100
AcDbSymbolTableRecord
100
AcDbLinetypeTableRecord
  2
ACAD_ISO09W100
 70
     0
  3
ISO long-dash double-short-dash ____ __ __ ____
 72
    65
 73
     6
 40
1.31
 49
0.47
 74
     0
 49
-0.12
 74
     0
 49
0.24
 74
     0
 49
-0.12
 74
     0
 49
0.24
 74
     0
 49
-0.12
 74
     0
  0
LTYPE
  5
A9
330
5
100
AcDbSymbolTableRecord
100
AcDbLinetypeTableRecord
  2
ACAD_ISO10W100
 70
     0
  3
ISO dash dot __ . __ . __ . __ . __ . __ . __ .
 72
    65
 73
     4
 40
0.71
 49
0.47
 74
     0
 49
-0.12
 74
     0
 49
0.0
 74
     0
 49
-0.12
 74
     0
  0
LTYPE
  5
AA
330
5
100
AcDbSymbolTableRecord
100
AcDbLinetypeTableRecord
  2
ACAD_ISO11W100
 70
     0
  3
ISO double-dash dot __ __ . __ __ . __ __ . __ 
 72
    65
 73
     6
 40
1.299999999999999
 49
0.47
 74
     0
 49
-0.12
 74
     0
 49
0.47
 74
     0
 49
-0.12
 74
     0
 49
0.0
 74
     0
 49
-0.12
 74
     0
  0
LTYPE
  5
AB
330
5
100
AcDbSymbolTableRecord
100
AcDbLinetypeTableRecord
  2
ACAD_ISO12W100
 70
     0
  3
ISO dash double-dot __ . . __ . . __ . . __ . .
 72
    65
 73
     6
 40
0.8299999999999998
 49
0.47
 74
     0
 49
-0.12
 74
     0
 49
0.0
 74
     0
 49
-0.12
 74
     0
 49
0.0
 74
     0
 49
-0.12
 74
     0
  0
LTYPE
  5
AC
330
5
100
AcDbSymbolTableRecord
100
AcDbLinetypeTableRecord
  2
ACAD_ISO13W100
 70
     0
  3
ISO double-dash double-dot __ __ . . __ __ . . 
 72
    65
 73
     8
 40
1.419999999999999
 49
0.47
 74
     0
 49
-0.12
 74
     0
 49
0.47
 74
     0
 49
-0.12
 74
     0
 49
0.0
 74
     0
 49
-0.12
 74
     0
 49
0.0
 74
     0
 49
-0.12
 74
     0
  0
LTYPE
  5
AD
330
5
100
AcDbSymbolTableRecord
100
AcDbLinetypeTableRecord
  2
ACAD_ISO14W100
 70
     0
  3
ISO dash triple-dot __ . . . __ . . . __ . . . 
 72
    65
 73
     8
 40
0.95
 49
0.47
 74
     0
 49
-0.12
 74
     0
 49
0.0
 74
     0
 49
-0.12
 74
     0
 49
0.0
 74
     0
 49
-0.12
 74
     0
 49
0.0
 74
     0
 49
-0.12
 74
     0
  0
LTYPE
  5
AE
330
5
100
AcDbSymbolTableRecord
100
AcDbLinetypeTableRecord
  2
ACAD_ISO15W100
 70
     0
  3
ISO double-dash triple-dot __ __ . . . __ __ . 
 72
    65
 73
    10
 40
1.539999999999999
 49
0.47
 74
     0
 49
-0.12
 74
     0
 49
0.47
 74
     0
 49
-0.12
 74
     0
 49
0.0
 74
     0
 49
-0.12
 74
     0
 49
0.0
 74
     0
 49
-0.12
 74
     0
 49
0.0
 74
     0
 49
-0.12
 74
     0
  0
LTYPE
  5
B2
330
5
100
AcDbSymbolTableRecord
100
AcDbLinetypeTableRecord
  2
FENCELINE1
 70
     0
  3
Fenceline circle ----0-----0----0-----0----0---
 72
    65
 73
     4
 40
1.45
 49
0.25
 74
     0
 49
-0.1
 74
     4
 75
   133
340
B1
 46
0.1
 50
0.0
 44
-0.1
 45
0.0
 49
-0.1
 74
     0
 49
1.0
 74
     0
  0
LTYPE
  5
B3
330
5
100
AcDbSymbolTableRecord
100
AcDbLinetypeTableRecord
  2
FENCELINE2
 70
     0
  3
Fenceline square ----[]-----[]----[]-----[]----
 72
    65
 73
     4
 40
1.45
 49
0.25
 74
     0
 49
-0.1
 74
     4
 75
   132
340
B1
 46
0.1
 50
0.0
 44
-0.1
 45
0.0
 49
-0.1
 74
     0
 49
1.0
 74
     0
  0
LTYPE
  5
B4
330
5
100
AcDbSymbolTableRecord
100
AcDbLinetypeTableRecord
  2
TRACKS
 70
     0
  3
Tracks -|-|-|-|-|-|-|-|-|-|-|-|-|-|-|-|-|-|-|-|
 72
    65
 73
     2
 40
0.3
 49
0.15
 74
     4
 75
   130
340
B1
 46
0.25
 50
0.0
 44
0.0
 45
0.0
 49
0.15
 74
     0
  0
LTYPE
  5
B5
330
5
100
AcDbSymbolTableRecord
100
AcDbLinetypeTableRecord
  2
BATTING
 70
     0
  3
Batting SSSSSSSSSSSSSSSSSSSSSSSSSSSSSSSSSSSSSSS
 72
    65
 73
     4
 40
0.4001000000000001
 49
0.0001
 74
     0
 49
-0.1
 74
     4
 75
   134
340
B1
 46
0.1
 50
0.0
 44
-0.1
 45
0.0
 49
-0.2
 74
     4
 75
   134
340
B1
 46
0.1
 50
180.0
 44
0.1
 45
0.0
 49
-0.1
 74
     0
  0
LTYPE
  5
B6
330
5
100
AcDbSymbolTableRecord
100
AcDbLinetypeTableRecord
  2
HOT_WATER_SUPPLY
 70
     0
  3
Hot water supply ---- HW ---- HW ---- HW ----
 72
    65
 73
     3
 40
0.9
 49
0.5
 74
     0
 49
-0.2
 74
     2
 75
     0
340
55
 46
0.1
 50
0.0
 44
-0.1
 45
-0.05
  9
HW
 49
-0.2
 74
     0
  0
LTYPE
  5
B7
330
5
100
AcDbSymbolTableRecord
100
AcDbLinetypeTableRecord
  2
GAS_LINE
 70
     0
  3
Gas line ----GAS----GAS----GAS----GAS----GAS---
 72
    65
 73
     3
 40
0.95
 49
0.5
 74
     0
 49
-0.2
 74
     2
 75
     0
340
55
 46
0.1
 50
0.0
 44
-0.1
 45
-0.05
  9
GAS
 49
-0.25
 74
     0
  0
LTYPE
  5
B8
330
5
100
AcDbSymbolTableRecord
100
AcDbLinetypeTableRecord
  2
ZIGZAG
 70
     0
  3
Zig zag /\/\/\/\/\/\/\/\/\/\/\/\/\/\/\/\/\/\/\/
 72
    65
 73
     4
 40
0.8001000000000001
 49
0.0001
 74
     0
 49
-0.2
 74
     4
 75
   131
340
B1
 46
0.2
 50
0.0
 44
-0.2
 45
0.0
 49
-0.4
 74
     4
 75
   131
340
B1
 46
0.2
 50
180.0
 44
0.2
 45
0.0
 49
-0.2
 74
     0
  0
ENDTAB
  0
TABLE
  2
LAYER
  5
2
330
0
100
AcDbSymbolTable
 70
     4
  0
LAYER
  5
54
330
2
100
AcDbSymbolTableRecord
100
AcDbLayerTableRecord
  2
0
 70
     0
 62
     7
  6
Continuous
370
    -3
390
F
  0
LAYER
  5
BC
330
2
100
AcDbSymbolTableRecord
100
AcDbLayerTableRecord
  2
Border (ANSI)
 70
     0
 62
     7
  6
Continuous
370
    25
390
F
  0
LAYER
  5
C4
330
2
100
AcDbSymbolTableRecord
100
AcDbLayerTableRecord
  2
Hidden (ANSI)
 70
     0
 62
  -211
  6
DASHED
370
    13
390
F
  0
LAYER
  5
CE
330
2
100
AcDbSymbolTableRecord
100
AcDbLayerTableRecord
  2
Visible (ANSI)
 70
     0
 62
     7
  6
Continuous
370
    18
390
F
  0
ENDTAB
  0
TABLE
  2
STYLE
  5
3
330
0
100
AcDbSymbolTable
 70
     5
  0
STYLE
  5
55
330
3
100
AcDbSymbolTableRecord
100
AcDbTextStyleTableRecord
  2
Standard
 70
     0
 40
0.0
 41
0.899999976158142
 50
0.0
 71
     0
 42
0.2
  3
txt_____.ttf
  4

1001
_APP0
1000
txt
1071
      256
1001
ACAD
1000
Txt
1071
        2
  0
STYLE
  5
5A
330
3
100
AcDbSymbolTableRecord
100
AcDbTextStyleTableRecord
  2
Annotative
 70
     0
 40
0.0
 41
1.0
 50
0.0
 71
     0
 42
0.2
  3
txt
  4

1001
AcadAnnotative
1000
AnnotativeData
1002
{
1070
     1
1070
     1
1002
}
  0
STYLE
  5
B1
330
3
100
AcDbSymbolTableRecord
100
AcDbTextStyleTableRecord
  2

 70
     1
 40
0.0
 41
1.0
 50
0.0
 71
     0
 42
0.2
  3
ltypeshp.shx
  4

  0
STYLE
  5
D3
330
3
100
AcDbSymbolTableRecord
100
AcDbTextStyleTableRecord
  2
Label Text (ANSI)
 70
     0
 40
0.0
 41
0.899999976158142
 50
0.0
 71
     0
 42
0.2
  3
txt_IV25.ttf
  4

1001
ACAD
1000
Txt_IV25
1071
      256
  0
STYLE
  5
D4
330
3
100
AcDbSymbolTableRecord
100
AcDbTextStyleTableRecord
  2
Note Text (ANSI)
 70
     0
 40
0.0
 41
0.899999976158142
 50
0.0
 71
     0
 42
0.2
  3
txt_IV25.ttf
  4

1001
ACAD
1000
Txt_IV25
1071
      256
  0
ENDTAB
  0
TABLE
  2
VIEW
  5
6
330
0
100
AcDbSymbolTable
 70
     0
  0
ENDTAB
  0
TABLE
  2
UCS
  5
7
330
0
100
AcDbSymbolTable
 70
     0
  0
ENDTAB
  0
TABLE
  2
APPID
  5
9
330
0
100
AcDbSymbolTable
 70
     4
  0
APPID
  5
56
330
9
100
AcDbSymbolTableRecord
100
AcDbRegAppTableRecord
  2
ACAD
 70
     0
  0
APPID
  5
5E
330
9
100
AcDbSymbolTableRecord
100
AcDbRegAppTableRecord
  2
AcadAnnotative
 70
     0
  0
APPID
  5
B0
330
9
100
AcDbSymbolTableRecord
100
AcDbRegAppTableRecord
  2
_APP0
 70
     0
  0
APPID
  5
474
330
9
100
AcDbSymbolTableRecord
100
AcDbRegAppTableRecord
  2
ACAD_MLEADERVER
 70
     0
  0
ENDTAB
  0
TABLE
  2
DIMSTYLE
  5
A
330
0
100
AcDbSymbolTable
 70
    21
100
AcDbDimStyleTable
 71
     0
  0
DIMSTYLE
105
58
330
A
100
AcDbSymbolTableRecord
100
AcDbDimStyleTableRecord
  2
Standard
 70
     0
340
55
  0
DIMSTYLE
105
59
330
A
100
AcDbSymbolTableRecord
100
AcDbDimStyleTableRecord
  2
Annotative
 70
     0
340
55
1001
AcadAnnotative
1000
AnnotativeData
1002
{
1070
     1
1070
     1
1002
}
  0
DIMSTYLE
105
D5
330
A
100
AcDbSymbolTableRecord
100
AcDbDimStyleTableRecord
  2
Architectural (ANSI)
 70
     0
 40
2.0
 41
0.0984251946210861
 43
0.2362204724409449
 44
0.125
 45
0.00000001
 46
0.3937007874015748
 78
     3
 79
     3
140
0.1000000014901161
146
1.200000047683715
147
0.031496062992126
171
     1
176
   256
177
   256
178
     5
272
     2
274
     1
276
     2
277
     4
284
    12
285
     4
286
    12
340
D4
371
    -1
372
    -1
  0
DIMSTYLE
105
D6
330
A
100
AcDbSymbolTableRecord
100
AcDbDimStyleTableRecord
  2
Architectural (ANSI)$7
 70
     0
 40
2.0
 41
0.0984251946210861
 43
0.2362204724409449
 44
0.125
 45
0.00000001
 46
0.3937007874015748
 78
     3
 79
     3
140
0.1000000014901161
146
1.200000047683715
147
0.031496062992126
171
     1
176
     5
177
   256
178
     5
272
     2
274
     1
276
     2
277
     4
284
    12
285
     4
286
    12
340
D4
371
    -1
372
    -1
  0
DIMSTYLE
105
D7
330
A
100
AcDbSymbolTableRecord
100
AcDbDimStyleTableRecord
  2
Default - Fraction (ANSI)
 70
     0
 40
2.0
 41
0.0984251946210861
 43
0.2362204724409449
 44
0.125
 45
0.00000001
 46
0.3937007874015748
 79
     3
140
0.1000000014901161
146
1.200000047683715
147
0.031496062992126
171
     1
176
   256
177
   256
178
     5
272
     2
274
     1
276
     2
277
     5
284
    12
285
     4
286
    12
340
D4
371
    -1
372
    -1
  0
DIMSTYLE
105
D8
330
A
100
AcDbSymbolTableRecord
100
AcDbDimStyleTableRecord
  2
Default - Fraction (ANSI)$7
 70
     0
 40
2.0
 41
0.0984251946210861
 43
0.2362204724409449
 44
0.125
 45
0.00000001
 46
0.3937007874015748
 79
     3
140
0.1000000014901161
146
1.200000047683715
147
0.031496062992126
171
     1
176
     5
177
   256
178
     5
272
     2
274
     1
276
     2
277
     5
284
    12
285
     4
286
    12
340
D4
371
    -1
372
    -1
  0
DIMSTYLE
105
D9
330
A
100
AcDbSymbolTableRecord
100
AcDbDimStyleTableRecord
  2
Default - mm (ANSI)
 70
     0
 40
2.0
 41
0.0984251946210861
 42
0.063
 43
0.2362204724409449
 44
0.125
 45
0.00000001
 46
0.3937007874015748
 73
     0
 78
     4
 79
     1
140
0.1000000014901161
143
1.0
144
25.4
146
1.200000047683715
147
0.031496062992126
171
     1
176
   256
177
   256
178
     5
179
     1
271
     2
272
     2
274
     1
284
     4
285
     4
340
D4
371
    -1
372
    -1
  0
DIMSTYLE
105
DA
330
A
100
AcDbSymbolTableRecord
100
AcDbDimStyleTableRecord
  2
Default - mm (ANSI)$7
 70
     0
 40
2.0
 41
0.0984251946210861
 42
0.063
 43
0.2362204724409449
 44
0.125
 45
0.00000001
 46
0.3937007874015748
 73
     0
 78
     4
 79
     1
140
0.1000000014901161
143
1.0
144
25.4
146
1.200000047683715
147
0.031496062992126
171
     1
176
     5
177
   256
178
     5
179
     1
271
     2
272
     2
274
     1
284
     4
285
     4
340
D4
371
    -1
372
    -1
  0
DIMSTYLE
105
DB
330
A
100
AcDbSymbolTableRecord
100
AcDbDimStyleTableRecord
  2
Default - mm [in] (ANSI)
 70
     0
  4
 in
 40
2.0
 41
0.0984251946210861
 42
0.063
 43
0.25
 44
0.125
 45
0.00000001
 46
0.3937007874015748
 73
     0
 78
     4
 79
     1
140
0.1000000014901161
143
0.03937
144
25.4
146
1.200000047683715
147
0.031496062992126
170
     1
171
     3
176
   256
177
   256
178
     5
179
     1
271
     2
272
     2
274
     3
284
     4
285
     4
286
     4
340
D4
371
    -1
372
    -1
  0
DIMSTYLE
105
DC
330
A
100
AcDbSymbolTableRecord
100
AcDbDimStyleTableRecord
  2
Default - mm [in] (ANSI)$7
 70
     0
  4
 in
 40
2.0
 41
0.0984251946210861
 42
0.063
 43
0.25
 44
0.125
 45
0.00000001
 46
0.3937007874015748
 73
     0
 78
     4
 79
     1
140
0.1000000014901161
143
0.03937
144
25.4
146
1.200000047683715
147
0.031496062992126
170
     1
171
     3
176
     5
177
   256
178
     5
179
     1
271
     2
272
     2
274
     3
284
     4
285
     4
286
     4
340
D4
371
    -1
372
    -1
  0
DIMSTYLE
105
DD
330
A
100
AcDbSymbolTableRecord
100
AcDbDimStyleTableRecord
  2
Default (ANSI)
 70
     0
 40
2.0
 41
0.0984251946210861
 43
0.2362204724409449
 44
0.125
 45
0.00000001
 46
0.3937007874015748
 78
     4
 79
     1
140
0.1000000014901161
146
1.200000047683715
147
0.031496062992126
171
     1
176
   256
177
   256
178
     5
271
     2
272
     2
274
     1
284
     4
285
     4
340
D4
371
    -1
372
    -1
  0
DIMSTYLE
105
DE
330
A
100
AcDbSymbolTableRecord
100
AcDbDimStyleTableRecord
  2
Default (ANSI)$7
 70
     0
 40
2.0
 41
0.0984251946210861
 43
0.2362204724409449
 44
0.125
 45
0.00000001
 46
0.3937007874015748
 78
     4
 79
     1
140
0.1000000014901161
146
1.200000047683715
147
0.031496062992126
171
     1
176
     5
177
   256
178
     5
271
     2
272
     2
274
     1
284
     4
285
     4
340
D4
371
    -1
372
    -1
  0
DIMSTYLE
105
DF
330
A
100
AcDbSymbolTableRecord
100
AcDbDimStyleTableRecord
  2
SST-STANDARD DIMENSIONS
 70
     0
 40
2.0
 41
0.0984251946210861
 43
0.2362204724409449
 44
0.062
 45
0.00000001
 46
0.3937007874015748
 78
     2
 79
     2
140
0.1000000014901161
147
0.031496062992126
171
     1
176
     5
177
     5
178
     5
179
     1
272
     5
274
     1
276
     2
277
     5
284
    12
285
     4
286
    12
340
D4
371
     9
372
     9
  0
DIMSTYLE
105
E0
330
A
100
AcDbSymbolTableRecord
100
AcDbDimStyleTableRecord
  2
SST-STANDARD DIMENSIONS$7
 70
     0
 40
2.0
 41
0.0984251946210861
 43
0.2362204724409449
 44
0.062
 45
0.00000001
 46
0.3937007874015748
 78
     2
 79
     2
140
0.1000000014901161
147
0.031496062992126
171
     1
176
     5
177
     5
178
     5
179
     1
272
     5
274
     1
276
     2
277
     5
284
    12
285
     4
286
    12
340
D4
371
    -1
372
     9
  0
DIMSTYLE
105
E1
330
A
100
AcDbSymbolTableRecord
100
AcDbDimStyleTableRecord
  2
SST-STANDARD DIMENSIONS-FRACTION
 70
     0
 40
2.0
 41
0.0984251946210861
 43
0.2362204724409449
 44
0.062
 45
0.00000001
 46
0.3937007874015748
 78
     1
140
0.1000000014901161
147
0.031496062992126
171
     1
176
     5
177
     5
178
     5
179
     1
271
     5
272
     3
274
     1
276
     2
277
     5
286
    12
340
D4
371
     9
372
     9
  0
DIMSTYLE
105
E2
330
A
100
AcDbSymbolTableRecord
100
AcDbDimStyleTableRecord
  2
SST-STANDARD DIMENSIONS-FRACTION$7
 70
     0
 40
2.0
 41
0.0984251946210861
 43
0.2362204724409449
 44
0.062
 45
0.00000001
 46
0.3937007874015748
 78
     1
140
0.1000000014901161
147
0.031496062992126
171
     1
176
     5
177
     5
178
     5
179
     1
271
     5
272
     3
274
     1
276
     2
277
     5
286
    12
340
D4
371
    -1
372
     9
  0
DIMSTYLE
105
E3
330
A
100
AcDbSymbolTableRecord
100
AcDbDimStyleTableRecord
  2
SST-STANDARD DIMENSIONS - DECIMAL
 70
     0
 40
2.0
 41
0.0984251946210861
 43
0.2362204724409449
 44
0.062
 45
0.00000001
 46
0.3937007874015748
140
0.1000000014901161
147
0.031496062992126
171
     1
176
     5
177
     5
178
     5
179
     1
271
     3
272
     3
274
     1
286
    12
340
D4
371
     9
372
     9
  0
DIMSTYLE
105
E4
330
A
100
AcDbSymbolTableRecord
100
AcDbDimStyleTableRecord
  2
SST-STANDARD DIMENSIONS - DECIMAL$7
 70
     0
 40
2.0
 41
0.0984251946210861
 43
0.2362204724409449
 44
0.062
 45
0.00000001
 46
0.3937007874015748
140
0.1000000014901161
147
0.031496062992126
171
     1
176
     5
177
     5
178
     5
179
     1
271
     3
272
     3
274
     1
286
    12
340
D4
371
    -1
372
     9
  0
DIMSTYLE
105
E5
330
A
100
AcDbSymbolTableRecord
100
AcDbDimStyleTableRecord
  2
Alternate (ANSI)
 70
     0
 40
2.0
 41
0.0979999974370003
340
55
342
E6
  0
DIMSTYLE
105
F7
330
A
100
AcDbSymbolTableRecord
100
AcDbDimStyleTableRecord
  2
Datum (ANSI)
 70
     0
 40
2.0
 41
0.0979999974370003
340
55
342
E6
  0
DIMSTYLE
105
106
330
A
100
AcDbSymbolTableRecord
100
AcDbDimStyleTableRecord
  2
Large (ANSI)
 70
     0
 40
2.0
 41
0.1959999948740005
340
55
342
E6
  0
ENDTAB
  0
TABLE
  2
BLOCK_RECORD
  5
1
330
0
100
AcDbSymbolTable
 70
     5
  0
BLOCK_RECORD
  5
6C
330
1
100
AcDbSymbolTableRecord
100
AcDbBlockTableRecord
  2
*Model_Space
340
6F
  0
BLOCK_RECORD
  5
68
330
1
100
AcDbSymbolTableRecord
100
AcDbBlockTableRecord
  2
*Paper_Space
340
6B
  0
BLOCK_RECORD
  5
70
330
1
100
AcDbSymbolTableRecord
100
AcDbBlockTableRecord
  2
*Paper_Space0
340
73
  0
BLOCK_RECORD
  5
E6
330
1
100
AcDbSymbolTableRecord
100
AcDbBlockTableRecord
  2
_Closed
340
0
  0
BLOCK_RECORD
  5
ED
330
1
100
AcDbSymbolTableRecord
100
AcDbBlockTableRecord
  2
DatumFilled45
340
0
  0
BLOCK_RECORD
  5
F8
330
1
100
AcDbSymbolTableRecord
100
AcDbBlockTableRecord
  2
Filled-1
340
0
  0
BLOCK_RECORD
  5
107
330
1
100
AcDbSymbolTableRecord
100
AcDbBlockTableRecord
  2
Borders SST-ALAND
340
0
102
{BLKREFS
331
10E
102
}
  0
ENDTAB
  0
ENDSEC
  0
SECTION
  2
BLOCKS
  0
BLOCK
  5
6D
330
6C
100
AcDbEntity
  8
0
100
AcDbBlockBegin
  2
*Model_Space
 70
     0
 10
0.0
 20
0.0
 30
0.0
  3
*Model_Space
  1

  0
ENDBLK
  5
6E
330
6C
100
AcDbEntity
  8
0
100
AcDbBlockEnd
  0
BLOCK
  5
69
330
68
100
AcDbEntity
 67
     1
  8
0
100
AcDbBlockBegin
  2
*Paper_Space
 70
     0
 10
0.0
 20
0.0
 30
0.0
  3
*Paper_Space
  1

  0
ENDBLK
  5
6A
330
68
100
AcDbEntity
 67
     1
  8
0
100
AcDbBlockEnd
  0
BLOCK
  5
71
330
70
100
AcDbEntity
 67
     1
  8
0
100
AcDbBlockBegin
  2
*Paper_Space0
 70
     0
 10
0.0
 20
0.0
 30
0.0
  3
*Paper_Space0
  1

  0
ENDBLK
  5
72
330
70
100
AcDbEntity
 67
     1
  8
0
100
AcDbBlockEnd
  0
BLOCK
  5
EB
330
E6
100
AcDbEntity
  8
0
100
AcDbBlockBegin
  2
_Closed
 70
     0
 10
0.0
 20
0.0
 30
0.0
  3
_Closed
  1

  0
LINE
  5
E7
330
E6
100
AcDbEntity
  8
0
  6
ByBlock
 62
     0
370
    -2
100
AcDbLine
 10
-1.0
 20
0.1666666666666666
 30
0.0
 11
0.0
 21
0.0
 31
0.0
  0
LINE
  5
E8
330
E6
100
AcDbEntity
  8
0
  6
ByBlock
 62
     0
370
    -2
100
AcDbLine
 10
0.0
 20
0.0
 30
0.0
 11
-1.0
 21
-0.1666666666666666
 31
0.0
  0
LINE
  5
E9
330
E6
100
AcDbEntity
  8
0
  6
ByBlock
 62
     0
370
    -2
100
AcDbLine
 10
-1.0
 20
0.1666666666666666
 30
0.0
 11
-1.0
 21
-0.1666666666666666
 31
0.0
  0
LINE
  5
EA
330
E6
100
AcDbEntity
  8
0
  6
ByBlock
 62
     0
370
    -2
100
AcDbLine
 10
0.0
 20
0.0
 30
0.0
 11
-1.0
 21
0.0
 31
0.0
  0
ENDBLK
  5
EC
330
E6
100
AcDbEntity
  8
0
100
AcDbBlockEnd
  0
BLOCK
  5
EE
330
ED
100
AcDbEntity
  8
0
100
AcDbBlockBegin
  2
DatumFilled45
 70
     0
 10
0.0
 20
0.0
 30
0.0
  3
DatumFilled45
  1

  0
POLYLINE
  5
F0
330
ED
100
AcDbEntity
  8
0
 62
     0
100
AcDb2dPolyline
 66
     1
 10
0.0
 20
0.0
 30
0.0
 70
   128
  0
VERTEX
  5
F1
330
F0
100
AcDbEntity
  8
0
 62
     0
100
AcDbVertex
100
AcDb2dVertex
 10
0.0
 20
0.9999999999999998
 30
0.0
  0
VERTEX
  5
F2
330
F0
100
AcDbEntity
  8
0
 62
     0
100
AcDbVertex
100
AcDb2dVertex
 10
0.0
 20
-0.9999999999999998
 30
0.0
  0
VERTEX
  5
F4
330
F0
100
AcDbEntity
  8
0
 62
     0
100
AcDbVertex
100
AcDb2dVertex
 10
-0.9999999999999998
 20
0.0
 30
0.0
  0
VERTEX
  5
F5
330
F0
100
AcDbEntity
  8
0
 62
     0
100
AcDbVertex
100
AcDb2dVertex
 10
0.0
 20
0.9999999999999998
 30
0.0
  0
SEQEND
  5
F3
330
F0
100
AcDbEntity
  8
0
 62
     0
  0
SOLID
  5
F6
330
ED
100
AcDbEntity
  8
0
 62
     0
100
AcDbTrace
 10
0.0
 20
0.9999999999999998
 30
0.0
 11
0.0
 21
-0.9999999999999998
 31
0.0
 12
-0.9999999999999998
 22
0.0
 32
0.0
 13
0.0
 23
0.9999999999999998
 33
0.0
  0
ENDBLK
  5
EF
330
ED
100
AcDbEntity
  8
0
100
AcDbBlockEnd
  0
BLOCK
  5
F9
330
F8
100
AcDbEntity
  8
0
100
AcDbBlockBegin
  2
Filled-1
 70
     0
 10
0.0
 20
0.0
 30
0.0
  3
Filled-1
  1

  0
LINE
  5
FB
330
F8
100
AcDbEntity
  8
0
 62
     0
100
AcDbLine
 10
-0.9999999999999998
 20
0.0
 30
0.0
 11
0.0
 21
0.0
 31
0.0
  0
POLYLINE
  5
FC
330
F8
100
AcDbEntity
  8
0
 62
     0
100
AcDb2dPolyline
 66
     1
 10
0.0
 20
0.0
 30
0.0
 70
   128
  0
VERTEX
  5
FD
330
FC
100
AcDbEntity
  8
0
 62
     0
100
AcDbVertex
100
AcDb2dVertex
 10
-0.9999999999999998
 20
-0.0994897959183674
 30
0.0
  0
VERTEX
  5
FE
330
FC
100
AcDbEntity
  8
0
 62
     0
100
AcDbVertex
100
AcDb2dVertex
 10
0.0
 20
0.0
 30
0.0
  0
VERTEX
  5
100
330
FC
100
AcDbEntity
  8
0
 62
     0
100
AcDbVertex
100
AcDb2dVertex
 10
-0.9999999999999998
 20
0.0994897959183674
 30
0.0
  0
VERTEX
  5
101
330
FC
100
AcDbEntity
  8
0
 62
     0
100
AcDbVertex
100
AcDb2dVertex
 10
-0.9999999999999998
 20
-0.0994897959183674
 30
0.0
  0
SEQEND
  5
FF
330
FC
100
AcDbEntity
  8
0
 62
     0
  0
SOLID
  5
102
330
F8
100
AcDbEntity
  8
0
 62
     0
100
AcDbTrace
 10
-0.9999999999999998
 20
-0.0994897959183674
 30
0.0
 11
0.0
 21
0.0
 31
0.0
 12
-0.9999999999999998
 22
0.0994897959183674
 32
0.0
 13
-0.9999999999999998
 23
-0.0994897959183674
 33
0.0
  0
LINE
  5
103
330
F8
100
AcDbEntity
  8
0
 62
     0
100
AcDbLine
 10
-0.9999999999999998
 20
-0.0994897959183674
 30
0.0
 11
0.0
 21
0.0
 31
0.0
  0
LINE
  5
104
330
F8
100
AcDbEntity
  8
0
 62
     0
100
AcDbLine
 10
0.0
 20
0.0
 30
0.0
 11
-0.9999999999999998
 21
0.0994897959183674
 31
0.0
  0
LINE
  5
105
330
F8
100
AcDbEntity
  8
0
 62
     0
100
AcDbLine
 10
-0.9999999999999998
 20
0.0994897959183674
 30
0.0
 11
-0.9999999999999998
 21
-0.0994897959183674
 31
0.0
  0
ENDBLK
  5
FA
330
F8
100
AcDbEntity
  8
0
100
AcDbBlockEnd
  0
BLOCK
  5
108
330
107
100
AcDbEntity
  8
0
100
AcDbBlockBegin
  2
Borders SST-ALAND
 70
     0
 10
0.0
 20
0.0
 30
0.0
  3
Borders SST-ALAND
  1

  0
LINE
  5
10A
330
107
100
AcDbEntity
  8
Border (ANSI)
100
AcDbLine
 10
10.687
 20
0.3119999999999997
 30
0.0
 11
0.3120000000000004
 21
0.312
 31
0.0
  0
LINE
  5
10B
330
107
100
AcDbEntity
  8
Border (ANSI)
100
AcDbLine
 10
0.3119999999999997
 20
0.312
 30
0.0
 11
0.3119999999999999
 21
8.187000000000001
 31
0.0
  0
LINE
  5
10C
330
107
100
AcDbEntity
  8
Border (ANSI)
100
AcDbLine
 10
0.3119999999999999
 20
8.187000000000001
 30
0.0
 11
10.687
 21
8.187000000000001
 31
0.0
  0
LINE
  5
10D
330
107
100
AcDbEntity
  8
Border (ANSI)
100
AcDbLine
 10
10.687
 20
8.187000000000001
 30
0.0
 11
10.687
 21
0.311999999999999
 31
0.0
  0
ENDBLK
  5
109
330
107
100
AcDbEntity
  8
0
100
AcDbBlockEnd
  0
ENDSEC
  0
SECTION
  2
ENTITIES
  0
INSERT
  5
10E
330
6C
100
AcDbEntity
  8
0
100
AcDbBlockReference
  2
Borders SST-ALAND
 10
0.0
 20
0.0
 30
0.0
 41
2.0
 42
2.0
 43
2.0
  0
LINE
  5
10F
330
6C
100
AcDbEntity
  8
Hidden (ANSI)
 48
0.0108705228194595
100
AcDbLine
 10
6.096260724935048
 20
10.20489474998769
 30
0.0
 11
6.084741281397641
 21
10.20489474998769
 31
0.0
  0
LINE
  5
110
330
6C
100
AcDbEntity
  8
Hidden (ANSI)
 48
0.0003761741390917
100
AcDbLine
 10
6.137758087047628
 20
10.20489474998769
 30
0.0
 11
6.137758087047628
 21
10.20539474998769
 31
0.0
  0
LINE
  5
111
330
6C
100
AcDbEntity
  8
Hidden (ANSI)
 48
0.0003761741390917
100
AcDbLine
 10
6.125657246956333
 20
10.20489474998769
 30
0.0
 11
6.125657246956333
 21
10.20539474998769
 31
0.0
  0
LINE
  5
112
330
6C
100
AcDbEntity
  8
Hidden (ANSI)
 48
0.0003761741390917
100
AcDbLine
 10
6.09737153324293
 20
10.20489474998769
 30
0.0
 11
6.09737153324293
 21
10.20539474998769
 31
0.0
  0
LINE
  5
113
330
6C
100
AcDbEntity
  8
Hidden (ANSI)
 48
0.0003761741390917
100
AcDbLine
 10
6.084741281397641
 20
10.20489474998769
 30
0.0
 11
6.084741281397641
 21
10.20539474998769
 31
0.0
  0
LINE
  5
114
330
6C
100
AcDbEntity
  8
Hidden (ANSI)
 48
0.0003761741390917
100
AcDbLine
 10
6.127472372970027
 20
10.20489474998769
 30
0.0
 11
6.127472372970027
 21
10.20539474998769
 31
0.0
  0
LINE
  5
115
330
6C
100
AcDbEntity
  8
Hidden (ANSI)
 48
0.0003761741390917
100
AcDbLine
 10
6.101833718026595
 20
10.20489474998769
 30
0.0
 11
6.101833718026595
 21
10.20539474998769
 31
0.0
  0
LINE
  5
116
330
6C
100
AcDbEntity
  8
Hidden (ANSI)
 48
0.0003761741390917
100
AcDbLine
 10
6.142295902081864
 20
10.20489474998769
 30
0.0
 11
6.142295902081864
 21
10.20539474998769
 31
0.0
  0
LINE
  5
117
330
6C
100
AcDbEntity
  8
Hidden (ANSI)
 48
0.0195985119789839
100
AcDbLine
 10
9.921738101895472
 20
10.20489474998769
 30
0.0
 11
9.908578438296189
 21
10.20489474998769
 31
0.0
  0
LINE
  5
118
330
6C
100
AcDbEntity
  8
Hidden (ANSI)
 48
0.0003761741390917
100
AcDbLine
 10
9.908578438296189
 20
10.20489474998769
 30
0.0
 11
9.908578438296189
 21
10.20539474998769
 31
0.0
  0
LINE
  5
119
330
6C
100
AcDbEntity
  8
Hidden (ANSI)
 48
0.0003761741390917
100
AcDbLine
 10
9.921738101895472
 20
10.20489474998769
 30
0.0
 11
9.921738101895472
 21
10.20539474998769
 31
0.0
  0
LINE
  5
11A
330
6C
100
AcDbEntity
  8
Hidden (ANSI)
 48
0.0003761741390917
100
AcDbLine
 10
9.873864153284285
 20
10.20489474998769
 30
0.0
 11
9.873864153284285
 21
10.20539474998769
 31
0.0
  0
LINE
  5
11B
330
6C
100
AcDbEntity
  8
Hidden (ANSI)
 48
0.0003761741390917
100
AcDbLine
 10
9.884603648865311
 20
10.20489474998769
 30
0.0
 11
9.884603648865311
 21
10.20539474998769
 31
0.0
  0
LINE
  5
11C
330
6C
100
AcDbEntity
  8
Hidden (ANSI)
 48
0.0003761741390917
100
AcDbLine
 10
9.906914572783636
 20
10.20489474998769
 30
0.0
 11
9.906914572783636
 21
10.20539474998769
 31
0.0
  0
LINE
  5
11D
330
6C
100
AcDbEntity
  8
Hidden (ANSI)
 48
0.0036093448288739
100
AcDbLine
 10
9.908578438296189
 20
10.20489474998769
 30
0.0
 11
9.904683492632782
 21
10.20489474998769
 31
0.0
  0
LINE
  5
11E
330
6C
100
AcDbEntity
  8
Hidden (ANSI)
 48
0.0003761741390917
100
AcDbLine
 10
9.883015413603329
 20
10.20489474998769
 30
0.0
 11
9.883015413603329
 21
10.20539474998769
 31
0.0
  0
LINE
  5
11F
330
6C
100
AcDbEntity
  8
Hidden (ANSI)
 48
0.0003761741390917
100
AcDbLine
 10
9.869855750004044
 20
10.20489474998769
 30
0.0
 11
9.869855750004044
 21
10.20539474998769
 31
0.0
  0
LINE
  5
120
330
6C
100
AcDbEntity
  8
Hidden (ANSI)
 48
0.0003761741390917
100
AcDbLine
 10
9.917729698615231
 20
10.20489474998769
 30
0.0
 11
9.917729698615231
 21
10.20539474998769
 31
0.0
  0
LINE
  5
121
330
6C
100
AcDbEntity
  8
Hidden (ANSI)
 48
0.0182250067591667
100
AcDbLine
 10
9.847317935334007
 20
10.20489474998769
 30
0.0
 11
9.83514146499214
 21
10.20489474998769
 31
0.0
  0
LINE
  5
122
330
6C
100
AcDbEntity
  8
Hidden (ANSI)
 48
0.0042532756924629
100
AcDbLine
 10
9.850191884855689
 20
10.20489474998769
 30
0.0
 11
9.847317935334007
 21
10.20489474998769
 31
0.0
  0
LINE
  5
123
330
6C
100
AcDbEntity
  8
Hidden (ANSI)
 48
0.0028890813700855
100
AcDbLine
 10
9.83514146499214
 20
10.20489474998769
 30
0.0
 11
9.832002821834441
 21
10.20489474998769
 31
0.0
  0
LINE
  5
124
330
6C
100
AcDbEntity
  8
Hidden (ANSI)
 48
0.0003761741390917
100
AcDbLine
 10
9.79808264221255
 20
10.20489474998769
 30
0.0
 11
9.79808264221255
 21
10.20539474998769
 31
0.0
  0
LINE
  5
125
330
6C
100
AcDbEntity
  8
Hidden (ANSI)
 48
0.0003761741390917
100
AcDbLine
 10
9.802091045492792
 20
10.20489474998769
 30
0.0
 11
9.802091045492792
 21
10.20539474998769
 31
0.0
  0
LINE
  5
126
330
6C
100
AcDbEntity
  8
Hidden (ANSI)
 48
0.0003761741390917
100
AcDbLine
 10
9.824780120663969
 20
10.20489474998769
 30
0.0
 11
9.824780120663969
 21
10.20539474998769
 31
0.0
  0
LINE
  5
127
330
6C
100
AcDbEntity
  8
Hidden (ANSI)
 48
0.0003761741390917
100
AcDbLine
 10
9.83514146499214
 20
10.20489474998769
 30
0.0
 11
9.83514146499214
 21
10.20539474998769
 31
0.0
  0
LINE
  5
128
330
6C
100
AcDbEntity
  8
Hidden (ANSI)
 48
0.0003761741390917
100
AcDbLine
 10
9.847317935334007
 20
10.20489474998769
 30
0.0
 11
9.847317935334007
 21
10.20539474998769
 31
0.0
  0
LINE
  5
129
330
6C
100
AcDbEntity
  8
Hidden (ANSI)
 48
0.0003761741390917
100
AcDbLine
 10
9.82326751565256
 20
10.20489474998769
 30
0.0
 11
9.82326751565256
 21
10.20539474998769
 31
0.0
  0
LINE
  5
12A
330
6C
100
AcDbEntity
  8
Hidden (ANSI)
 48
0.0003761741390917
100
AcDbLine
 10
9.836805330504695
 20
10.20489474998769
 30
0.0
 11
9.836805330504695
 21
10.20539474998769
 31
0.0
  0
LINE
  5
12B
330
6C
100
AcDbEntity
  8
Hidden (ANSI)
 48
0.0003761741390917
100
AcDbLine
 10
9.850191884855689
 20
10.20489474998769
 30
0.0
 11
9.850191884855689
 21
10.20539474998769
 31
0.0
  0
LINE
  5
12C
330
6C
100
AcDbEntity
  8
Hidden (ANSI)
 48
0.0477975159883499
100
AcDbLine
 10
10.13622549251368
 20
10.20489474998769
 30
0.0
 11
10.08593137588423
 21
10.20489474998769
 31
0.0
  0
LINE
  5
12D
330
6C
100
AcDbEntity
  8
Hidden (ANSI)
 48
0.0003761741390917
100
AcDbLine
 10
10.08593137588423
 20
10.20489474998769
 30
0.0
 11
10.08593137588423
 21
10.20539474998769
 31
0.0
  0
LINE
  5
12E
330
6C
100
AcDbEntity
  8
Hidden (ANSI)
 48
0.0003761741390917
100
AcDbLine
 10
10.13622549251368
 20
10.20489474998769
 30
0.0
 11
10.13622549251368
 21
10.20539474998769
 31
0.0
  0
LINE
  5
12F
330
6C
100
AcDbEntity
  8
Hidden (ANSI)
 48
0.0091916685923934
100
AcDbLine
 10
9.778418777064196
 20
10.20489474998769
 30
0.0
 11
9.772179293633101
 21
10.20489474998769
 31
0.0
  0
LINE
  5
130
330
6C
100
AcDbEntity
  8
Hidden (ANSI)
 48
0.0003761741390917
100
AcDbLine
 10
9.727065836926762
 20
10.20489474998769
 30
0.0
 11
9.727065836926762
 21
10.20539474998769
 31
0.0
  0
LINE
  5
131
330
6C
100
AcDbEntity
  8
Hidden (ANSI)
 48
0.0003761741390917
100
AcDbLine
 10
9.750208693601363
 20
10.20489474998769
 30
0.0
 11
9.750208693601363
 21
10.20539474998769
 31
0.0
  0
LINE
  5
132
330
6C
100
AcDbEntity
  8
Hidden (ANSI)
 48
0.0003761741390917
100
AcDbLine
 10
9.764200289956923
 20
10.20489474998769
 30
0.0
 11
9.764200289956923
 21
10.20539474998769
 31
0.0
  0
LINE
  5
133
330
6C
100
AcDbEntity
  8
Hidden (ANSI)
 48
0.0003761741390917
100
AcDbLine
 10
9.777359953556208
 20
10.20489474998769
 30
0.0
 11
9.777359953556208
 21
10.20539474998769
 31
0.0
  0
LINE
  5
134
330
6C
100
AcDbEntity
  8
Hidden (ANSI)
 48
0.0003761741390917
100
AcDbLine
 10
9.754217096881605
 20
10.20489474998769
 30
0.0
 11
9.754217096881605
 21
10.20539474998769
 31
0.0
  0
LINE
  5
135
330
6C
100
AcDbEntity
  8
Hidden (ANSI)
 48
0.0003761741390917
100
AcDbLine
 10
9.775544827542514
 20
10.20489474998769
 30
0.0
 11
9.775544827542514
 21
10.20539474998769
 31
0.0
  0
LINE
  5
136
330
6C
100
AcDbEntity
  8
Hidden (ANSI)
 48
0.0003761741390917
100
AcDbLine
 10
9.778418777064196
 20
10.20489474998769
 30
0.0
 11
9.778418777064196
 21
10.20539474998769
 31
0.0
  0
LINE
  5
137
330
6C
100
AcDbEntity
  8
Hidden (ANSI)
 48
0.0210737846791744
100
AcDbLine
 10
10.20905742381316
 20
10.20489474998769
 30
0.0
 11
10.19483893670589
 21
10.20489474998769
 31
0.0
  0
LINE
  5
138
330
6C
100
AcDbEntity
  8
Hidden (ANSI)
 48
0.0003761741390917
100
AcDbLine
 10
10.19483893670589
 20
10.20489474998769
 30
0.0
 11
10.19483893670589
 21
10.20539474998769
 31
0.0
  0
LINE
  5
139
330
6C
100
AcDbEntity
  8
Hidden (ANSI)
 48
0.0003761741390917
100
AcDbLine
 10
10.20905742381316
 20
10.20489474998769
 30
0.0
 11
10.20905742381316
 21
10.20539474998769
 31
0.0
  0
LINE
  5
13A
330
6C
100
AcDbEntity
  8
Hidden (ANSI)
 48
0.0003761741390917
100
AcDbLine
 10
10.20618347429148
 20
10.20489474998769
 30
0.0
 11
10.20618347429148
 21
10.20539474998769
 31
0.0
  0
LINE
  5
13B
330
6C
100
AcDbEntity
  8
Hidden (ANSI)
 48
0.0003761741390917
100
AcDbLine
 10
10.18485574363057
 20
10.20489474998769
 30
0.0
 11
10.18485574363057
 21
10.20539474998769
 31
0.0
  0
LINE
  5
13C
330
6C
100
AcDbEntity
  8
Hidden (ANSI)
 48
0.0003761741390917
100
AcDbLine
 10
10.20799860030517
 20
10.20489474998769
 30
0.0
 11
10.20799860030517
 21
10.20539474998769
 31
0.0
  0
LINE
  5
13D
330
6C
100
AcDbEntity
  8
Hidden (ANSI)
 48
0.0207694992423058
100
AcDbLine
 10
10.19483893670589
 20
10.20489474998769
 30
0.0
 11
10.18084734035033
 21
10.20489474998769
 31
0.0
  0
LINE
  5
13E
330
6C
100
AcDbEntity
  8
Hidden (ANSI)
 48
0.0003761741390917
100
AcDbLine
 10
10.18084734035033
 20
10.20489474998769
 30
0.0
 11
10.18084734035033
 21
10.20539474998769
 31
0.0
  0
LINE
  5
13F
330
6C
100
AcDbEntity
  8
Hidden (ANSI)
 48
0.0219400599598885
100
AcDbLine
 10
10.18084734035033
 20
10.20489474998769
 30
0.0
 11
10.15770448367573
 21
10.20489474998769
 31
0.0
  0
LINE
  5
140
330
6C
100
AcDbEntity
  8
Hidden (ANSI)
 48
0.0003761741390917
100
AcDbLine
 10
10.15770448367573
 20
10.20489474998769
 30
0.0
 11
10.15770448367573
 21
10.20539474998769
 31
0.0
  0
LINE
  5
141
330
6C
100
AcDbEntity
  8
Hidden (ANSI)
 48
0.0101362578570843
100
AcDbLine
 10
9.707250711277266
 20
10.20489474998769
 30
0.0
 11
9.700406185841606
 21
10.20489474998769
 31
0.0
  0
LINE
  5
142
330
6C
100
AcDbEntity
  8
Hidden (ANSI)
 48
0.0003761741390917
100
AcDbLine
 10
9.653780124123855
 20
10.20489474998769
 30
0.0
 11
9.653780124123855
 21
10.20539474998769
 31
0.0
  0
LINE
  5
143
330
6C
100
AcDbEntity
  8
Hidden (ANSI)
 48
0.0003761741390917
100
AcDbLine
 10
9.701578442484471
 20
10.20489474998769
 30
0.0
 11
9.701578442484471
 21
10.20539474998769
 31
0.0
  0
LINE
  5
144
330
6C
100
AcDbEntity
  8
Hidden (ANSI)
 48
0.0003761741390917
100
AcDbLine
 10
9.691595249409154
 20
10.20489474998769
 30
0.0
 11
9.691595249409154
 21
10.20539474998769
 31
0.0
  0
LINE
  5
145
330
6C
100
AcDbEntity
  8
Hidden (ANSI)
 48
0.0003761741390917
100
AcDbLine
 10
9.669359955741398
 20
10.20489474998769
 30
0.0
 11
9.669359955741398
 21
10.20539474998769
 31
0.0
  0
LINE
  5
146
330
6C
100
AcDbEntity
  8
Hidden (ANSI)
 48
0.0003761741390917
100
AcDbLine
 10
9.657107855148963
 20
10.20489474998769
 30
0.0
 11
9.657107855148963
 21
10.20539474998769
 31
0.0
  0
LINE
  5
147
330
6C
100
AcDbEntity
  8
Hidden (ANSI)
 48
0.0003761741390917
100
AcDbLine
 10
9.654233905627279
 20
10.20489474998769
 30
0.0
 11
9.654233905627279
 21
10.20539474998769
 31
0.0
  0
LINE
  5
148
330
6C
100
AcDbEntity
  8
Hidden (ANSI)
 48
0.0003761741390917
100
AcDbLine
 10
9.667696090228846
 20
10.20489474998769
 30
0.0
 11
9.667696090228846
 21
10.20539474998769
 31
0.0
  0
LINE
  5
149
330
6C
100
AcDbEntity
  8
Hidden (ANSI)
 48
0.0003761741390917
100
AcDbLine
 10
9.693259114921707
 20
10.20489474998769
 30
0.0
 11
9.693259114921707
 21
10.20539474998769
 31
0.0
  0
LINE
  5
14A
330
6C
100
AcDbEntity
  8
Hidden (ANSI)
 48
0.0003761741390917
100
AcDbLine
 10
9.706721299523271
 20
10.20489474998769
 30
0.0
 11
9.706721299523271
 21
10.20539474998769
 31
0.0
  0
LINE
  5
14B
330
6C
100
AcDbEntity
  8
Hidden (ANSI)
 48
0.0003761741390917
100
AcDbLine
 10
9.703771719751019
 20
10.20489474998769
 30
0.0
 11
9.703771719751019
 21
10.20539474998769
 31
0.0
  0
LINE
  5
14C
330
6C
100
AcDbEntity
  8
Hidden (ANSI)
 48
0.0003761741390917
100
AcDbLine
 10
9.659376762666081
 20
10.20489474998769
 30
0.0
 11
9.659376762666081
 21
10.20539474998769
 31
0.0
  0
LINE
  5
14D
330
6C
100
AcDbEntity
  8
Hidden (ANSI)
 48
0.0003761741390917
100
AcDbLine
 10
9.707250711277266
 20
10.20489474998769
 30
0.0
 11
9.707250711277266
 21
10.20539474998769
 31
0.0
  0
LINE
  5
14E
330
6C
100
AcDbEntity
  8
Hidden (ANSI)
 48
0.0037173959426582
100
AcDbLine
 10
10.23272969224175
 20
10.20489474998769
 30
0.0
 11
10.22872128896151
 21
10.20489474998769
 31
0.0
  0
LINE
  5
14F
330
6C
100
AcDbEntity
  8
Hidden (ANSI)
 48
0.0003761741390917
100
AcDbLine
 10
10.22872128896151
 20
10.20489474998769
 30
0.0
 11
10.22872128896151
 21
10.20539474998769
 31
0.0
  0
LINE
  5
150
330
6C
100
AcDbEntity
  8
Hidden (ANSI)
 48
0.0003761741390917
100
AcDbLine
 10
10.23272969224175
 20
10.20489474998769
 30
0.0
 11
10.23272969224175
 21
10.20539474998769
 31
0.0
  0
LINE
  5
151
330
6C
100
AcDbEntity
  8
Hidden (ANSI)
 48
0.0063945609144866
100
AcDbLine
 10
9.559317941161182
 20
10.20489474998769
 30
0.0
 11
9.556028037502342
 21
10.20489474998769
 31
0.0
  0
LINE
  5
152
330
6C
100
AcDbEntity
  8
Hidden (ANSI)
 48
0.0032852380536497
100
AcDbLine
 10
9.562872562938
 20
10.20489474998769
 30
0.0
 11
9.559317941161182
 21
10.20489474998769
 31
0.0
  0
LINE
  5
153
330
6C
100
AcDbEntity
  8
Hidden (ANSI)
 48
0.0003761741390917
100
AcDbLine
 10
9.514620463073962
 20
10.20489474998769
 30
0.0
 11
9.514620463073962
 21
10.20539474998769
 31
0.0
  0
LINE
  5
154
330
6C
100
AcDbEntity
  8
Hidden (ANSI)
 48
0.0003761741390917
100
AcDbLine
 10
9.510990211046573
 20
10.20489474998769
 30
0.0
 11
9.510990211046573
 21
10.20539474998769
 31
0.0
  0
LINE
  5
155
330
6C
100
AcDbEntity
  8
Hidden (ANSI)
 48
0.0003761741390917
100
AcDbLine
 10
9.514998614326815
 20
10.20489474998769
 30
0.0
 11
9.514998614326815
 21
10.20539474998769
 31
0.0
  0
LINE
  5
156
330
6C
100
AcDbEntity
  8
Hidden (ANSI)
 48
0.0003761741390917
100
AcDbLine
 10
9.559317941161182
 20
10.20489474998769
 30
0.0
 11
9.559317941161182
 21
10.20539474998769
 31
0.0
  0
LINE
  5
157
330
6C
100
AcDbEntity
  8
Hidden (ANSI)
 48
0.0003761741390917
100
AcDbLine
 10
9.55886415965776
 20
10.20489474998769
 30
0.0
 11
9.55886415965776
 21
10.20539474998769
 31
0.0
  0
LINE
  5
158
330
6C
100
AcDbEntity
  8
Hidden (ANSI)
 48
0.0003761741390917
100
AcDbLine
 10
9.562872562938
 20
10.20489474998769
 30
0.0
 11
9.562872562938
 21
10.20539474998769
 31
0.0
  0
LINE
  5
159
330
6C
100
AcDbEntity
  8
Hidden (ANSI)
 48
0.0329600907862187
100
AcDbLine
 10
9.334393575964233
 20
10.20489474998769
 30
0.0
 11
9.299679290952331
 21
10.20489474998769
 31
0.0
  0
LINE
  5
15A
330
6C
100
AcDbEntity
  8
Hidden (ANSI)
 48
0.0195985119789839
100
AcDbLine
 10
9.347553239563517
 20
10.20489474998769
 30
0.0
 11
9.334393575964233
 21
10.20489474998769
 31
0.0
  0
LINE
  5
15B
330
6C
100
AcDbEntity
  8
Hidden (ANSI)
 48
0.0037173959426582
100
AcDbLine
 10
9.299679290952331
 20
10.20489474998769
 30
0.0
 11
9.295670887672089
 21
10.20489474998769
 31
0.0
  0
LINE
  5
15C
330
6C
100
AcDbEntity
  8
Hidden (ANSI)
 48
0.0003761741390917
100
AcDbLine
 10
9.343544836283276
 20
10.20489474998769
 30
0.0
 11
9.343544836283276
 21
10.20539474998769
 31
0.0
  0
LINE
  5
15D
330
6C
100
AcDbEntity
  8
Hidden (ANSI)
 48
0.0003761741390917
100
AcDbLine
 10
9.332729710451681
 20
10.20489474998769
 30
0.0
 11
9.332729710451681
 21
10.20539474998769
 31
0.0
  0
LINE
  5
15E
330
6C
100
AcDbEntity
  8
Hidden (ANSI)
 48
0.0003761741390917
100
AcDbLine
 10
9.295670887672089
 20
10.20489474998769
 30
0.0
 11
9.295670887672089
 21
10.20539474998769
 31
0.0
  0
LINE
  5
15F
330
6C
100
AcDbEntity
  8
Hidden (ANSI)
 48
0.0003761741390917
100
AcDbLine
 10
9.299679290952331
 20
10.20489474998769
 30
0.0
 11
9.299679290952331
 21
10.20539474998769
 31
0.0
  0
LINE
  5
160
330
6C
100
AcDbEntity
  8
Hidden (ANSI)
 48
0.0003761741390917
100
AcDbLine
 10
9.334393575964233
 20
10.20489474998769
 30
0.0
 11
9.334393575964233
 21
10.20539474998769
 31
0.0
  0
LINE
  5
161
330
6C
100
AcDbEntity
  8
Hidden (ANSI)
 48
0.0003761741390917
100
AcDbLine
 10
9.347553239563517
 20
10.20489474998769
 30
0.0
 11
9.347553239563517
 21
10.20539474998769
 31
0.0
  0
LINE
  5
162
330
6C
100
AcDbEntity
  8
Hidden (ANSI)
 48
0.020211823284626
100
AcDbLine
 10
10.30533473278953
 20
10.20489474998769
 30
0.0
 11
10.29179691793739
 21
10.20489474998769
 31
0.0
  0
LINE
  5
163
330
6C
100
AcDbEntity
  8
Hidden (ANSI)
 48
0.0003761741390917
100
AcDbLine
 10
10.29141876668454
 20
10.20489474998769
 30
0.0
 11
10.29141876668454
 21
10.20539474998769
 31
0.0
  0
LINE
  5
164
330
6C
100
AcDbEntity
  8
Hidden (ANSI)
 48
0.0003761741390917
100
AcDbLine
 10
10.30533473278953
 20
10.20489474998769
 30
0.0
 11
10.30533473278953
 21
10.20539474998769
 31
0.0
  0
LINE
  5
165
330
6C
100
AcDbEntity
  8
Hidden (ANSI)
 48
0.0003761741390917
100
AcDbLine
 10
10.25269607839239
 20
10.20489474998769
 30
0.0
 11
10.25269607839239
 21
10.20539474998769
 31
0.0
  0
LINE
  5
166
330
6C
100
AcDbEntity
  8
Hidden (ANSI)
 48
0.0195985119789839
100
AcDbLine
 10
10.26585574199168
 20
10.20489474998769
 30
0.0
 11
10.25269607839239
 21
10.20489474998769
 31
0.0
  0
LINE
  5
167
330
6C
100
AcDbEntity
  8
Hidden (ANSI)
 48
0.0003761741390917
100
AcDbLine
 10
10.26585574199168
 20
10.20489474998769
 30
0.0
 11
10.26585574199168
 21
10.20539474998769
 31
0.0
  0
LINE
  5
168
330
6C
100
AcDbEntity
  8
Hidden (ANSI)
 48
0.0003761741390917
100
AcDbLine
 10
10.28975490117199
 20
10.20489474998769
 30
0.0
 11
10.28975490117199
 21
10.20539474998769
 31
0.0
  0
LINE
  5
169
330
6C
100
AcDbEntity
  8
Hidden (ANSI)
 48
0.0003761741390917
100
AcDbLine
 10
10.25670448167264
 20
10.20489474998769
 30
0.0
 11
10.25670448167264
 21
10.20539474998769
 31
0.0
  0
LINE
  5
16A
330
6C
100
AcDbEntity
  8
Hidden (ANSI)
 48
0.0003761741390917
100
AcDbLine
 10
10.26744397725366
 20
10.20489474998769
 30
0.0
 11
10.26744397725366
 21
10.20539474998769
 31
0.0
  0
LINE
  5
16B
330
6C
100
AcDbEntity
  8
Hidden (ANSI)
 48
0.0003761741390917
100
AcDbLine
 10
10.29179691793739
 20
10.20489474998769
 30
0.0
 11
10.29179691793739
 21
10.20539474998769
 31
0.0
  0
LINE
  5
16C
330
6C
100
AcDbEntity
  8
Hidden (ANSI)
 48
0.0246050339192152
100
AcDbLine
 10
10.29179691793739
 20
10.20489474998769
 30
0.0
 11
10.26585574199168
 21
10.20489474998769
 31
0.0
  0
LINE
  5
16D
330
6C
100
AcDbEntity
  8
Hidden (ANSI)
 48
0.0003761741390917
100
AcDbLine
 10
10.2997380942473
 20
10.20489474998769
 30
0.0
 11
10.2997380942473
 21
10.20539474998769
 31
0.0
  0
LINE
  5
16E
330
6C
100
AcDbEntity
  8
Hidden (ANSI)
 48
0.0037173959426582
100
AcDbLine
 10
9.275780131772023
 20
10.20489474998769
 30
0.0
 11
9.271771728491781
 21
10.20489474998769
 31
0.0
  0
LINE
  5
16F
330
6C
100
AcDbEntity
  8
Hidden (ANSI)
 48
0.0037173959426582
100
AcDbLine
 10
9.227906183160836
 20
10.20489474998769
 30
0.0
 11
9.223897779880596
 21
10.20489474998769
 31
0.0
  0
LINE
  5
170
330
6C
100
AcDbEntity
  8
Hidden (ANSI)
 48
0.0546736046671867
100
AcDbLine
 10
9.249838955826309
 20
10.20489474998769
 30
0.0
 11
9.227906183160836
 21
10.20489474998769
 31
0.0
  0
LINE
  5
171
330
6C
100
AcDbEntity
  8
Hidden (ANSI)
 48
0.0546736046671867
100
AcDbLine
 10
9.271771728491781
 20
10.20489474998769
 30
0.0
 11
9.249838955826309
 21
10.20489474998769
 31
0.0
  0
LINE
  5
172
330
6C
100
AcDbEntity
  8
Hidden (ANSI)
 48
0.0003761741390917
100
AcDbLine
 10
9.223897779880596
 20
10.20489474998769
 30
0.0
 11
9.223897779880596
 21
10.20539474998769
 31
0.0
  0
LINE
  5
173
330
6C
100
AcDbEntity
  8
Hidden (ANSI)
 48
0.0003761741390917
100
AcDbLine
 10
9.227906183160836
 20
10.20489474998769
 30
0.0
 11
9.227906183160836
 21
10.20539474998769
 31
0.0
  0
LINE
  5
174
330
6C
100
AcDbEntity
  8
Hidden (ANSI)
 48
0.0003761741390917
100
AcDbLine
 10
9.249838955826309
 20
10.20489474998769
 30
0.0
 11
9.249838955826309
 21
10.20539474998769
 31
0.0
  0
LINE
  5
175
330
6C
100
AcDbEntity
  8
Hidden (ANSI)
 48
0.0003761741390917
100
AcDbLine
 10
9.271771728491781
 20
10.20489474998769
 30
0.0
 11
9.271771728491781
 21
10.20539474998769
 31
0.0
  0
LINE
  5
176
330
6C
100
AcDbEntity
  8
Hidden (ANSI)
 48
0.0003761741390917
100
AcDbLine
 10
9.227528031907985
 20
10.20489474998769
 30
0.0
 11
9.227528031907985
 21
10.20539474998769
 31
0.0
  0
LINE
  5
177
330
6C
100
AcDbEntity
  8
Hidden (ANSI)
 48
0.0003761741390917
100
AcDbLine
 10
9.272149879744635
 20
10.20489474998769
 30
0.0
 11
9.272149879744635
 21
10.20539474998769
 31
0.0
  0
LINE
  5
178
330
6C
100
AcDbEntity
  8
Hidden (ANSI)
 48
0.0003761741390917
100
AcDbLine
 10
9.275780131772023
 20
10.20489474998769
 30
0.0
 11
9.275780131772023
 21
10.20539474998769
 31
0.0
  0
LINE
  5
179
330
6C
100
AcDbEntity
  8
Hidden (ANSI)
 48
0.001145308255218
100
AcDbLine
 10
9.772179293633101
 20
10.20489474998769
 30
0.0
 11
9.771347360876823
 21
10.20489474998769
 31
0.0
  0
LINE
  5
17A
330
6C
100
AcDbEntity
  8
Hidden (ANSI)
 48
0.0003761741390917
100
AcDbLine
 10
9.759019630033817
 20
10.20489474998769
 30
0.0
 11
9.759019630033817
 21
10.20539474998769
 31
0.0
  0
LINE
  5
17B
330
6C
100
AcDbEntity
  8
Hidden (ANSI)
 48
0.0003761741390917
100
AcDbLine
 10
9.772179293633101
 20
10.20489474998769
 30
0.0
 11
9.772179293633101
 21
10.20539474998769
 31
0.0
  0
LINE
  5
17C
330
6C
100
AcDbEntity
  8
Hidden (ANSI)
 48
0.0003761741390917
100
AcDbLine
 10
9.719994420739389
 20
10.20489474998769
 30
0.0
 11
9.719994420739389
 21
10.20539474998769
 31
0.0
  0
LINE
  5
17D
330
6C
100
AcDbEntity
  8
Hidden (ANSI)
 48
0.0003523688938003
100
AcDbLine
 10
9.720296941741672
 20
10.20489474998769
 30
0.0
 11
9.719994420739389
 21
10.20489474998769
 31
0.0
  0
LINE
  5
17E
330
6C
100
AcDbEntity
  8
Hidden (ANSI)
 48
0.0003761741390917
100
AcDbLine
 10
9.722868370261073
 20
10.20489474998769
 30
0.0
 11
9.722868370261073
 21
10.20539474998769
 31
0.0
  0
LINE
  5
17F
330
6C
100
AcDbEntity
  8
Hidden (ANSI)
 48
0.0003761741390917
100
AcDbLine
 10
9.768170890352859
 20
10.20489474998769
 30
0.0
 11
9.768170890352859
 21
10.20539474998769
 31
0.0
  0
LINE
  5
180
330
6C
100
AcDbEntity
  8
Hidden (ANSI)
 48
0.0003761741390917
100
AcDbLine
 10
9.735120470853509
 20
10.20489474998769
 30
0.0
 11
9.735120470853509
 21
10.20539474998769
 31
0.0
  0
LINE
  5
181
330
6C
100
AcDbEntity
  8
Hidden (ANSI)
 48
0.0003761741390917
100
AcDbLine
 10
9.724305345021914
 20
10.20489474998769
 30
0.0
 11
9.724305345021914
 21
10.20539474998769
 31
0.0
  0
LINE
  5
182
330
6C
100
AcDbEntity
  8
Hidden (ANSI)
 48
0.0003761741390917
100
AcDbLine
 10
9.771347360876823
 20
10.20489474998769
 30
0.0
 11
9.771347360876823
 21
10.20539474998769
 31
0.0
  0
LINE
  5
183
330
6C
100
AcDbEntity
  8
Hidden (ANSI)
 48
0.0485177785158157
100
AcDbLine
 10
9.771347360876823
 20
10.20489474998769
 30
0.0
 11
9.720296941741672
 21
10.20489474998769
 31
0.0
  0
LINE
  5
184
330
6C
100
AcDbEntity
  8
Hidden (ANSI)
 48
0.0003761741390917
100
AcDbLine
 10
9.720296941741672
 20
10.20489474998769
 30
0.0
 11
9.720296941741672
 21
10.20539474998769
 31
0.0
  0
LINE
  5
185
330
6C
100
AcDbEntity
  8
Hidden (ANSI)
 48
0.0003761741390917
100
AcDbLine
 10
9.733456605340956
 20
10.20489474998769
 30
0.0
 11
9.733456605340956
 21
10.20539474998769
 31
0.0
  0
LINE
  5
186
330
6C
100
AcDbEntity
  8
Hidden (ANSI)
 48
0.0003761741390917
100
AcDbLine
 10
9.757355764521264
 20
10.20489474998769
 30
0.0
 11
9.757355764521264
 21
10.20539474998769
 31
0.0
  0
LINE
  5
187
330
6C
100
AcDbEntity
  8
Hidden (ANSI)
 48
0.0250371936708689
100
AcDbLine
 10
9.203175091224252
 20
10.20489474998769
 30
0.0
 11
9.176780133775114
 21
10.20489474998769
 31
0.0
  0
LINE
  5
188
330
6C
100
AcDbEntity
  8
Hidden (ANSI)
 48
0.0003761741390917
100
AcDbLine
 10
9.187973410859562
 20
10.20489474998769
 30
0.0
 11
9.187973410859562
 21
10.20539474998769
 31
0.0
  0
LINE
  5
189
330
6C
100
AcDbEntity
  8
Hidden (ANSI)
 48
0.0003761741390917
100
AcDbLine
 10
9.176780133775114
 20
10.20489474998769
 30
0.0
 11
9.176780133775114
 21
10.20539474998769
 31
0.0
  0
LINE
  5
18A
330
6C
100
AcDbEntity
  8
Hidden (ANSI)
 48
0.0003761741390917
100
AcDbLine
 10
9.191981814139804
 20
10.20489474998769
 30
0.0
 11
9.191981814139804
 21
10.20539474998769
 31
0.0
  0
LINE
  5
18B
330
6C
100
AcDbEntity
  8
Hidden (ANSI)
 48
0.0003761741390917
100
AcDbLine
 10
9.203175091224252
 20
10.20489474998769
 30
0.0
 11
9.203175091224252
 21
10.20539474998769
 31
0.0
  0
LINE
  5
18C
330
6C
100
AcDbEntity
  8
Hidden (ANSI)
 48
0.0196444150060415
100
AcDbLine
 10
9.832002821834441
 20
10.20489474998769
 30
0.0
 11
9.818767527984586
 21
10.20489474998769
 31
0.0
  0
LINE
  5
18D
330
6C
100
AcDbEntity
  8
Hidden (ANSI)
 48
0.0003761741390917
100
AcDbLine
 10
9.818767527984586
 20
10.20489474998769
 30
0.0
 11
9.818767527984586
 21
10.20539474998769
 31
0.0
  0
LINE
  5
18E
330
6C
100
AcDbEntity
  8
Hidden (ANSI)
 48
0.0003761741390917
100
AcDbLine
 10
9.832002821834441
 20
10.20489474998769
 30
0.0
 11
9.832002821834441
 21
10.20539474998769
 31
0.0
  0
LINE
  5
18F
330
6C
100
AcDbEntity
  8
Hidden (ANSI)
 48
0.0003761741390917
100
AcDbLine
 10
9.796078452813407
 20
10.20489474998769
 30
0.0
 11
9.796078452813407
 21
10.20539474998769
 31
0.0
  0
LINE
  5
190
330
6C
100
AcDbEntity
  8
Hidden (ANSI)
 48
0.0003761741390917
100
AcDbLine
 10
9.806817948394433
 20
10.20489474998769
 30
0.0
 11
9.806817948394433
 21
10.20539474998769
 31
0.0
  0
LINE
  5
191
330
6C
100
AcDbEntity
  8
Hidden (ANSI)
 48
0.0003761741390917
100
AcDbLine
 10
9.817254922973175
 20
10.20489474998769
 30
0.0
 11
9.817254922973175
 21
10.20539474998769
 31
0.0
  0
LINE
  5
192
330
6C
100
AcDbEntity
  8
Hidden (ANSI)
 48
0.0127927148714662
100
AcDbLine
 10
9.818767527984586
 20
10.20489474998769
 30
0.0
 11
9.805229713132449
 21
10.20489474998769
 31
0.0
  0
LINE
  5
193
330
6C
100
AcDbEntity
  8
Hidden (ANSI)
 48
0.0003761741390917
100
AcDbLine
 10
9.805229713132449
 20
10.20489474998769
 30
0.0
 11
9.805229713132449
 21
10.20539474998769
 31
0.0
  0
LINE
  5
194
330
6C
100
AcDbEntity
  8
Hidden (ANSI)
 48
0.0195985119789839
100
AcDbLine
 10
9.805229713132449
 20
10.20489474998769
 30
0.0
 11
9.792070049533167
 21
10.20489474998769
 31
0.0
  0
LINE
  5
195
330
6C
100
AcDbEntity
  8
Hidden (ANSI)
 48
0.0003761741390917
100
AcDbLine
 10
9.792070049533167
 20
10.20489474998769
 30
0.0
 11
9.792070049533167
 21
10.20539474998769
 31
0.0
  0
LINE
  5
196
330
6C
100
AcDbEntity
  8
Hidden (ANSI)
 48
0.0003761741390917
100
AcDbLine
 10
9.827918788303628
 20
10.20489474998769
 30
0.0
 11
9.827918788303628
 21
10.20539474998769
 31
0.0
  0
LINE
  5
197
330
6C
100
AcDbEntity
  8
Hidden (ANSI)
 48
0.0242449026554823
100
AcDbLine
 10
9.142973411770059
 20
10.20489474998769
 30
0.0
 11
9.117410387077198
 21
10.20489474998769
 31
0.0
  0
LINE
  5
198
330
6C
100
AcDbEntity
  8
Hidden (ANSI)
 48
0.0208249837160111
100
AcDbLine
 10
9.156965008125618
 20
10.20489474998769
 30
0.0
 11
9.142973411770059
 21
10.20489474998769
 31
0.0
  0
LINE
  5
199
330
6C
100
AcDbEntity
  8
Hidden (ANSI)
 48
0.0005795804900117
100
AcDbLine
 10
9.103948202475631
 20
10.20489474998769
 30
0.0
 11
9.103494420972207
 21
10.20489474998769
 31
0.0
  0
LINE
  5
19A
330
6C
100
AcDbEntity
  8
Hidden (ANSI)
 48
0.0199486967176199
100
AcDbLine
 10
9.117410387077198
 20
10.20489474998769
 30
0.0
 11
9.103948202475631
 21
10.20489474998769
 31
0.0
  0
LINE
  5
19B
330
6C
100
AcDbEntity
  8
Hidden (ANSI)
 48
0.0003761741390917
100
AcDbLine
 10
9.103494420972207
 20
10.20489474998769
 30
0.0
 11
9.103494420972207
 21
10.20539474998769
 31
0.0
  0
LINE
  5
19C
330
6C
100
AcDbEntity
  8
Hidden (ANSI)
 48
0.0003761741390917
100
AcDbLine
 10
9.151292739332824
 20
10.20489474998769
 30
0.0
 11
9.151292739332824
 21
10.20539474998769
 31
0.0
  0
LINE
  5
19D
330
6C
100
AcDbEntity
  8
Hidden (ANSI)
 48
0.0003761741390917
100
AcDbLine
 10
9.141309546257506
 20
10.20489474998769
 30
0.0
 11
9.141309546257506
 21
10.20539474998769
 31
0.0
  0
LINE
  5
19E
330
6C
100
AcDbEntity
  8
Hidden (ANSI)
 48
0.0003761741390917
100
AcDbLine
 10
9.119074252589751
 20
10.20489474998769
 30
0.0
 11
9.119074252589751
 21
10.20539474998769
 31
0.0
  0
LINE
  5
19F
330
6C
100
AcDbEntity
  8
Hidden (ANSI)
 48
0.0003761741390917
100
AcDbLine
 10
9.106822151997315
 20
10.20489474998769
 30
0.0
 11
9.106822151997315
 21
10.20539474998769
 31
0.0
  0
LINE
  5
1A0
330
6C
100
AcDbEntity
  8
Hidden (ANSI)
 48
0.0003761741390917
100
AcDbLine
 10
9.103948202475631
 20
10.20489474998769
 30
0.0
 11
9.103948202475631
 21
10.20539474998769
 31
0.0
  0
LINE
  5
1A1
330
6C
100
AcDbEntity
  8
Hidden (ANSI)
 48
0.0003761741390917
100
AcDbLine
 10
9.117410387077198
 20
10.20489474998769
 30
0.0
 11
9.117410387077198
 21
10.20539474998769
 31
0.0
  0
LINE
  5
1A2
330
6C
100
AcDbEntity
  8
Hidden (ANSI)
 48
0.0003761741390917
100
AcDbLine
 10
9.142973411770059
 20
10.20489474998769
 30
0.0
 11
9.142973411770059
 21
10.20539474998769
 31
0.0
  0
LINE
  5
1A3
330
6C
100
AcDbEntity
  8
Hidden (ANSI)
 48
0.0003761741390917
100
AcDbLine
 10
9.156435596371624
 20
10.20489474998769
 30
0.0
 11
9.156435596371624
 21
10.20539474998769
 31
0.0
  0
LINE
  5
1A4
330
6C
100
AcDbEntity
  8
Hidden (ANSI)
 48
0.0003761741390917
100
AcDbLine
 10
9.153486016599371
 20
10.20489474998769
 30
0.0
 11
9.153486016599371
 21
10.20539474998769
 31
0.0
  0
LINE
  5
1A5
330
6C
100
AcDbEntity
  8
Hidden (ANSI)
 48
0.0003761741390917
100
AcDbLine
 10
9.109091059514433
 20
10.20489474998769
 30
0.0
 11
9.109091059514433
 21
10.20539474998769
 31
0.0
  0
LINE
  5
1A6
330
6C
100
AcDbEntity
  8
Hidden (ANSI)
 48
0.0003761741390917
100
AcDbLine
 10
9.156965008125618
 20
10.20489474998769
 30
0.0
 11
9.156965008125618
 21
10.20539474998769
 31
0.0
  0
LINE
  5
1A7
330
6C
100
AcDbEntity
  8
Hidden (ANSI)
 48
0.0003761741390917
100
AcDbLine
 10
10.32027606750827
 20
10.20489474998769
 30
0.0
 11
10.32027606750827
 21
10.20539474998769
 31
0.0
  0
LINE
  5
1A8
330
6C
100
AcDbEntity
  8
Hidden (ANSI)
 48
0.0003761741390917
100
AcDbLine
 10
10.33104826806252
 20
10.20489474998769
 30
0.0
 11
10.33104826806252
 21
10.20539474998769
 31
0.0
  0
LINE
  5
1A9
330
6C
100
AcDbEntity
  8
Hidden (ANSI)
 48
0.0003761741390917
100
AcDbLine
 10
10.337085912728
 20
10.20489474998769
 30
0.0
 11
10.337085912728
 21
10.20539474998769
 31
0.0
  0
LINE
  5
1AA
330
6C
100
AcDbEntity
  8
Hidden (ANSI)
 48
0.0003761741390917
100
AcDbLine
 10
10.32618340329608
 20
10.20489474998769
 30
0.0
 11
10.32618340329608
 21
10.20539474998769
 31
0.0
  0
LINE
  5
1AB
330
6C
100
AcDbEntity
  8
Hidden (ANSI)
 48
0.0003761741390917
100
AcDbLine
 10
10.3309613954774
 20
10.20489474998769
 30
0.0
 11
10.3309613954774
 21
10.20539474998769
 31
0.0
  0
LINE
  5
1AC
330
6C
100
AcDbEntity
  8
Hidden (ANSI)
 48
0.0003761741390917
100
AcDbLine
 10
10.3333069552755
 20
10.20489474998769
 30
0.0
 11
10.3333069552755
 21
10.20539474998769
 31
0.0
  0
LINE
  5
1AD
330
6C
100
AcDbEntity
  8
Hidden (ANSI)
 48
0.0003761741390917
100
AcDbLine
 10
10.33526158844059
 20
10.20489474998769
 30
0.0
 11
10.33526158844059
 21
10.20539474998769
 31
0.0
  0
LINE
  5
1AE
330
6C
100
AcDbEntity
  8
Hidden (ANSI)
 48
0.0003761741390917
100
AcDbLine
 10
10.32457626047146
 20
10.20489474998769
 30
0.0
 11
10.32457626047146
 21
10.20539474998769
 31
0.0
  0
LINE
  5
1AF
330
6C
100
AcDbEntity
  8
Hidden (ANSI)
 48
0.0003761741390917
100
AcDbLine
 10
10.32822490904628
 20
10.20489474998769
 30
0.0
 11
10.32822490904628
 21
10.20539474998769
 31
0.0
  0
LINE
  5
1B0
330
6C
100
AcDbEntity
  8
Hidden (ANSI)
 48
0.0003761741390917
100
AcDbLine
 10
10.32905019860487
 20
10.20489474998769
 30
0.0
 11
10.32905019860487
 21
10.20539474998769
 31
0.0
  0
LINE
  5
1B1
330
6C
100
AcDbEntity
  8
Hidden (ANSI)
 48
0.0003761741390917
100
AcDbLine
 10
10.33013610591881
 20
10.20489474998769
 30
0.0
 11
10.33013610591881
 21
10.20539474998769
 31
0.0
  0
LINE
  5
1B2
330
6C
100
AcDbEntity
  8
Hidden (ANSI)
 48
0.0003761741390917
100
AcDbLine
 10
10.31367375103954
 20
10.20489474998769
 30
0.0
 11
10.31367375103954
 21
10.20539474998769
 31
0.0
  0
LINE
  5
1B3
330
6C
100
AcDbEntity
  8
Hidden (ANSI)
 48
0.0003761741390917
100
AcDbLine
 10
10.30859170481032
 20
10.20489474998769
 30
0.0
 11
10.30859170481032
 21
10.20539474998769
 31
0.0
  0
LINE
  5
1B4
330
6C
100
AcDbEntity
  8
Hidden (ANSI)
 48
0.0003761741390917
100
AcDbLine
 10
10.32540155003005
 20
10.20489474998769
 30
0.0
 11
10.32540155003005
 21
10.20539474998769
 31
0.0
  0
LINE
  5
1B5
330
6C
100
AcDbEntity
  8
Hidden (ANSI)
 48
0.0003761741390917
100
AcDbLine
 10
10.32826834533884
 20
10.20489474998769
 30
0.0
 11
10.32826834533884
 21
10.20539474998769
 31
0.0
  0
LINE
  5
1B6
330
6C
100
AcDbEntity
  8
Hidden (ANSI)
 48
0.0003761741390917
100
AcDbLine
 10
10.32466313305657
 20
10.20489474998769
 30
0.0
 11
10.32466313305657
 21
10.20539474998769
 31
0.0
  0
LINE
  5
1B7
330
6C
100
AcDbEntity
  8
Hidden (ANSI)
 48
0.0242449026554823
100
AcDbLine
 10
9.40616668375573
 20
10.20489474998769
 30
0.0
 11
9.380603659062867
 21
10.20489474998769
 31
0.0
  0
LINE
  5
1B8
330
6C
100
AcDbEntity
  8
Hidden (ANSI)
 48
0.0208249837160111
100
AcDbLine
 10
9.420158280111289
 20
10.20489474998769
 30
0.0
 11
9.40616668375573
 21
10.20489474998769
 31
0.0
  0
LINE
  5
1B9
330
6C
100
AcDbEntity
  8
Hidden (ANSI)
 48
0.0005795804900117
100
AcDbLine
 10
9.3671414744613
 20
10.20489474998769
 30
0.0
 11
9.366687692957878
 21
10.20489474998769
 31
0.0
  0
LINE
  5
1BA
330
6C
100
AcDbEntity
  8
Hidden (ANSI)
 48
0.0199486967176199
100
AcDbLine
 10
9.380603659062867
 20
10.20489474998769
 30
0.0
 11
9.3671414744613
 21
10.20489474998769
 31
0.0
  0
LINE
  5
1BB
330
6C
100
AcDbEntity
  8
Hidden (ANSI)
 48
0.0003761741390917
100
AcDbLine
 10
9.366687692957878
 20
10.20489474998769
 30
0.0
 11
9.366687692957878
 21
10.20539474998769
 31
0.0
  0
LINE
  5
1BC
330
6C
100
AcDbEntity
  8
Hidden (ANSI)
 48
0.0003761741390917
100
AcDbLine
 10
9.414486011318494
 20
10.20489474998769
 30
0.0
 11
9.414486011318494
 21
10.20539474998769
 31
0.0
  0
LINE
  5
1BD
330
6C
100
AcDbEntity
  8
Hidden (ANSI)
 48
0.0003761741390917
100
AcDbLine
 10
9.404502818243175
 20
10.20489474998769
 30
0.0
 11
9.404502818243175
 21
10.20539474998769
 31
0.0
  0
LINE
  5
1BE
330
6C
100
AcDbEntity
  8
Hidden (ANSI)
 48
0.0003761741390917
100
AcDbLine
 10
9.382267524575421
 20
10.20489474998769
 30
0.0
 11
9.382267524575421
 21
10.20539474998769
 31
0.0
  0
LINE
  5
1BF
330
6C
100
AcDbEntity
  8
Hidden (ANSI)
 48
0.0003761741390917
100
AcDbLine
 10
9.370015423982984
 20
10.20489474998769
 30
0.0
 11
9.370015423982984
 21
10.20539474998769
 31
0.0
  0
LINE
  5
1C0
330
6C
100
AcDbEntity
  8
Hidden (ANSI)
 48
0.0003761741390917
100
AcDbLine
 10
9.3671414744613
 20
10.20489474998769
 30
0.0
 11
9.3671414744613
 21
10.20539474998769
 31
0.0
  0
LINE
  5
1C1
330
6C
100
AcDbEntity
  8
Hidden (ANSI)
 48
0.0003761741390917
100
AcDbLine
 10
9.380603659062867
 20
10.20489474998769
 30
0.0
 11
9.380603659062867
 21
10.20539474998769
 31
0.0
  0
LINE
  5
1C2
330
6C
100
AcDbEntity
  8
Hidden (ANSI)
 48
0.0003761741390917
100
AcDbLine
 10
9.40616668375573
 20
10.20489474998769
 30
0.0
 11
9.40616668375573
 21
10.20539474998769
 31
0.0
  0
LINE
  5
1C3
330
6C
100
AcDbEntity
  8
Hidden (ANSI)
 48
0.0003761741390917
100
AcDbLine
 10
9.419628868357294
 20
10.20489474998769
 30
0.0
 11
9.419628868357294
 21
10.20539474998769
 31
0.0
  0
LINE
  5
1C4
330
6C
100
AcDbEntity
  8
Hidden (ANSI)
 48
0.0003761741390917
100
AcDbLine
 10
9.41667928858504
 20
10.20489474998769
 30
0.0
 11
9.41667928858504
 21
10.20539474998769
 31
0.0
  0
LINE
  5
1C5
330
6C
100
AcDbEntity
  8
Hidden (ANSI)
 48
0.0003761741390917
100
AcDbLine
 10
9.372284331500102
 20
10.20489474998769
 30
0.0
 11
9.372284331500102
 21
10.20539474998769
 31
0.0
  0
LINE
  5
1C6
330
6C
100
AcDbEntity
  8
Hidden (ANSI)
 48
0.0003761741390917
100
AcDbLine
 10
9.420158280111289
 20
10.20489474998769
 30
0.0
 11
9.420158280111289
 21
10.20539474998769
 31
0.0
  0
LINE
  5
1C7
330
6C
100
AcDbEntity
  8
Hidden (ANSI)
 48
0.0002392609458184
100
AcDbLine
 10
6.148672478060031
 20
10.20489474998769
 30
0.0
 11
6.148445597828757
 21
10.20489474998769
 31
0.0
  0
LINE
  5
1C8
330
6C
100
AcDbEntity
  8
Hidden (ANSI)
 48
0.0003761741390917
100
AcDbLine
 10
6.145798528538348
 20
10.20489474998769
 30
0.0
 11
6.145798528538348
 21
10.20539474998769
 31
0.0
  0
LINE
  5
1C9
330
6C
100
AcDbEntity
  8
Hidden (ANSI)
 48
0.0003761741390917
100
AcDbLine
 10
6.148672478060031
 20
10.20489474998769
 30
0.0
 11
6.148672478060031
 21
10.20539474998769
 31
0.0
  0
LINE
  5
1CA
330
6C
100
AcDbEntity
  8
Hidden (ANSI)
 48
0.0003761741390917
100
AcDbLine
 10
6.137252310223871
 20
10.20489474998769
 30
0.0
 11
6.137252310223871
 21
10.20539474998769
 31
0.0
  0
LINE
  5
1CB
330
6C
100
AcDbEntity
  8
Hidden (ANSI)
 48
0.0003761741390917
100
AcDbLine
 10
6.113277520792992
 20
10.20489474998769
 30
0.0
 11
6.113277520792992
 21
10.20539474998769
 31
0.0
  0
LINE
  5
1CC
330
6C
100
AcDbEntity
  8
Hidden (ANSI)
 48
0.0003761741390917
100
AcDbLine
 10
6.124470797877441
 20
10.20489474998769
 30
0.0
 11
6.124470797877441
 21
10.20539474998769
 31
0.0
  0
LINE
  5
1CD
330
6C
100
AcDbEntity
  8
Hidden (ANSI)
 48
0.0003761741390917
100
AcDbLine
 10
6.121748108856899
 20
10.20489474998769
 30
0.0
 11
6.121748108856899
 21
10.20539474998769
 31
0.0
  0
LINE
  5
1CE
330
6C
100
AcDbEntity
  8
Hidden (ANSI)
 48
0.0003761741390917
100
AcDbLine
 10
6.134453990952759
 20
10.20489474998769
 30
0.0
 11
6.134453990952759
 21
10.20539474998769
 31
0.0
  0
LINE
  5
1CF
330
6C
100
AcDbEntity
  8
Hidden (ANSI)
 48
0.0003761741390917
100
AcDbLine
 10
6.123260713868311
 20
10.20489474998769
 30
0.0
 11
6.123260713868311
 21
10.20539474998769
 31
0.0
  0
LINE
  5
1D0
330
6C
100
AcDbEntity
  8
Hidden (ANSI)
 48
0.0003761741390917
100
AcDbLine
 10
6.107680882250768
 20
10.20489474998769
 30
0.0
 11
6.107680882250768
 21
10.20539474998769
 31
0.0
  0
LINE
  5
1D1
330
6C
100
AcDbEntity
  8
Hidden (ANSI)
 48
0.0003761741390917
100
AcDbLine
 10
6.131655671681647
 20
10.20489474998769
 30
0.0
 11
6.131655671681647
 21
10.20539474998769
 31
0.0
  0
LINE
  5
1D2
330
6C
100
AcDbEntity
  8
Hidden (ANSI)
 48
0.0003761741390917
100
AcDbLine
 10
6.110554831772451
 20
10.20489474998769
 30
0.0
 11
6.110554831772451
 21
10.20539474998769
 31
0.0
  0
LINE
  5
1D3
330
6C
100
AcDbEntity
  8
Hidden (ANSI)
 48
0.0003761741390917
100
AcDbLine
 10
6.120462394597199
 20
10.20489474998769
 30
0.0
 11
6.120462394597199
 21
10.20539474998769
 31
0.0
  0
LINE
  5
1D4
330
6C
100
AcDbEntity
  8
Hidden (ANSI)
 48
0.0056260824203491
100
AcDbLine
 10
9.491099455146507
 20
10.20489474998769
 30
0.0
 11
9.485086862467124
 21
10.20489474998769
 31
0.0
  0
LINE
  5
1D5
330
6C
100
AcDbEntity
  8
Hidden (ANSI)
 48
0.0003761741390917
100
AcDbLine
 10
9.487091051866265
 20
10.20489474998769
 30
0.0
 11
9.487091051866265
 21
10.20539474998769
 31
0.0
  0
LINE
  5
1D6
330
6C
100
AcDbEntity
  8
Hidden (ANSI)
 48
0.0003761741390917
100
AcDbLine
 10
9.44322550653532
 20
10.20489474998769
 30
0.0
 11
9.44322550653532
 21
10.20539474998769
 31
0.0
  0
LINE
  5
1D7
330
6C
100
AcDbEntity
  8
Hidden (ANSI)
 48
0.0003761741390917
100
AcDbLine
 10
9.439217103255078
 20
10.20489474998769
 30
0.0
 11
9.439217103255078
 21
10.20539474998769
 31
0.0
  0
LINE
  5
1D8
330
6C
100
AcDbEntity
  8
Hidden (ANSI)
 48
0.0003761741390917
100
AcDbLine
 10
9.491099455146507
 20
10.20489474998769
 30
0.0
 11
9.491099455146507
 21
10.20539474998769
 31
0.0
  0
LINE
  5
1D9
330
6C
100
AcDbEntity
  8
Hidden (ANSI)
 48
0.0003761741390917
100
AcDbLine
 10
6.291613651638455
 20
10.20489474998769
 30
0.0
 11
6.291613651638455
 21
10.20539474998769
 31
0.0
  0
LINE
  5
1DA
330
6C
100
AcDbEntity
  8
Hidden (ANSI)
 48
0.0003761741390917
100
AcDbLine
 10
6.316193483073898
 20
10.20489474998769
 30
0.0
 11
6.316193483073898
 21
10.20539474998769
 31
0.0
  0
LINE
  5
1DB
330
6C
100
AcDbEntity
  8
Hidden (ANSI)
 48
0.0003761741390917
100
AcDbLine
 10
6.312336340294797
 20
10.20489474998769
 30
0.0
 11
6.312336340294797
 21
10.20539474998769
 31
0.0
  0
LINE
  5
1DC
330
6C
100
AcDbEntity
  8
Hidden (ANSI)
 48
0.0003761741390917
100
AcDbLine
 10
6.289949786125902
 20
10.20489474998769
 30
0.0
 11
6.289949786125902
 21
10.20539474998769
 31
0.0
  0
LINE
  5
1DD
330
6C
100
AcDbEntity
  8
Hidden (ANSI)
 48
0.0003761741390917
100
AcDbLine
 10
6.266050626945594
 20
10.20489474998769
 30
0.0
 11
6.266050626945594
 21
10.20539474998769
 31
0.0
  0
LINE
  5
1DE
330
6C
100
AcDbEntity
  8
Hidden (ANSI)
 48
0.0003761741390917
100
AcDbLine
 10
6.243739703027268
 20
10.20489474998769
 30
0.0
 11
6.243739703027268
 21
10.20539474998769
 31
0.0
  0
LINE
  5
1DF
330
6C
100
AcDbEntity
  8
Hidden (ANSI)
 48
0.0003761741390917
100
AcDbLine
 10
6.288210290362777
 20
10.20489474998769
 30
0.0
 11
6.288210290362777
 21
10.20539474998769
 31
0.0
  0
LINE
  5
1E0
330
6C
100
AcDbEntity
  8
Hidden (ANSI)
 48
0.0003761741390917
100
AcDbLine
 10
6.278000206535748
 20
10.20489474998769
 30
0.0
 11
6.278000206535748
 21
10.20539474998769
 31
0.0
  0
LINE
  5
1E1
330
6C
100
AcDbEntity
  8
Hidden (ANSI)
 48
0.0003761741390917
100
AcDbLine
 10
6.267714492458146
 20
10.20489474998769
 30
0.0
 11
6.267714492458146
 21
10.20539474998769
 31
0.0
  0
LINE
  5
1E2
330
6C
100
AcDbEntity
  8
Hidden (ANSI)
 48
0.0003761741390917
100
AcDbLine
 10
6.264311131182469
 20
10.20489474998769
 30
0.0
 11
6.264311131182469
 21
10.20539474998769
 31
0.0
  0
LINE
  5
1E3
330
6C
100
AcDbEntity
  8
Hidden (ANSI)
 48
0.0716019049286842
100
AcDbLine
 10
6.264084250951196
 20
10.20489474998769
 30
0.0
 11
6.244117864800559
 21
10.20489474998769
 31
0.0
  0
LINE
  5
1E4
330
6C
100
AcDbEntity
  8
Hidden (ANSI)
 48
0.0009864303283393
100
AcDbLine
 10
6.240109461520318
 20
10.20489474998769
 30
0.0
 11
6.239806929997597
 21
10.20489474998769
 31
0.0
  0
LINE
  5
1E5
330
6C
100
AcDbEntity
  8
Hidden (ANSI)
 48
0.0003761741390917
100
AcDbLine
 10
6.239806929997597
 20
10.20489474998769
 30
0.0
 11
6.239806929997597
 21
10.20539474998769
 31
0.0
  0
LINE
  5
1E6
330
6C
100
AcDbEntity
  8
Hidden (ANSI)
 48
0.0037173959426582
100
AcDbLine
 10
9.993511209686966
 20
10.20489474998769
 30
0.0
 11
9.989502806406726
 21
10.20489474998769
 31
0.0
  0
LINE
  5
1E7
330
6C
100
AcDbEntity
  8
Hidden (ANSI)
 48
0.0020247653592378
100
AcDbLine
 10
9.978687680575131
 20
10.20489474998769
 30
0.0
 11
9.976456600424278
 21
10.20489474998769
 31
0.0
  0
LINE
  5
1E8
330
6C
100
AcDbEntity
  8
Hidden (ANSI)
 48
0.0159555748105049
100
AcDbLine
 10
9.989502806406726
 20
10.20489474998769
 30
0.0
 11
9.978687680575131
 21
10.20489474998769
 31
0.0
  0
LINE
  5
1E9
330
6C
100
AcDbEntity
  8
Hidden (ANSI)
 48
0.0003761741390917
100
AcDbLine
 10
9.941628857795539
 20
10.20489474998769
 30
0.0
 11
9.941628857795539
 21
10.20539474998769
 31
0.0
  0
LINE
  5
1EA
330
6C
100
AcDbEntity
  8
Hidden (ANSI)
 48
0.0003761741390917
100
AcDbLine
 10
9.945637261075781
 20
10.20489474998769
 30
0.0
 11
9.945637261075781
 21
10.20539474998769
 31
0.0
  0
LINE
  5
1EB
330
6C
100
AcDbEntity
  8
Hidden (ANSI)
 48
0.0003761741390917
100
AcDbLine
 10
9.968326336246958
 20
10.20489474998769
 30
0.0
 11
9.968326336246958
 21
10.20539474998769
 31
0.0
  0
LINE
  5
1EC
330
6C
100
AcDbEntity
  8
Hidden (ANSI)
 48
0.0003761741390917
100
AcDbLine
 10
9.978687680575131
 20
10.20489474998769
 30
0.0
 11
9.978687680575131
 21
10.20539474998769
 31
0.0
  0
LINE
  5
1ED
330
6C
100
AcDbEntity
  8
Hidden (ANSI)
 48
0.0003761741390917
100
AcDbLine
 10
9.989502806406726
 20
10.20489474998769
 30
0.0
 11
9.989502806406726
 21
10.20539474998769
 31
0.0
  0
LINE
  5
1EE
330
6C
100
AcDbEntity
  8
Hidden (ANSI)
 48
0.0003761741390917
100
AcDbLine
 10
9.966813731235546
 20
10.20489474998769
 30
0.0
 11
9.966813731235546
 21
10.20539474998769
 31
0.0
  0
LINE
  5
1EF
330
6C
100
AcDbEntity
  8
Hidden (ANSI)
 48
0.0003761741390917
100
AcDbLine
 10
9.980351546087684
 20
10.20489474998769
 30
0.0
 11
9.980351546087684
 21
10.20539474998769
 31
0.0
  0
LINE
  5
1F0
330
6C
100
AcDbEntity
  8
Hidden (ANSI)
 48
0.0003761741390917
100
AcDbLine
 10
9.993511209686966
 20
10.20489474998769
 30
0.0
 11
9.993511209686966
 21
10.20539474998769
 31
0.0
  0
LINE
  5
1F1
330
6C
100
AcDbEntity
  8
Hidden (ANSI)
 48
0.0003761741390917
100
AcDbLine
 10
6.385092641343709
 20
10.20489474998769
 30
0.0
 11
6.385092641343709
 21
10.20539474998769
 31
0.0
  0
LINE
  5
1F2
330
6C
100
AcDbEntity
  8
Hidden (ANSI)
 48
0.0003761741390917
100
AcDbLine
 10
6.387966590865392
 20
10.20489474998769
 30
0.0
 11
6.387966590865392
 21
10.20539474998769
 31
0.0
  0
LINE
  5
1F3
330
6C
100
AcDbEntity
  8
Hidden (ANSI)
 48
0.0003761741390917
100
AcDbLine
 10
6.375790120523527
 20
10.20489474998769
 30
0.0
 11
6.375790120523527
 21
10.20539474998769
 31
0.0
  0
LINE
  5
1F4
330
6C
100
AcDbEntity
  8
Hidden (ANSI)
 48
0.0003761741390917
100
AcDbLine
 10
6.350605247083517
 20
10.20489474998769
 30
0.0
 11
6.350605247083517
 21
10.20539474998769
 31
0.0
  0
LINE
  5
1F5
330
6C
100
AcDbEntity
  8
Hidden (ANSI)
 48
0.0003761741390917
100
AcDbLine
 10
6.361042221662259
 20
10.20489474998769
 30
0.0
 11
6.361042221662259
 21
10.20539474998769
 31
0.0
  0
LINE
  5
1F6
330
6C
100
AcDbEntity
  8
Hidden (ANSI)
 48
0.0003761741390917
100
AcDbLine
 10
6.373748103758119
 20
10.20489474998769
 30
0.0
 11
6.373748103758119
 21
10.20539474998769
 31
0.0
  0
LINE
  5
1F7
330
6C
100
AcDbEntity
  8
Hidden (ANSI)
 48
0.0003761741390917
100
AcDbLine
 10
6.362554826673672
 20
10.20489474998769
 30
0.0
 11
6.362554826673672
 21
10.20539474998769
 31
0.0
  0
LINE
  5
1F8
330
6C
100
AcDbEntity
  8
Hidden (ANSI)
 48
0.0101997768506408
100
AcDbLine
 10
6.359832148173569
 20
10.20489474998769
 30
0.0
 11
6.349017011821535
 21
10.20489474998769
 31
0.0
  0
LINE
  5
1F9
330
6C
100
AcDbEntity
  8
Hidden (ANSI)
 48
0.0003761741390917
100
AcDbLine
 10
6.349017011821535
 20
10.20489474998769
 30
0.0
 11
6.349017011821535
 21
10.20539474998769
 31
0.0
  0
LINE
  5
1FA
330
6C
100
AcDbEntity
  8
Hidden (ANSI)
 48
0.0135983750224114
100
AcDbLine
 10
6.349017011821535
 20
10.20489474998769
 30
0.0
 11
6.339865762022933
 21
10.20489474998769
 31
0.0
  0
LINE
  5
1FB
330
6C
100
AcDbEntity
  8
Hidden (ANSI)
 48
0.0003761741390917
100
AcDbLine
 10
6.371706086992714
 20
10.20489474998769
 30
0.0
 11
6.371706086992714
 21
10.20539474998769
 31
0.0
  0
LINE
  5
1FC
330
6C
100
AcDbEntity
  8
Hidden (ANSI)
 48
0.0242449026554823
100
AcDbLine
 10
10.05212465387918
 20
10.20489474998769
 30
0.0
 11
10.02656162918631
 21
10.20489474998769
 31
0.0
  0
LINE
  5
1FD
330
6C
100
AcDbEntity
  8
Hidden (ANSI)
 48
0.0196541342884302
100
AcDbLine
 10
10.06528431747846
 20
10.20489474998769
 30
0.0
 11
10.05212465387918
 21
10.20489474998769
 31
0.0
  0
LINE
  5
1FE
330
6C
100
AcDbEntity
  8
Hidden (ANSI)
 48
0.0200041253119707
100
AcDbLine
 10
10.02656162918631
 20
10.20489474998769
 30
0.0
 11
10.01309944458475
 21
10.20489474998769
 31
0.0
  0
LINE
  5
1FF
330
6C
100
AcDbEntity
  8
Hidden (ANSI)
 48
0.0003761741390917
100
AcDbLine
 10
10.06127591419822
 20
10.20489474998769
 30
0.0
 11
10.06127591419822
 21
10.20539474998769
 31
0.0
  0
LINE
  5
200
330
6C
100
AcDbEntity
  8
Hidden (ANSI)
 48
0.0003761741390917
100
AcDbLine
 10
10.05046078836662
 20
10.20489474998769
 30
0.0
 11
10.05046078836662
 21
10.20539474998769
 31
0.0
  0
LINE
  5
201
330
6C
100
AcDbEntity
  8
Hidden (ANSI)
 48
0.0003761741390917
100
AcDbLine
 10
10.0281498644483
 20
10.20489474998769
 30
0.0
 11
10.0281498644483
 21
10.20539474998769
 31
0.0
  0
LINE
  5
202
330
6C
100
AcDbEntity
  8
Hidden (ANSI)
 48
0.0003761741390917
100
AcDbLine
 10
10.01597339410643
 20
10.20489474998769
 30
0.0
 11
10.01597339410643
 21
10.20539474998769
 31
0.0
  0
LINE
  5
203
330
6C
100
AcDbEntity
  8
Hidden (ANSI)
 48
0.0003761741390917
100
AcDbLine
 10
10.01309944458475
 20
10.20489474998769
 30
0.0
 11
10.01309944458475
 21
10.20539474998769
 31
0.0
  0
LINE
  5
204
330
6C
100
AcDbEntity
  8
Hidden (ANSI)
 48
0.0003761741390917
100
AcDbLine
 10
10.02656162918631
 20
10.20489474998769
 30
0.0
 11
10.02656162918631
 21
10.20539474998769
 31
0.0
  0
LINE
  5
205
330
6C
100
AcDbEntity
  8
Hidden (ANSI)
 48
0.0003761741390917
100
AcDbLine
 10
10.05212465387918
 20
10.20489474998769
 30
0.0
 11
10.05212465387918
 21
10.20539474998769
 31
0.0
  0
LINE
  5
206
330
6C
100
AcDbEntity
  8
Hidden (ANSI)
 48
0.0003761741390917
100
AcDbLine
 10
10.01741036886727
 20
10.20489474998769
 30
0.0
 11
10.01741036886727
 21
10.20539474998769
 31
0.0
  0
LINE
  5
207
330
6C
100
AcDbEntity
  8
Hidden (ANSI)
 48
0.0003761741390917
100
AcDbLine
 10
10.01340196558703
 20
10.20489474998769
 30
0.0
 11
10.01340196558703
 21
10.20539474998769
 31
0.0
  0
LINE
  5
208
330
6C
100
AcDbEntity
  8
Hidden (ANSI)
 48
0.0003761741390917
100
AcDbLine
 10
10.06528431747846
 20
10.20489474998769
 30
0.0
 11
10.06528431747846
 21
10.20539474998769
 31
0.0
  0
LINE
  5
209
330
6C
100
AcDbEntity
  8
Hidden (ANSI)
 48
0.0003761741390917
100
AcDbLine
 10
6.757420364902745
 20
10.20489474998769
 30
0.0
 11
6.757420364902745
 21
10.20539474998769
 31
0.0
  0
LINE
  5
20A
330
6C
100
AcDbEntity
  8
Hidden (ANSI)
 48
0.0003761741390917
100
AcDbLine
 10
6.771411961258306
 20
10.20489474998769
 30
0.0
 11
6.771411961258306
 21
10.20539474998769
 31
0.0
  0
LINE
  5
20B
330
6C
100
AcDbEntity
  8
Hidden (ANSI)
 48
0.0003761741390917
100
AcDbLine
 10
6.733521205722436
 20
10.20489474998769
 30
0.0
 11
6.733521205722436
 21
10.20539474998769
 31
0.0
  0
LINE
  5
20C
330
6C
100
AcDbEntity
  8
Hidden (ANSI)
 48
0.0003761741390917
100
AcDbLine
 10
6.723538012647118
 20
10.20489474998769
 30
0.0
 11
6.723538012647118
 21
10.20539474998769
 31
0.0
  0
LINE
  5
20D
330
6C
100
AcDbEntity
  8
Hidden (ANSI)
 48
0.0003761741390917
100
AcDbLine
 10
6.769748095745752
 20
10.20489474998769
 30
0.0
 11
6.769748095745752
 21
10.20539474998769
 31
0.0
  0
LINE
  5
20E
330
6C
100
AcDbEntity
  8
Hidden (ANSI)
 48
0.019563190639019
100
AcDbLine
 10
6.743428779067622
 20
10.20489474998769
 30
0.0
 11
6.722781720661852
 21
10.20489474998769
 31
0.0
  0
LINE
  5
20F
330
6C
100
AcDbEntity
  8
Hidden (ANSI)
 48
0.0003761741390917
100
AcDbLine
 10
6.719453979116306
 20
10.20489474998769
 30
0.0
 11
6.719453979116306
 21
10.20539474998769
 31
0.0
  0
LINE
  5
210
330
6C
100
AcDbEntity
  8
Hidden (ANSI)
 48
0.0003761741390917
100
AcDbLine
 10
6.755756499390192
 20
10.20489474998769
 30
0.0
 11
6.755756499390192
 21
10.20539474998769
 31
0.0
  0
LINE
  5
211
330
6C
100
AcDbEntity
  8
Hidden (ANSI)
 48
0.0003761741390917
100
AcDbLine
 10
6.76573969246551
 20
10.20489474998769
 30
0.0
 11
6.76573969246551
 21
10.20539474998769
 31
0.0
  0
LINE
  5
212
330
6C
100
AcDbEntity
  8
Hidden (ANSI)
 48
0.0003761741390917
100
AcDbLine
 10
6.731857340209884
 20
10.20489474998769
 30
0.0
 11
6.731857340209884
 21
10.20539474998769
 31
0.0
  0
LINE
  5
213
330
6C
100
AcDbEntity
  8
Hidden (ANSI)
 48
0.0003761741390917
100
AcDbLine
 10
6.717941374104895
 20
10.20489474998769
 30
0.0
 11
6.717941374104895
 21
10.20539474998769
 31
0.0
  0
LINE
  5
214
330
6C
100
AcDbEntity
  8
Hidden (ANSI)
 48
0.0037173959426582
100
AcDbLine
 10
9.485086862467124
 20
10.20489474998769
 30
0.0
 11
9.48107845918688
 21
10.20489474998769
 31
0.0
  0
LINE
  5
215
330
6C
100
AcDbEntity
  8
Hidden (ANSI)
 48
0.0037173959426582
100
AcDbLine
 10
9.437212913855935
 20
10.20489474998769
 30
0.0
 11
9.433204510575695
 21
10.20489474998769
 31
0.0
  0
LINE
  5
216
330
6C
100
AcDbEntity
  8
Hidden (ANSI)
 48
0.0416752770543099
100
AcDbLine
 10
9.48107845918688
 20
10.20489474998769
 30
0.0
 11
9.437212913855935
 21
10.20489474998769
 31
0.0
  0
LINE
  5
217
330
6C
100
AcDbEntity
  8
Hidden (ANSI)
 48
0.0003761741390917
100
AcDbLine
 10
9.433204510575695
 20
10.20489474998769
 30
0.0
 11
9.433204510575695
 21
10.20539474998769
 31
0.0
  0
LINE
  5
218
330
6C
100
AcDbEntity
  8
Hidden (ANSI)
 48
0.0003761741390917
100
AcDbLine
 10
9.437212913855935
 20
10.20489474998769
 30
0.0
 11
9.437212913855935
 21
10.20539474998769
 31
0.0
  0
LINE
  5
219
330
6C
100
AcDbEntity
  8
Hidden (ANSI)
 48
0.0003761741390917
100
AcDbLine
 10
9.48107845918688
 20
10.20489474998769
 30
0.0
 11
9.48107845918688
 21
10.20539474998769
 31
0.0
  0
LINE
  5
21A
330
6C
100
AcDbEntity
  8
Hidden (ANSI)
 48
0.0003761741390917
100
AcDbLine
 10
9.485086862467124
 20
10.20489474998769
 30
0.0
 11
9.485086862467124
 21
10.20539474998769
 31
0.0
  0
LINE
  5
21B
330
6C
100
AcDbEntity
  8
Hidden (ANSI)
 48
0.0003761741390917
100
AcDbLine
 10
6.790470784402096
 20
10.20489474998769
 30
0.0
 11
6.790470784402096
 21
10.20539474998769
 31
0.0
  0
LINE
  5
21C
330
6C
100
AcDbEntity
  8
Hidden (ANSI)
 48
0.0003761741390917
100
AcDbLine
 10
6.794479187682337
 20
10.20489474998769
 30
0.0
 11
6.794479187682337
 21
10.20539474998769
 31
0.0
  0
LINE
  5
21D
330
6C
100
AcDbEntity
  8
Hidden (ANSI)
 48
0.0485177785158157
100
AcDbLine
 10
9.556028037502342
 20
10.20489474998769
 30
0.0
 11
9.504977618367188
 21
10.20489474998769
 31
0.0
  0
LINE
  5
21E
330
6C
100
AcDbEntity
  8
Hidden (ANSI)
 48
0.0003761741390917
100
AcDbLine
 10
9.504977618367188
 20
10.20489474998769
 30
0.0
 11
9.504977618367188
 21
10.20539474998769
 31
0.0
  0
LINE
  5
21F
330
6C
100
AcDbEntity
  8
Hidden (ANSI)
 48
0.0003761741390917
100
AcDbLine
 10
9.532128878322033
 20
10.20489474998769
 30
0.0
 11
9.532128878322033
 21
10.20539474998769
 31
0.0
  0
LINE
  5
220
330
6C
100
AcDbEntity
  8
Hidden (ANSI)
 48
0.0003761741390917
100
AcDbLine
 10
9.508986021647432
 20
10.20489474998769
 30
0.0
 11
9.508986021647432
 21
10.20539474998769
 31
0.0
  0
LINE
  5
221
330
6C
100
AcDbEntity
  8
Hidden (ANSI)
 48
0.0003761741390917
100
AcDbLine
 10
9.556028037502342
 20
10.20489474998769
 30
0.0
 11
9.556028037502342
 21
10.20539474998769
 31
0.0
  0
LINE
  5
222
330
6C
100
AcDbEntity
  8
Hidden (ANSI)
 48
0.0219400599598885
100
AcDbLine
 10
9.627801145293835
 20
10.20489474998769
 30
0.0
 11
9.604658288619233
 21
10.20489474998769
 31
0.0
  0
LINE
  5
223
330
6C
100
AcDbEntity
  8
Hidden (ANSI)
 48
0.0219400599598885
100
AcDbLine
 10
9.600649885338992
 20
10.20489474998769
 30
0.0
 11
9.57750702866439
 21
10.20489474998769
 31
0.0
  0
LINE
  5
224
330
6C
100
AcDbEntity
  8
Hidden (ANSI)
 48
0.0037173959426582
100
AcDbLine
 10
9.604658288619233
 20
10.20489474998769
 30
0.0
 11
9.600649885338992
 21
10.20489474998769
 31
0.0
  0
LINE
  5
225
330
6C
100
AcDbEntity
  8
Hidden (ANSI)
 48
0.0003761741390917
100
AcDbLine
 10
9.57750702866439
 20
10.20489474998769
 30
0.0
 11
9.57750702866439
 21
10.20539474998769
 31
0.0
  0
LINE
  5
226
330
6C
100
AcDbEntity
  8
Hidden (ANSI)
 48
0.0003761741390917
100
AcDbLine
 10
9.600649885338992
 20
10.20489474998769
 30
0.0
 11
9.600649885338992
 21
10.20539474998769
 31
0.0
  0
LINE
  5
227
330
6C
100
AcDbEntity
  8
Hidden (ANSI)
 48
0.0003761741390917
100
AcDbLine
 10
9.604658288619233
 20
10.20489474998769
 30
0.0
 11
9.604658288619233
 21
10.20539474998769
 31
0.0
  0
LINE
  5
228
330
6C
100
AcDbEntity
  8
Hidden (ANSI)
 48
0.0003761741390917
100
AcDbLine
 10
9.627801145293835
 20
10.20489474998769
 30
0.0
 11
9.627801145293835
 21
10.20539474998769
 31
0.0
  0
LINE
  5
229
330
6C
100
AcDbEntity
  8
Hidden (ANSI)
 48
0.0208249837160111
100
AcDbLine
 10
5.790411991627563
 20
10.20489474998769
 30
0.0
 11
5.776420395272003
 21
10.20489474998769
 31
0.0
  0
LINE
  5
22A
330
6C
100
AcDbEntity
  8
Hidden (ANSI)
 48
0.0003761741390917
100
AcDbLine
 10
5.776420395272003
 20
10.20489474998769
 30
0.0
 11
5.776420395272003
 21
10.20539474998769
 31
0.0
  0
LINE
  5
22B
330
6C
100
AcDbEntity
  8
Hidden (ANSI)
 48
0.0003761741390917
100
AcDbLine
 10
5.790411991627563
 20
10.20489474998769
 30
0.0
 11
5.790411991627563
 21
10.20539474998769
 31
0.0
  0
LINE
  5
22C
330
6C
100
AcDbEntity
  8
Hidden (ANSI)
 48
0.0003761741390917
100
AcDbLine
 10
5.752521236091696
 20
10.20489474998769
 30
0.0
 11
5.752521236091696
 21
10.20539474998769
 31
0.0
  0
LINE
  5
22D
330
6C
100
AcDbEntity
  8
Hidden (ANSI)
 48
0.0003761741390917
100
AcDbLine
 10
5.742538043016377
 20
10.20489474998769
 30
0.0
 11
5.742538043016377
 21
10.20539474998769
 31
0.0
  0
LINE
  5
22E
330
6C
100
AcDbEntity
  8
Hidden (ANSI)
 48
0.0003761741390917
100
AcDbLine
 10
5.78874812611501
 20
10.20489474998769
 30
0.0
 11
5.78874812611501
 21
10.20539474998769
 31
0.0
  0
LINE
  5
22F
330
6C
100
AcDbEntity
  8
Hidden (ANSI)
 48
0.0360572226345539
100
AcDbLine
 10
5.776420395272003
 20
10.20489474998769
 30
0.0
 11
5.738454009485565
 21
10.20489474998769
 31
0.0
  0
LINE
  5
230
330
6C
100
AcDbEntity
  8
Hidden (ANSI)
 48
0.0003761741390917
100
AcDbLine
 10
5.738454009485565
 20
10.20489474998769
 30
0.0
 11
5.738454009485565
 21
10.20539474998769
 31
0.0
  0
LINE
  5
231
330
6C
100
AcDbEntity
  8
Hidden (ANSI)
 48
0.0003761741390917
100
AcDbLine
 10
5.77475652975945
 20
10.20489474998769
 30
0.0
 11
5.77475652975945
 21
10.20539474998769
 31
0.0
  0
LINE
  5
232
330
6C
100
AcDbEntity
  8
Hidden (ANSI)
 48
0.0003761741390917
100
AcDbLine
 10
5.784739722834769
 20
10.20489474998769
 30
0.0
 11
5.784739722834769
 21
10.20539474998769
 31
0.0
  0
LINE
  5
233
330
6C
100
AcDbEntity
  8
Hidden (ANSI)
 48
0.0003761741390917
100
AcDbLine
 10
5.750857370579142
 20
10.20489474998769
 30
0.0
 11
5.750857370579142
 21
10.20539474998769
 31
0.0
  0
LINE
  5
234
330
6C
100
AcDbEntity
  8
Hidden (ANSI)
 48
0.0021694775205106
100
AcDbLine
 10
5.738454009485565
 20
10.20489474998769
 30
0.0
 11
5.736941404474153
 21
10.20489474998769
 31
0.0
  0
LINE
  5
235
330
6C
100
AcDbEntity
  8
Hidden (ANSI)
 48
0.0003761741390917
100
AcDbLine
 10
5.736941404474153
 20
10.20489474998769
 30
0.0
 11
5.736941404474153
 21
10.20539474998769
 31
0.0
  0
LINE
  5
236
330
6C
100
AcDbEntity
  8
Hidden (ANSI)
 48
0.0037173959426582
100
AcDbLine
 10
9.700406185841606
 20
10.20489474998769
 30
0.0
 11
9.696397782561364
 21
10.20489474998769
 31
0.0
  0
LINE
  5
237
330
6C
100
AcDbEntity
  8
Hidden (ANSI)
 48
0.0037173959426582
100
AcDbLine
 10
9.652532237230419
 20
10.20489474998769
 30
0.0
 11
9.648523833950179
 21
10.20489474998769
 31
0.0
  0
LINE
  5
238
330
6C
100
AcDbEntity
  8
Hidden (ANSI)
 48
0.0416752770543099
100
AcDbLine
 10
9.696397782561364
 20
10.20489474998769
 30
0.0
 11
9.652532237230419
 21
10.20489474998769
 31
0.0
  0
LINE
  5
239
330
6C
100
AcDbEntity
  8
Hidden (ANSI)
 48
0.0003761741390917
100
AcDbLine
 10
9.674465009895893
 20
10.20489474998769
 30
0.0
 11
9.674465009895893
 21
10.20539474998769
 31
0.0
  0
LINE
  5
23A
330
6C
100
AcDbEntity
  8
Hidden (ANSI)
 48
0.0003761741390917
100
AcDbLine
 10
9.695112068301664
 20
10.20489474998769
 30
0.0
 11
9.695112068301664
 21
10.20539474998769
 31
0.0
  0
LINE
  5
23B
330
6C
100
AcDbEntity
  8
Hidden (ANSI)
 48
0.0003761741390917
100
AcDbLine
 10
9.653742321239549
 20
10.20489474998769
 30
0.0
 11
9.653742321239549
 21
10.20539474998769
 31
0.0
  0
LINE
  5
23C
330
6C
100
AcDbEntity
  8
Hidden (ANSI)
 48
0.0003761741390917
100
AcDbLine
 10
9.648523833950179
 20
10.20489474998769
 30
0.0
 11
9.648523833950179
 21
10.20539474998769
 31
0.0
  0
LINE
  5
23D
330
6C
100
AcDbEntity
  8
Hidden (ANSI)
 48
0.0003761741390917
100
AcDbLine
 10
9.652532237230419
 20
10.20489474998769
 30
0.0
 11
9.652532237230419
 21
10.20539474998769
 31
0.0
  0
LINE
  5
23E
330
6C
100
AcDbEntity
  8
Hidden (ANSI)
 48
0.0003761741390917
100
AcDbLine
 10
9.696397782561364
 20
10.20489474998769
 30
0.0
 11
9.696397782561364
 21
10.20539474998769
 31
0.0
  0
LINE
  5
23F
330
6C
100
AcDbEntity
  8
Hidden (ANSI)
 48
0.0003761741390917
100
AcDbLine
 10
9.67280114438334
 20
10.20489474998769
 30
0.0
 11
9.67280114438334
 21
10.20539474998769
 31
0.0
  0
LINE
  5
240
330
6C
100
AcDbEntity
  8
Hidden (ANSI)
 48
0.0003761741390917
100
AcDbLine
 10
9.676128875408444
 20
10.20489474998769
 30
0.0
 11
9.676128875408444
 21
10.20539474998769
 31
0.0
  0
LINE
  5
241
330
6C
100
AcDbEntity
  8
Hidden (ANSI)
 48
0.0003761741390917
100
AcDbLine
 10
9.700406185841606
 20
10.20489474998769
 30
0.0
 11
9.700406185841606
 21
10.20539474998769
 31
0.0
  0
LINE
  5
242
330
6C
100
AcDbEntity
  8
Hidden (ANSI)
 48
0.0210737846791744
100
AcDbLine
 10
5.861580057414493
 20
10.20489474998769
 30
0.0
 11
5.847361570307221
 21
10.20489474998769
 31
0.0
  0
LINE
  5
243
330
6C
100
AcDbEntity
  8
Hidden (ANSI)
 48
0.0003761741390917
100
AcDbLine
 10
5.847361570307221
 20
10.20489474998769
 30
0.0
 11
5.847361570307221
 21
10.20539474998769
 31
0.0
  0
LINE
  5
244
330
6C
100
AcDbEntity
  8
Hidden (ANSI)
 48
0.0003761741390917
100
AcDbLine
 10
5.861580057414493
 20
10.20489474998769
 30
0.0
 11
5.861580057414493
 21
10.20539474998769
 31
0.0
  0
LINE
  5
245
330
6C
100
AcDbEntity
  8
Hidden (ANSI)
 48
0.0003761741390917
100
AcDbLine
 10
5.85870610789281
 20
10.20489474998769
 30
0.0
 11
5.85870610789281
 21
10.20539474998769
 31
0.0
  0
LINE
  5
246
330
6C
100
AcDbEntity
  8
Hidden (ANSI)
 48
0.0003761741390917
100
AcDbLine
 10
5.837378377231902
 20
10.20489474998769
 30
0.0
 11
5.837378377231902
 21
10.20539474998769
 31
0.0
  0
LINE
  5
247
330
6C
100
AcDbEntity
  8
Hidden (ANSI)
 48
0.0003761741390917
100
AcDbLine
 10
5.860521233906505
 20
10.20489474998769
 30
0.0
 11
5.860521233906505
 21
10.20539474998769
 31
0.0
  0
LINE
  5
248
330
6C
100
AcDbEntity
  8
Hidden (ANSI)
 48
0.0207694992423058
100
AcDbLine
 10
5.847361570307221
 20
10.20489474998769
 30
0.0
 11
5.833369973951661
 21
10.20489474998769
 31
0.0
  0
LINE
  5
249
330
6C
100
AcDbEntity
  8
Hidden (ANSI)
 48
0.0003761741390917
100
AcDbLine
 10
5.833369973951661
 20
10.20489474998769
 30
0.0
 11
5.833369973951661
 21
10.20539474998769
 31
0.0
  0
LINE
  5
24A
330
6C
100
AcDbEntity
  8
Hidden (ANSI)
 48
0.0219400599598885
100
AcDbLine
 10
5.833369973951661
 20
10.20489474998769
 30
0.0
 11
5.810227117277059
 21
10.20489474998769
 31
0.0
  0
LINE
  5
24B
330
6C
100
AcDbEntity
  8
Hidden (ANSI)
 48
0.0003761741390917
100
AcDbLine
 10
5.810227117277059
 20
10.20489474998769
 30
0.0
 11
5.810227117277059
 21
10.20539474998769
 31
0.0
  0
LINE
  5
24C
330
6C
100
AcDbEntity
  8
Hidden (ANSI)
 48
0.0242449026554823
100
AcDbLine
 10
9.890691896277223
 20
10.20489474998769
 30
0.0
 11
9.865128871584362
 21
10.20489474998769
 31
0.0
  0
LINE
  5
24D
330
6C
100
AcDbEntity
  8
Hidden (ANSI)
 48
0.0208249837160111
100
AcDbLine
 10
9.904683492632782
 20
10.20489474998769
 30
0.0
 11
9.890691896277223
 21
10.20489474998769
 31
0.0
  0
LINE
  5
24E
330
6C
100
AcDbEntity
  8
Hidden (ANSI)
 48
0.0005795804900117
100
AcDbLine
 10
9.851666686982795
 20
10.20489474998769
 30
0.0
 11
9.851212905479371
 21
10.20489474998769
 31
0.0
  0
LINE
  5
24F
330
6C
100
AcDbEntity
  8
Hidden (ANSI)
 48
0.0199486967176199
100
AcDbLine
 10
9.865128871584362
 20
10.20489474998769
 30
0.0
 11
9.851666686982795
 21
10.20489474998769
 31
0.0
  0
LINE
  5
250
330
6C
100
AcDbEntity
  8
Hidden (ANSI)
 48
0.0003761741390917
100
AcDbLine
 10
9.851212905479371
 20
10.20489474998769
 30
0.0
 11
9.851212905479371
 21
10.20539474998769
 31
0.0
  0
LINE
  5
251
330
6C
100
AcDbEntity
  8
Hidden (ANSI)
 48
0.0003761741390917
100
AcDbLine
 10
9.899011223839988
 20
10.20489474998769
 30
0.0
 11
9.899011223839988
 21
10.20539474998769
 31
0.0
  0
LINE
  5
252
330
6C
100
AcDbEntity
  8
Hidden (ANSI)
 48
0.0003761741390917
100
AcDbLine
 10
9.889028030764668
 20
10.20489474998769
 30
0.0
 11
9.889028030764668
 21
10.20539474998769
 31
0.0
  0
LINE
  5
253
330
6C
100
AcDbEntity
  8
Hidden (ANSI)
 48
0.0003761741390917
100
AcDbLine
 10
9.866792737096915
 20
10.20489474998769
 30
0.0
 11
9.866792737096915
 21
10.20539474998769
 31
0.0
  0
LINE
  5
254
330
6C
100
AcDbEntity
  8
Hidden (ANSI)
 48
0.0003761741390917
100
AcDbLine
 10
9.854540636504477
 20
10.20489474998769
 30
0.0
 11
9.854540636504477
 21
10.20539474998769
 31
0.0
  0
LINE
  5
255
330
6C
100
AcDbEntity
  8
Hidden (ANSI)
 48
0.0003761741390917
100
AcDbLine
 10
9.851666686982795
 20
10.20489474998769
 30
0.0
 11
9.851666686982795
 21
10.20539474998769
 31
0.0
  0
LINE
  5
256
330
6C
100
AcDbEntity
  8
Hidden (ANSI)
 48
0.0003761741390917
100
AcDbLine
 10
9.865128871584362
 20
10.20489474998769
 30
0.0
 11
9.865128871584362
 21
10.20539474998769
 31
0.0
  0
LINE
  5
257
330
6C
100
AcDbEntity
  8
Hidden (ANSI)
 48
0.0003761741390917
100
AcDbLine
 10
9.890691896277223
 20
10.20489474998769
 30
0.0
 11
9.890691896277223
 21
10.20539474998769
 31
0.0
  0
LINE
  5
258
330
6C
100
AcDbEntity
  8
Hidden (ANSI)
 48
0.0003761741390917
100
AcDbLine
 10
9.904154080878788
 20
10.20489474998769
 30
0.0
 11
9.904154080878788
 21
10.20539474998769
 31
0.0
  0
LINE
  5
259
330
6C
100
AcDbEntity
  8
Hidden (ANSI)
 48
0.0003761741390917
100
AcDbLine
 10
9.901204501106535
 20
10.20489474998769
 30
0.0
 11
9.901204501106535
 21
10.20539474998769
 31
0.0
  0
LINE
  5
25A
330
6C
100
AcDbEntity
  8
Hidden (ANSI)
 48
0.0003761741390917
100
AcDbLine
 10
9.856809544021595
 20
10.20489474998769
 30
0.0
 11
9.856809544021595
 21
10.20539474998769
 31
0.0
  0
LINE
  5
25B
330
6C
100
AcDbEntity
  8
Hidden (ANSI)
 48
0.0003761741390917
100
AcDbLine
 10
9.904683492632782
 20
10.20489474998769
 30
0.0
 11
9.904683492632782
 21
10.20539474998769
 31
0.0
  0
LINE
  5
25C
330
6C
100
AcDbEntity
  8
Hidden (ANSI)
 48
0.0042532756924629
100
AcDbLine
 10
5.933353165205987
 20
10.20489474998769
 30
0.0
 11
5.930479215684305
 21
10.20489474998769
 31
0.0
  0
LINE
  5
25D
330
6C
100
AcDbEntity
  8
Hidden (ANSI)
 48
0.0003761741390917
100
AcDbLine
 10
5.930479215684305
 20
10.20489474998769
 30
0.0
 11
5.930479215684305
 21
10.20539474998769
 31
0.0
  0
LINE
  5
25E
330
6C
100
AcDbEntity
  8
Hidden (ANSI)
 48
0.0003761741390917
100
AcDbLine
 10
5.933353165205987
 20
10.20489474998769
 30
0.0
 11
5.933353165205987
 21
10.20539474998769
 31
0.0
  0
LINE
  5
25F
330
6C
100
AcDbEntity
  8
Hidden (ANSI)
 48
0.0003761741390917
100
AcDbLine
 10
5.919966610854991
 20
10.20489474998769
 30
0.0
 11
5.919966610854991
 21
10.20539474998769
 31
0.0
  0
LINE
  5
260
330
6C
100
AcDbEntity
  8
Hidden (ANSI)
 48
0.0003761741390917
100
AcDbLine
 10
5.906428796002855
 20
10.20489474998769
 30
0.0
 11
5.906428796002855
 21
10.20539474998769
 31
0.0
  0
LINE
  5
261
330
6C
100
AcDbEntity
  8
Hidden (ANSI)
 48
0.0182250067591667
100
AcDbLine
 10
5.930479215684305
 20
10.20489474998769
 30
0.0
 11
5.918302745342439
 21
10.20489474998769
 31
0.0
  0
LINE
  5
262
330
6C
100
AcDbEntity
  8
Hidden (ANSI)
 48
0.0003761741390917
100
AcDbLine
 10
5.918302745342439
 20
10.20489474998769
 30
0.0
 11
5.918302745342439
 21
10.20539474998769
 31
0.0
  0
LINE
  5
263
330
6C
100
AcDbEntity
  8
Hidden (ANSI)
 48
0.0097676087170839
100
AcDbLine
 10
5.918302745342439
 20
10.20489474998769
 30
0.0
 11
5.907941401014267
 21
10.20489474998769
 31
0.0
  0
LINE
  5
264
330
6C
100
AcDbEntity
  8
Hidden (ANSI)
 48
0.0003761741390917
100
AcDbLine
 10
5.907941401014267
 20
10.20489474998769
 30
0.0
 11
5.907941401014267
 21
10.20539474998769
 31
0.0
  0
LINE
  5
265
330
6C
100
AcDbEntity
  8
Hidden (ANSI)
 48
0.0338744521141052
100
AcDbLine
 10
5.907941401014267
 20
10.20489474998769
 30
0.0
 11
5.885252325843088
 21
10.20489474998769
 31
0.0
  0
LINE
  5
266
330
6C
100
AcDbEntity
  8
Hidden (ANSI)
 48
0.0003761741390917
100
AcDbLine
 10
5.885252325843088
 20
10.20489474998769
 30
0.0
 11
5.885252325843088
 21
10.20539474998769
 31
0.0
  0
LINE
  5
267
330
6C
100
AcDbEntity
  8
Hidden (ANSI)
 48
0.0037173959426582
100
AcDbLine
 10
5.885252325843088
 20
10.20489474998769
 30
0.0
 11
5.881243922562847
 21
10.20489474998769
 31
0.0
  0
LINE
  5
268
330
6C
100
AcDbEntity
  8
Hidden (ANSI)
 48
0.0003761741390917
100
AcDbLine
 10
5.881243922562847
 20
10.20489474998769
 30
0.0
 11
5.881243922562847
 21
10.20539474998769
 31
0.0
  0
LINE
  5
269
330
6C
100
AcDbEntity
  8
Hidden (ANSI)
 48
0.0242449026554823
100
AcDbLine
 10
9.962465004068716
 20
10.20489474998769
 30
0.0
 11
9.936901979375855
 21
10.20489474998769
 31
0.0
  0
LINE
  5
26A
330
6C
100
AcDbEntity
  8
Hidden (ANSI)
 48
0.0208249837160111
100
AcDbLine
 10
9.976456600424278
 20
10.20489474998769
 30
0.0
 11
9.962465004068716
 21
10.20489474998769
 31
0.0
  0
LINE
  5
26B
330
6C
100
AcDbEntity
  8
Hidden (ANSI)
 48
0.0005795804900117
100
AcDbLine
 10
9.92343979477429
 20
10.20489474998769
 30
0.0
 11
9.922986013270866
 21
10.20489474998769
 31
0.0
  0
LINE
  5
26C
330
6C
100
AcDbEntity
  8
Hidden (ANSI)
 48
0.0199486967176199
100
AcDbLine
 10
9.936901979375855
 20
10.20489474998769
 30
0.0
 11
9.92343979477429
 21
10.20489474998769
 31
0.0
  0
LINE
  5
26D
330
6C
100
AcDbEntity
  8
Hidden (ANSI)
 48
0.0003761741390917
100
AcDbLine
 10
9.922986013270866
 20
10.20489474998769
 30
0.0
 11
9.922986013270866
 21
10.20539474998769
 31
0.0
  0
LINE
  5
26E
330
6C
100
AcDbEntity
  8
Hidden (ANSI)
 48
0.0003761741390917
100
AcDbLine
 10
9.970784331631483
 20
10.20489474998769
 30
0.0
 11
9.970784331631483
 21
10.20539474998769
 31
0.0
  0
LINE
  5
26F
330
6C
100
AcDbEntity
  8
Hidden (ANSI)
 48
0.0003761741390917
100
AcDbLine
 10
9.960801138556163
 20
10.20489474998769
 30
0.0
 11
9.960801138556163
 21
10.20539474998769
 31
0.0
  0
LINE
  5
270
330
6C
100
AcDbEntity
  8
Hidden (ANSI)
 48
0.0003761741390917
100
AcDbLine
 10
9.93856584488841
 20
10.20489474998769
 30
0.0
 11
9.93856584488841
 21
10.20539474998769
 31
0.0
  0
LINE
  5
271
330
6C
100
AcDbEntity
  8
Hidden (ANSI)
 48
0.0003761741390917
100
AcDbLine
 10
9.926313744295972
 20
10.20489474998769
 30
0.0
 11
9.926313744295972
 21
10.20539474998769
 31
0.0
  0
LINE
  5
272
330
6C
100
AcDbEntity
  8
Hidden (ANSI)
 48
0.0003761741390917
100
AcDbLine
 10
9.92343979477429
 20
10.20489474998769
 30
0.0
 11
9.92343979477429
 21
10.20539474998769
 31
0.0
  0
LINE
  5
273
330
6C
100
AcDbEntity
  8
Hidden (ANSI)
 48
0.0003761741390917
100
AcDbLine
 10
9.936901979375855
 20
10.20489474998769
 30
0.0
 11
9.936901979375855
 21
10.20539474998769
 31
0.0
  0
LINE
  5
274
330
6C
100
AcDbEntity
  8
Hidden (ANSI)
 48
0.0003761741390917
100
AcDbLine
 10
9.962465004068716
 20
10.20489474998769
 30
0.0
 11
9.962465004068716
 21
10.20539474998769
 31
0.0
  0
LINE
  5
275
330
6C
100
AcDbEntity
  8
Hidden (ANSI)
 48
0.0003761741390917
100
AcDbLine
 10
9.975927188670283
 20
10.20489474998769
 30
0.0
 11
9.975927188670283
 21
10.20539474998769
 31
0.0
  0
LINE
  5
276
330
6C
100
AcDbEntity
  8
Hidden (ANSI)
 48
0.0003761741390917
100
AcDbLine
 10
9.972977608898029
 20
10.20489474998769
 30
0.0
 11
9.972977608898029
 21
10.20539474998769
 31
0.0
  0
LINE
  5
277
330
6C
100
AcDbEntity
  8
Hidden (ANSI)
 48
0.0003761741390917
100
AcDbLine
 10
9.928582651813091
 20
10.20489474998769
 30
0.0
 11
9.928582651813091
 21
10.20539474998769
 31
0.0
  0
LINE
  5
278
330
6C
100
AcDbEntity
  8
Hidden (ANSI)
 48
0.0003761741390917
100
AcDbLine
 10
9.976456600424278
 20
10.20489474998769
 30
0.0
 11
9.976456600424278
 21
10.20539474998769
 31
0.0
  0
LINE
  5
279
330
6C
100
AcDbEntity
  8
Hidden (ANSI)
 48
0.0195985119789839
100
AcDbLine
 10
6.00489938224577
 20
10.20489474998769
 30
0.0
 11
5.991739718646486
 21
10.20489474998769
 31
0.0
  0
LINE
  5
27A
330
6C
100
AcDbEntity
  8
Hidden (ANSI)
 48
0.0003761741390917
100
AcDbLine
 10
5.991739718646486
 20
10.20489474998769
 30
0.0
 11
5.991739718646486
 21
10.20539474998769
 31
0.0
  0
LINE
  5
27B
330
6C
100
AcDbEntity
  8
Hidden (ANSI)
 48
0.0003761741390917
100
AcDbLine
 10
6.00489938224577
 20
10.20489474998769
 30
0.0
 11
6.00489938224577
 21
10.20539474998769
 31
0.0
  0
LINE
  5
27C
330
6C
100
AcDbEntity
  8
Hidden (ANSI)
 48
0.0003761741390917
100
AcDbLine
 10
5.957025433634583
 20
10.20489474998769
 30
0.0
 11
5.957025433634583
 21
10.20539474998769
 31
0.0
  0
LINE
  5
27D
330
6C
100
AcDbEntity
  8
Hidden (ANSI)
 48
0.0003761741390917
100
AcDbLine
 10
5.967764929215607
 20
10.20489474998769
 30
0.0
 11
5.967764929215607
 21
10.20539474998769
 31
0.0
  0
LINE
  5
27E
330
6C
100
AcDbEntity
  8
Hidden (ANSI)
 48
0.0003761741390917
100
AcDbLine
 10
5.990075853133933
 20
10.20489474998769
 30
0.0
 11
5.990075853133933
 21
10.20539474998769
 31
0.0
  0
LINE
  5
27F
330
6C
100
AcDbEntity
  8
Hidden (ANSI)
 48
0.0242449026554823
100
AcDbLine
 10
5.991739718646486
 20
10.20489474998769
 30
0.0
 11
5.966176693953625
 21
10.20489474998769
 31
0.0
  0
LINE
  5
280
330
6C
100
AcDbEntity
  8
Hidden (ANSI)
 48
0.0003761741390917
100
AcDbLine
 10
5.966176693953625
 20
10.20489474998769
 30
0.0
 11
5.966176693953625
 21
10.20539474998769
 31
0.0
  0
LINE
  5
281
330
6C
100
AcDbEntity
  8
Hidden (ANSI)
 48
0.0195985119789839
100
AcDbLine
 10
5.966176693953625
 20
10.20489474998769
 30
0.0
 11
5.953017030354341
 21
10.20489474998769
 31
0.0
  0
LINE
  5
282
330
6C
100
AcDbEntity
  8
Hidden (ANSI)
 48
0.0003761741390917
100
AcDbLine
 10
5.953017030354341
 20
10.20489474998769
 30
0.0
 11
5.953017030354341
 21
10.20539474998769
 31
0.0
  0
LINE
  5
283
330
6C
100
AcDbEntity
  8
Hidden (ANSI)
 48
0.0003761741390917
100
AcDbLine
 10
6.000890978965528
 20
10.20489474998769
 30
0.0
 11
6.000890978965528
 21
10.20539474998769
 31
0.0
  0
SPLINE
  5
284
330
6C
100
AcDbEntity
  8
Hidden (ANSI)
 48
0.0153702041134238
100
AcDbSpline
210
0.0
220
0.0
230
1.0
 70
    24
 71
     3
 72
    12
 73
     8
 74
     0
 42
0.0000000001
 43
0.0000000001
 40
-0.138079766383487
 40
-0.138079766383487
 40
-0.138079766383487
 40
-0.138079766383487
 40
-0.1176677802798041
 40
-0.1176677802798041
 40
-0.0984233607641504
 40
-0.0984233607641504
 40
-0.0916298110406394
 40
-0.0916298110406394
 40
-0.0916298110406394
 40
-0.0916298110406394
 10
10.32101448448175
 20
10.20489474998769
 30
0.0
 10
10.31863223853359
 20
10.20489474998769
 30
0.0
 10
10.31625494206144
 20
10.20489474998769
 30
0.0
 10
10.31170814813164
 20
10.20489474998769
 30
0.0
 10
10.30956296326188
 20
10.20489474998769
 30
0.0
 10
10.30676431727681
 20
10.20489474998769
 30
0.0
 10
10.30604417998466
 20
10.20489474998769
 30
0.0
 10
10.30533440535613
 20
10.20489474998769
 30
0.0
  0
SPLINE
  5
285
330
6C
100
AcDbEntity
  8
Hidden (ANSI)
 48
0.0487815700471401
100
AcDbSpline
210
0.0
220
0.0
230
1.0
 70
    24
 71
     3
 72
    14
 73
    10
 74
     0
 42
0.0000000001
 43
0.0000000001
 40
-0.1347473384681876
 40
-0.1347473384681876
 40
-0.1347473384681876
 40
-0.1347473384681876
 40
-0.0972593118820465
 40
-0.0972593118820465
 40
-0.0647121988034772
 40
-0.0647121988034772
 40
-0.0345264351490046
 40
-0.0345264351490046
 40
0.0
 40
0.0
 40
0.0
 40
0.0
 10
10.35337452243704
 20
10.20489474998769
 30
0.0
 10
10.35337452243704
 20
10.20489474998769
 30
0.0
 10
10.35261821815272
 20
10.20489474998769
 30
0.0
 10
10.34923239144895
 20
10.20489474998769
 30
0.0
 10
10.34695749540614
 20
10.20489474998769
 30
0.0
 10
10.34107558048921
 20
10.20489474998769
 30
0.0
 10
10.33784805038112
 20
10.20489474998769
 30
0.0
 10
10.32999453486371
 20
10.20489474998769
 30
0.0
 10
10.32554551271653
 20
10.20489474998769
 30
0.0
 10
10.32101448448175
 20
10.20489474998769
 30
0.0
  0
LINE
  5
286
330
6C
100
AcDbEntity
  8
Hidden (ANSI)
 48
0.0003761741390917
100
AcDbLine
 10
10.29360618387801
 20
10.20489474998769
 30
0.0
 11
10.29360618387801
 21
10.20539474998769
 31
0.0
  0
LINE
  5
287
330
6C
100
AcDbEntity
  8
Hidden (ANSI)
 48
0.0003761741390917
100
AcDbLine
 10
10.34829247620782
 20
10.20489474998769
 30
0.0
 11
10.34829247620782
 21
10.20539474998769
 31
0.0
  0
LINE
  5
288
330
6C
100
AcDbEntity
  8
Hidden (ANSI)
 48
0.0003761741390917
100
AcDbLine
 10
10.35337452243704
 20
10.20489474998769
 30
0.0
 11
10.35337452243704
 21
10.20539474998769
 31
0.0
  0
LINE
  5
289
330
6C
100
AcDbEntity
  8
Hidden (ANSI)
 48
0.0003761741390917
100
AcDbLine
 10
10.28852413764879
 20
10.20489474998769
 30
0.0
 11
10.28852413764879
 21
10.20539474998769
 31
0.0
  0
LINE
  5
28A
330
6C
100
AcDbEntity
  8
Hidden (ANSI)
 48
0.0210737846791744
100
AcDbLine
 10
6.220445596371964
 20
10.20489474998769
 30
0.0
 11
6.206227109264691
 21
10.20489474998769
 31
0.0
  0
LINE
  5
28B
330
6C
100
AcDbEntity
  8
Hidden (ANSI)
 48
0.0003761741390917
100
AcDbLine
 10
6.206227109264691
 20
10.20489474998769
 30
0.0
 11
6.206227109264691
 21
10.20539474998769
 31
0.0
  0
LINE
  5
28C
330
6C
100
AcDbEntity
  8
Hidden (ANSI)
 48
0.0003761741390917
100
AcDbLine
 10
6.220445596371964
 20
10.20489474998769
 30
0.0
 11
6.220445596371964
 21
10.20539474998769
 31
0.0
  0
LINE
  5
28D
330
6C
100
AcDbEntity
  8
Hidden (ANSI)
 48
0.0003761741390917
100
AcDbLine
 10
6.217571646850281
 20
10.20489474998769
 30
0.0
 11
6.217571646850281
 21
10.20539474998769
 31
0.0
  0
LINE
  5
28E
330
6C
100
AcDbEntity
  8
Hidden (ANSI)
 48
0.0003761741390917
100
AcDbLine
 10
6.196243916189374
 20
10.20489474998769
 30
0.0
 11
6.196243916189374
 21
10.20539474998769
 31
0.0
  0
LINE
  5
28F
330
6C
100
AcDbEntity
  8
Hidden (ANSI)
 48
0.0003761741390917
100
AcDbLine
 10
6.219386772863975
 20
10.20489474998769
 30
0.0
 11
6.219386772863975
 21
10.20539474998769
 31
0.0
  0
LINE
  5
290
330
6C
100
AcDbEntity
  8
Hidden (ANSI)
 48
0.0207694992423058
100
AcDbLine
 10
6.206227109264691
 20
10.20489474998769
 30
0.0
 11
6.192235512909132
 21
10.20489474998769
 31
0.0
  0
LINE
  5
291
330
6C
100
AcDbEntity
  8
Hidden (ANSI)
 48
0.0003761741390917
100
AcDbLine
 10
6.192235512909132
 20
10.20489474998769
 30
0.0
 11
6.192235512909132
 21
10.20539474998769
 31
0.0
  0
LINE
  5
292
330
6C
100
AcDbEntity
  8
Hidden (ANSI)
 48
0.0219400599598885
100
AcDbLine
 10
6.192235512909132
 20
10.20489474998769
 30
0.0
 11
6.169092656234529
 21
10.20489474998769
 31
0.0
  0
LINE
  5
293
330
6C
100
AcDbEntity
  8
Hidden (ANSI)
 48
0.0003761741390917
100
AcDbLine
 10
6.169092656234529
 20
10.20489474998769
 30
0.0
 11
6.169092656234529
 21
10.20539474998769
 31
0.0
  0
LINE
  5
294
330
6C
100
AcDbEntity
  8
Hidden (ANSI)
 48
0.001032114145346
100
AcDbLine
 10
5.810227117277059
 20
10.20489474998769
 30
0.0
 11
5.809470804250914
 21
10.20489474998769
 31
0.0
  0
LINE
  5
295
330
6C
100
AcDbEntity
  8
Hidden (ANSI)
 48
0.0003761741390917
100
AcDbLine
 10
5.824218703112181
 20
10.20489474998769
 30
0.0
 11
5.824218703112181
 21
10.20539474998769
 31
0.0
  0
LINE
  5
296
330
6C
100
AcDbEntity
  8
Hidden (ANSI)
 48
0.0003761741390917
100
AcDbLine
 10
5.813479207531156
 20
10.20489474998769
 30
0.0
 11
5.813479207531156
 21
10.20539474998769
 31
0.0
  0
LINE
  5
297
330
6C
100
AcDbEntity
  8
Hidden (ANSI)
 48
0.0003761741390917
100
AcDbLine
 10
5.809470804250914
 20
10.20489474998769
 30
0.0
 11
5.809470804250914
 21
10.20539474998769
 31
0.0
  0
LINE
  5
298
330
6C
100
AcDbEntity
  8
Hidden (ANSI)
 48
0.0003761741390917
100
AcDbLine
 10
5.822630467850197
 20
10.20489474998769
 30
0.0
 11
5.822630467850197
 21
10.20539474998769
 31
0.0
  0
LINE
  5
299
330
6C
100
AcDbEntity
  8
Hidden (ANSI)
 48
0.0003761741390917
100
AcDbLine
 10
5.848193492543058
 20
10.20489474998769
 30
0.0
 11
5.848193492543058
 21
10.20539474998769
 31
0.0
  0
LINE
  5
29A
330
6C
100
AcDbEntity
  8
Hidden (ANSI)
 48
0.0003761741390917
100
AcDbLine
 10
5.846529627030506
 20
10.20489474998769
 30
0.0
 11
5.846529627030506
 21
10.20539474998769
 31
0.0
  0
LINE
  5
29B
330
6C
100
AcDbEntity
  8
Hidden (ANSI)
 48
0.0003761741390917
100
AcDbLine
 10
5.857344752862101
 20
10.20489474998769
 30
0.0
 11
5.857344752862101
 21
10.20539474998769
 31
0.0
  0
LINE
  5
29C
330
6C
100
AcDbEntity
  8
Hidden (ANSI)
 48
0.0003761741390917
100
AcDbLine
 10
5.861353156142342
 20
10.20489474998769
 30
0.0
 11
5.861353156142342
 21
10.20539474998769
 31
0.0
  0
LINE
  5
29D
330
6C
100
AcDbEntity
  8
Hidden (ANSI)
 48
0.0037173959426582
100
AcDbLine
 10
6.244117864800559
 20
10.20489474998769
 30
0.0
 11
6.240109461520318
 21
10.20489474998769
 31
0.0
  0
LINE
  5
29E
330
6C
100
AcDbEntity
  8
Hidden (ANSI)
 48
0.0003761741390917
100
AcDbLine
 10
6.240109461520318
 20
10.20489474998769
 30
0.0
 11
6.240109461520318
 21
10.20539474998769
 31
0.0
  0
LINE
  5
29F
330
6C
100
AcDbEntity
  8
Hidden (ANSI)
 48
0.0003761741390917
100
AcDbLine
 10
6.244117864800559
 20
10.20489474998769
 30
0.0
 11
6.244117864800559
 21
10.20539474998769
 31
0.0
  0
LINE
  5
2A0
330
6C
100
AcDbEntity
  8
Hidden (ANSI)
 48
0.0008048484451137
100
AcDbLine
 10
5.933958196690113
 20
10.20489474998769
 30
0.0
 11
5.933353165205987
 21
10.20489474998769
 31
0.0
  0
LINE
  5
2A1
330
6C
100
AcDbEntity
  8
Hidden (ANSI)
 48
0.0010347545612603
100
AcDbLine
 10
5.881243922562847
 20
10.20489474998769
 30
0.0
 11
5.880487609536703
 21
10.20489474998769
 31
0.0
  0
LINE
  5
2A2
330
6C
100
AcDbEntity
  8
Hidden (ANSI)
 48
0.0003761741390917
100
AcDbLine
 10
5.880487609536703
 20
10.20489474998769
 30
0.0
 11
5.880487609536703
 21
10.20539474998769
 31
0.0
  0
LINE
  5
2A3
330
6C
100
AcDbEntity
  8
Hidden (ANSI)
 48
0.0003761741390917
100
AcDbLine
 10
5.894403575641692
 20
10.20489474998769
 30
0.0
 11
5.894403575641692
 21
10.20539474998769
 31
0.0
  0
LINE
  5
2A4
330
6C
100
AcDbEntity
  8
Hidden (ANSI)
 48
0.0003761741390917
100
AcDbLine
 10
5.928285927897318
 20
10.20489474998769
 30
0.0
 11
5.928285927897318
 21
10.20539474998769
 31
0.0
  0
LINE
  5
2A5
330
6C
100
AcDbEntity
  8
Hidden (ANSI)
 48
0.0003761741390917
100
AcDbLine
 10
5.882000214548114
 20
10.20489474998769
 30
0.0
 11
5.882000214548114
 21
10.20539474998769
 31
0.0
  0
LINE
  5
2A6
330
6C
100
AcDbEntity
  8
Hidden (ANSI)
 48
0.0003761741390917
100
AcDbLine
 10
5.93229433117756
 20
10.20489474998769
 30
0.0
 11
5.93229433117756
 21
10.20539474998769
 31
0.0
  0
LINE
  5
2A7
330
6C
100
AcDbEntity
  8
Hidden (ANSI)
 48
0.0003761741390917
100
AcDbLine
 10
5.886084248078927
 20
10.20489474998769
 30
0.0
 11
5.886084248078927
 21
10.20539474998769
 31
0.0
  0
LINE
  5
2A8
330
6C
100
AcDbEntity
  8
Hidden (ANSI)
 48
0.0003761741390917
100
AcDbLine
 10
5.896067441154245
 20
10.20489474998769
 30
0.0
 11
5.896067441154245
 21
10.20539474998769
 31
0.0
  0
LINE
  5
2A9
330
6C
100
AcDbEntity
  8
Hidden (ANSI)
 48
0.0003761741390917
100
AcDbLine
 10
5.933958196690113
 20
10.20489474998769
 30
0.0
 11
5.933958196690113
 21
10.20539474998769
 31
0.0
  0
LINE
  5
2AA
330
6C
100
AcDbEntity
  8
Hidden (ANSI)
 48
0.0010347228962928
100
AcDbLine
 10
6.005655674231037
 20
10.20489474998769
 30
0.0
 11
6.00489938224577
 21
10.20489474998769
 31
0.0
  0
LINE
  5
2AB
330
6C
100
AcDbEntity
  8
Hidden (ANSI)
 48
0.0003761741390917
100
AcDbLine
 10
6.000059035688813
 20
10.20489474998769
 30
0.0
 11
6.000059035688813
 21
10.20539474998769
 31
0.0
  0
LINE
  5
2AC
330
6C
100
AcDbEntity
  8
Hidden (ANSI)
 48
0.0003761741390917
100
AcDbLine
 10
5.9921178593789
 20
10.20489474998769
 30
0.0
 11
5.9921178593789
 21
10.20539474998769
 31
0.0
  0
LINE
  5
2AD
330
6C
100
AcDbEntity
  8
Hidden (ANSI)
 48
0.0003761741390917
100
AcDbLine
 10
6.005655674231037
 20
10.20489474998769
 30
0.0
 11
6.005655674231037
 21
10.20539474998769
 31
0.0
  0
LINE
  5
2AE
330
6C
100
AcDbEntity
  8
Hidden (ANSI)
 48
0.020211823284626
100
AcDbLine
 10
6.31672290534833
 20
10.20489474998769
 30
0.0
 11
6.303185090496193
 21
10.20489474998769
 31
0.0
  0
LINE
  5
2AF
330
6C
100
AcDbEntity
  8
Hidden (ANSI)
 48
0.0003761741390917
100
AcDbLine
 10
6.30280693924334
 20
10.20489474998769
 30
0.0
 11
6.30280693924334
 21
10.20539474998769
 31
0.0
  0
LINE
  5
2B0
330
6C
100
AcDbEntity
  8
Hidden (ANSI)
 48
0.0003761741390917
100
AcDbLine
 10
6.31672290534833
 20
10.20489474998769
 30
0.0
 11
6.31672290534833
 21
10.20539474998769
 31
0.0
  0
LINE
  5
2B1
330
6C
100
AcDbEntity
  8
Hidden (ANSI)
 48
0.0003761741390917
100
AcDbLine
 10
6.264084250951196
 20
10.20489474998769
 30
0.0
 11
6.264084250951196
 21
10.20539474998769
 31
0.0
  0
LINE
  5
2B2
330
6C
100
AcDbEntity
  8
Hidden (ANSI)
 48
0.0195985119789839
100
AcDbLine
 10
6.27724391455048
 20
10.20489474998769
 30
0.0
 11
6.264084250951196
 21
10.20489474998769
 31
0.0
  0
LINE
  5
2B3
330
6C
100
AcDbEntity
  8
Hidden (ANSI)
 48
0.0003761741390917
100
AcDbLine
 10
6.27724391455048
 20
10.20489474998769
 30
0.0
 11
6.27724391455048
 21
10.20539474998769
 31
0.0
  0
LINE
  5
2B4
330
6C
100
AcDbEntity
  8
Hidden (ANSI)
 48
0.0003761741390917
100
AcDbLine
 10
6.301143073730788
 20
10.20489474998769
 30
0.0
 11
6.301143073730788
 21
10.20539474998769
 31
0.0
  0
LINE
  5
2B5
330
6C
100
AcDbEntity
  8
Hidden (ANSI)
 48
0.0003761741390917
100
AcDbLine
 10
6.268092654231438
 20
10.20489474998769
 30
0.0
 11
6.268092654231438
 21
10.20539474998769
 31
0.0
  0
LINE
  5
2B6
330
6C
100
AcDbEntity
  8
Hidden (ANSI)
 48
0.0003761741390917
100
AcDbLine
 10
6.278832149812462
 20
10.20489474998769
 30
0.0
 11
6.278832149812462
 21
10.20539474998769
 31
0.0
  0
LINE
  5
2B7
330
6C
100
AcDbEntity
  8
Hidden (ANSI)
 48
0.0003761741390917
100
AcDbLine
 10
6.303185090496193
 20
10.20489474998769
 30
0.0
 11
6.303185090496193
 21
10.20539474998769
 31
0.0
  0
LINE
  5
2B8
330
6C
100
AcDbEntity
  8
Hidden (ANSI)
 48
0.0246050339192152
100
AcDbLine
 10
6.303185090496193
 20
10.20489474998769
 30
0.0
 11
6.27724391455048
 21
10.20489474998769
 31
0.0
  0
LINE
  5
2B9
330
6C
100
AcDbEntity
  8
Hidden (ANSI)
 48
0.0003761741390917
100
AcDbLine
 10
6.311126266806105
 20
10.20489474998769
 30
0.0
 11
6.311126266806105
 21
10.20539474998769
 31
0.0
  0
LINE
  5
2BA
330
6C
100
AcDbEntity
  8
Hidden (ANSI)
 48
0.0006202533841133
100
AcDbLine
 10
6.411638859293988
 20
10.20489474998769
 30
0.0
 11
6.41088256730872
 21
10.20489474998769
 31
0.0
  0
LINE
  5
2BB
330
6C
100
AcDbEntity
  8
Hidden (ANSI)
 48
0.0297975335270167
100
AcDbLine
 10
6.431605255965063
 20
10.20489474998769
 30
0.0
 11
6.411638859293988
 21
10.20489474998769
 31
0.0
  0
LINE
  5
2BC
330
6C
100
AcDbEntity
  8
Hidden (ANSI)
 48
0.0003761741390917
100
AcDbLine
 10
6.407630456013746
 20
10.20489474998769
 30
0.0
 11
6.407630456013746
 21
10.20539474998769
 31
0.0
  0
LINE
  5
2BD
330
6C
100
AcDbEntity
  8
Hidden (ANSI)
 48
0.0003761741390917
100
AcDbLine
 10
6.411638859293988
 20
10.20489474998769
 30
0.0
 11
6.411638859293988
 21
10.20539474998769
 31
0.0
  0
LINE
  5
2BE
330
6C
100
AcDbEntity
  8
Hidden (ANSI)
 48
0.0003761741390917
100
AcDbLine
 10
6.434327934465167
 20
10.20489474998769
 30
0.0
 11
6.434327934465167
 21
10.20539474998769
 31
0.0
  0
LINE
  5
2BF
330
6C
100
AcDbEntity
  8
Hidden (ANSI)
 48
0.0003761741390917
100
AcDbLine
 10
6.444689278793338
 20
10.20489474998769
 30
0.0
 11
6.444689278793338
 21
10.20539474998769
 31
0.0
  0
LINE
  5
2C0
330
6C
100
AcDbEntity
  8
Hidden (ANSI)
 48
0.0003761741390917
100
AcDbLine
 10
6.456865749135203
 20
10.20489474998769
 30
0.0
 11
6.456865749135203
 21
10.20539474998769
 31
0.0
  0
LINE
  5
2C1
330
6C
100
AcDbEntity
  8
Hidden (ANSI)
 48
0.0003761741390917
100
AcDbLine
 10
6.432815329453753
 20
10.20489474998769
 30
0.0
 11
6.432815329453753
 21
10.20539474998769
 31
0.0
  0
LINE
  5
2C2
330
6C
100
AcDbEntity
  8
Hidden (ANSI)
 48
0.0003761741390917
100
AcDbLine
 10
6.459739698656886
 20
10.20489474998769
 30
0.0
 11
6.459739698656886
 21
10.20539474998769
 31
0.0
  0
LINE
  5
2C3
330
6C
100
AcDbEntity
  8
Hidden (ANSI)
 48
0.0037173959426582
100
AcDbLine
 10
6.555260715647985
 20
10.20489474998769
 30
0.0
 11
6.551252312367743
 21
10.20489474998769
 31
0.0
  0
LINE
  5
2C4
330
6C
100
AcDbEntity
  8
Hidden (ANSI)
 48
0.0003761741390917
100
AcDbLine
 10
6.551252312367743
 20
10.20489474998769
 30
0.0
 11
6.551252312367743
 21
10.20539474998769
 31
0.0
  0
LINE
  5
2C5
330
6C
100
AcDbEntity
  8
Hidden (ANSI)
 48
0.0003761741390917
100
AcDbLine
 10
6.555260715647985
 20
10.20489474998769
 30
0.0
 11
6.555260715647985
 21
10.20539474998769
 31
0.0
  0
LINE
  5
2C6
330
6C
100
AcDbEntity
  8
Hidden (ANSI)
 48
0.0003761741390917
100
AcDbLine
 10
6.529319539702272
 20
10.20489474998769
 30
0.0
 11
6.529319539702272
 21
10.20539474998769
 31
0.0
  0
LINE
  5
2C7
330
6C
100
AcDbEntity
  8
Hidden (ANSI)
 48
0.0003761741390917
100
AcDbLine
 10
6.503378363756557
 20
10.20489474998769
 30
0.0
 11
6.503378363756557
 21
10.20539474998769
 31
0.0
  0
LINE
  5
2C8
330
6C
100
AcDbEntity
  8
Hidden (ANSI)
 48
0.0147290322929621
100
AcDbLine
 10
6.551252312367743
 20
10.20489474998769
 30
0.0
 11
6.541269119292425
 21
10.20489474998769
 31
0.0
  0
LINE
  5
2C9
330
6C
100
AcDbEntity
  8
Hidden (ANSI)
 48
0.0003761741390917
100
AcDbLine
 10
6.541269119292425
 20
10.20489474998769
 30
0.0
 11
6.541269119292425
 21
10.20539474998769
 31
0.0
  0
LINE
  5
2CA
330
6C
100
AcDbEntity
  8
Hidden (ANSI)
 48
0.0147290322929621
100
AcDbLine
 10
6.541269119292425
 20
10.20489474998769
 30
0.0
 11
6.531285926217107
 21
10.20489474998769
 31
0.0
  0
LINE
  5
2CB
330
6C
100
AcDbEntity
  8
Hidden (ANSI)
 48
0.0003761741390917
100
AcDbLine
 10
6.531285926217107
 20
10.20489474998769
 30
0.0
 11
6.531285926217107
 21
10.20539474998769
 31
0.0
  0
LINE
  5
2CC
330
6C
100
AcDbEntity
  8
Hidden (ANSI)
 48
0.0037173959426582
100
AcDbLine
 10
6.531285926217107
 20
10.20489474998769
 30
0.0
 11
6.527277522936864
 21
10.20489474998769
 31
0.0
  0
LINE
  5
2CD
330
6C
100
AcDbEntity
  8
Hidden (ANSI)
 48
0.0003761741390917
100
AcDbLine
 10
6.527277522936864
 20
10.20489474998769
 30
0.0
 11
6.527277522936864
 21
10.20539474998769
 31
0.0
  0
LINE
  5
2CE
330
6C
100
AcDbEntity
  8
Hidden (ANSI)
 48
0.0146829569712281
100
AcDbLine
 10
6.527277522936864
 20
10.20489474998769
 30
0.0
 11
6.517369960112117
 21
10.20489474998769
 31
0.0
  0
LINE
  5
2CF
330
6C
100
AcDbEntity
  8
Hidden (ANSI)
 48
0.0003761741390917
100
AcDbLine
 10
6.517369960112117
 20
10.20489474998769
 30
0.0
 11
6.517369960112117
 21
10.20539474998769
 31
0.0
  0
LINE
  5
2D0
330
6C
100
AcDbEntity
  8
Hidden (ANSI)
 48
0.0147290322929621
100
AcDbLine
 10
6.517369960112117
 20
10.20489474998769
 30
0.0
 11
6.507386767036798
 21
10.20489474998769
 31
0.0
  0
LINE
  5
2D1
330
6C
100
AcDbEntity
  8
Hidden (ANSI)
 48
0.0003761741390917
100
AcDbLine
 10
6.507386767036798
 20
10.20489474998769
 30
0.0
 11
6.507386767036798
 21
10.20539474998769
 31
0.0
  0
LINE
  5
2D2
330
6C
100
AcDbEntity
  8
Hidden (ANSI)
 48
0.0037173959426582
100
AcDbLine
 10
6.507386767036798
 20
10.20489474998769
 30
0.0
 11
6.503378363756557
 21
10.20489474998769
 31
0.0
  0
LINE
  5
2D3
330
6C
100
AcDbEntity
  8
Hidden (ANSI)
 48
0.0296842698007822
100
AcDbLine
 10
6.503378363756557
 20
10.20489474998769
 30
0.0
 11
6.483487607856492
 21
10.20489474998769
 31
0.0
  0
LINE
  5
2D4
330
6C
100
AcDbEntity
  8
Hidden (ANSI)
 48
0.0003761741390917
100
AcDbLine
 10
6.47940356380524
 20
10.20489474998769
 30
0.0
 11
6.47940356380524
 21
10.20539474998769
 31
0.0
  0
LINE
  5
2D5
330
6C
100
AcDbEntity
  8
Hidden (ANSI)
 48
0.0003761741390917
100
AcDbLine
 10
6.483411967085483
 20
10.20489474998769
 30
0.0
 11
6.483411967085483
 21
10.20539474998769
 31
0.0
  0
LINE
  5
2D6
330
6C
100
AcDbEntity
  8
Hidden (ANSI)
 48
0.0003761741390917
100
AcDbLine
 10
6.50610104225666
 20
10.20489474998769
 30
0.0
 11
6.50610104225666
 21
10.20539474998769
 31
0.0
  0
LINE
  5
2D7
330
6C
100
AcDbEntity
  8
Hidden (ANSI)
 48
0.0003761741390917
100
AcDbLine
 10
6.516462386584831
 20
10.20489474998769
 30
0.0
 11
6.516462386584831
 21
10.20539474998769
 31
0.0
  0
LINE
  5
2D8
330
6C
100
AcDbEntity
  8
Hidden (ANSI)
 48
0.0003761741390917
100
AcDbLine
 10
6.504588437245248
 20
10.20489474998769
 30
0.0
 11
6.504588437245248
 21
10.20539474998769
 31
0.0
  0
LINE
  5
2D9
330
6C
100
AcDbEntity
  8
Hidden (ANSI)
 48
0.0003761741390917
100
AcDbLine
 10
6.518126252097383
 20
10.20489474998769
 30
0.0
 11
6.518126252097383
 21
10.20539474998769
 31
0.0
  0
LINE
  5
2DA
330
6C
100
AcDbEntity
  8
Hidden (ANSI)
 48
0.0972544625401497
100
AcDbLine
 10
6.627487604942904
 20
10.20489474998769
 30
0.0
 11
6.578176681570874
 21
10.20489474998769
 31
0.0
  0
LINE
  5
2DB
330
6C
100
AcDbEntity
  8
Hidden (ANSI)
 48
0.0003761741390917
100
AcDbLine
 10
6.578176681570874
 20
10.20489474998769
 30
0.0
 11
6.578176681570874
 21
10.20539474998769
 31
0.0
  0
LINE
  5
2DC
330
6C
100
AcDbEntity
  8
Hidden (ANSI)
 48
0.0003761741390917
100
AcDbLine
 10
6.627487604942904
 20
10.20489474998769
 30
0.0
 11
6.627487604942904
 21
10.20539474998769
 31
0.0
  0
LINE
  5
2DD
330
6C
100
AcDbEntity
  8
Hidden (ANSI)
 48
0.0003761741390917
100
AcDbLine
 10
6.623932983166085
 20
10.20489474998769
 30
0.0
 11
6.623932983166085
 21
10.20539474998769
 31
0.0
  0
LINE
  5
2DE
330
6C
100
AcDbEntity
  8
Hidden (ANSI)
 48
0.0039360467344522
100
AcDbLine
 10
6.578176681570874
 20
10.20489474998769
 30
0.0
 11
6.574697690044628
 21
10.20489474998769
 31
0.0
  0
LINE
  5
2DF
330
6C
100
AcDbEntity
  8
Hidden (ANSI)
 48
0.0003761741390917
100
AcDbLine
 10
6.574697690044628
 20
10.20489474998769
 30
0.0
 11
6.574697690044628
 21
10.20539474998769
 31
0.0
  0
LINE
  5
2E0
330
6C
100
AcDbEntity
  8
Hidden (ANSI)
 48
0.0003761741390917
100
AcDbLine
 10
6.551176671596734
 20
10.20489474998769
 30
0.0
 11
6.551176671596734
 21
10.20539474998769
 31
0.0
  0
LINE
  5
2E1
330
6C
100
AcDbEntity
  8
Hidden (ANSI)
 48
0.0003761741390917
100
AcDbLine
 10
6.555185074876976
 20
10.20489474998769
 30
0.0
 11
6.555185074876976
 21
10.20539474998769
 31
0.0
  0
LINE
  5
2E2
330
6C
100
AcDbEntity
  8
Hidden (ANSI)
 48
0.0037173959426582
100
AcDbLine
 10
6.650932982619787
 20
10.20489474998769
 30
0.0
 11
6.646924579339546
 21
10.20489474998769
 31
0.0
  0
LINE
  5
2E3
330
6C
100
AcDbEntity
  8
Hidden (ANSI)
 48
0.0003761741390917
100
AcDbLine
 10
6.646924579339546
 20
10.20489474998769
 30
0.0
 11
6.646924579339546
 21
10.20539474998769
 31
0.0
  0
LINE
  5
2E4
330
6C
100
AcDbEntity
  8
Hidden (ANSI)
 48
0.0003761741390917
100
AcDbLine
 10
6.650932982619787
 20
10.20489474998769
 30
0.0
 11
6.650932982619787
 21
10.20539474998769
 31
0.0
  0
LINE
  5
2E5
330
6C
100
AcDbEntity
  8
Hidden (ANSI)
 48
0.0003761741390917
100
AcDbLine
 10
6.575151461027613
 20
10.20489474998769
 30
0.0
 11
6.575151461027613
 21
10.20539474998769
 31
0.0
  0
LINE
  5
2E6
330
6C
100
AcDbEntity
  8
Hidden (ANSI)
 48
0.0003761741390917
100
AcDbLine
 10
6.579159864307854
 20
10.20489474998769
 30
0.0
 11
6.579159864307854
 21
10.20539474998769
 31
0.0
  0
LINE
  5
2E7
330
6C
100
AcDbEntity
  8
Hidden (ANSI)
 48
0.0003761741390917
100
AcDbLine
 10
6.601848939479032
 20
10.20489474998769
 30
0.0
 11
6.601848939479032
 21
10.20539474998769
 31
0.0
  0
LINE
  5
2E8
330
6C
100
AcDbEntity
  8
Hidden (ANSI)
 48
0.0003761741390917
100
AcDbLine
 10
6.612210283807203
 20
10.20489474998769
 30
0.0
 11
6.612210283807203
 21
10.20539474998769
 31
0.0
  0
LINE
  5
2E9
330
6C
100
AcDbEntity
  8
Hidden (ANSI)
 48
0.0003761741390917
100
AcDbLine
 10
6.623025409638799
 20
10.20489474998769
 30
0.0
 11
6.623025409638799
 21
10.20539474998769
 31
0.0
  0
LINE
  5
2EA
330
6C
100
AcDbEntity
  8
Hidden (ANSI)
 48
0.0003761741390917
100
AcDbLine
 10
6.600336334467621
 20
10.20489474998769
 30
0.0
 11
6.600336334467621
 21
10.20539474998769
 31
0.0
  0
LINE
  5
2EB
330
6C
100
AcDbEntity
  8
Hidden (ANSI)
 48
0.0003761741390917
100
AcDbLine
 10
6.613874149319757
 20
10.20489474998769
 30
0.0
 11
6.613874149319757
 21
10.20539474998769
 31
0.0
  0
LINE
  5
2EC
330
6C
100
AcDbEntity
  8
Hidden (ANSI)
 48
0.0003761741390917
100
AcDbLine
 10
6.627033812919042
 20
10.20489474998769
 30
0.0
 11
6.627033812919042
 21
10.20539474998769
 31
0.0
  0
LINE
  5
2ED
330
6C
100
AcDbEntity
  8
Hidden (ANSI)
 48
0.0037173959426582
100
AcDbLine
 10
6.722781720661852
 20
10.20489474998769
 30
0.0
 11
6.718773317381611
 21
10.20489474998769
 31
0.0
  0
LINE
  5
2EE
330
6C
100
AcDbEntity
  8
Hidden (ANSI)
 48
0.0003761741390917
100
AcDbLine
 10
6.718773317381611
 20
10.20489474998769
 30
0.0
 11
6.718773317381611
 21
10.20539474998769
 31
0.0
  0
LINE
  5
2EF
330
6C
100
AcDbEntity
  8
Hidden (ANSI)
 48
0.0003761741390917
100
AcDbLine
 10
6.722781720661852
 20
10.20489474998769
 30
0.0
 11
6.722781720661852
 21
10.20539474998769
 31
0.0
  0
LINE
  5
2F0
330
6C
100
AcDbEntity
  8
Hidden (ANSI)
 48
0.0003761741390917
100
AcDbLine
 10
6.709622057062569
 20
10.20489474998769
 30
0.0
 11
6.709622057062569
 21
10.20539474998769
 31
0.0
  0
LINE
  5
2F1
330
6C
100
AcDbEntity
  8
Hidden (ANSI)
 48
0.0003761741390917
100
AcDbLine
 10
6.696084242210432
 20
10.20489474998769
 30
0.0
 11
6.696084242210432
 21
10.20539474998769
 31
0.0
  0
LINE
  5
2F2
330
6C
100
AcDbEntity
  8
Hidden (ANSI)
 48
0.0159555748105049
100
AcDbLine
 10
6.718773317381611
 20
10.20489474998769
 30
0.0
 11
6.707958191550015
 21
10.20489474998769
 31
0.0
  0
LINE
  5
2F3
330
6C
100
AcDbEntity
  8
Hidden (ANSI)
 48
0.0003761741390917
100
AcDbLine
 10
6.707958191550015
 20
10.20489474998769
 30
0.0
 11
6.707958191550015
 21
10.20539474998769
 31
0.0
  0
LINE
  5
2F4
330
6C
100
AcDbEntity
  8
Hidden (ANSI)
 48
0.0097676087170839
100
AcDbLine
 10
6.707958191550015
 20
10.20489474998769
 30
0.0
 11
6.697596847221842
 21
10.20489474998769
 31
0.0
  0
LINE
  5
2F5
330
6C
100
AcDbEntity
  8
Hidden (ANSI)
 48
0.0003761741390917
100
AcDbLine
 10
6.697596847221842
 20
10.20489474998769
 30
0.0
 11
6.697596847221842
 21
10.20539474998769
 31
0.0
  0
LINE
  5
2F6
330
6C
100
AcDbEntity
  8
Hidden (ANSI)
 48
0.0338744521141052
100
AcDbLine
 10
6.697596847221842
 20
10.20489474998769
 30
0.0
 11
6.674907772050665
 21
10.20489474998769
 31
0.0
  0
LINE
  5
2F7
330
6C
100
AcDbEntity
  8
Hidden (ANSI)
 48
0.0003761741390917
100
AcDbLine
 10
6.674907772050665
 20
10.20489474998769
 30
0.0
 11
6.674907772050665
 21
10.20539474998769
 31
0.0
  0
LINE
  5
2F8
330
6C
100
AcDbEntity
  8
Hidden (ANSI)
 48
0.0037173959426582
100
AcDbLine
 10
6.674907772050665
 20
10.20489474998769
 30
0.0
 11
6.670899368770424
 21
10.20489474998769
 31
0.0
  0
LINE
  5
2F9
330
6C
100
AcDbEntity
  8
Hidden (ANSI)
 48
0.0003761741390917
100
AcDbLine
 10
6.670899368770424
 20
10.20489474998769
 30
0.0
 11
6.670899368770424
 21
10.20539474998769
 31
0.0
  0
LINE
  5
2FA
330
6C
100
AcDbEntity
  8
Hidden (ANSI)
 48
0.0101997768506408
100
AcDbLine
 10
6.670899368770424
 20
10.20489474998769
 30
0.0
 11
6.66008423241839
 21
10.20489474998769
 31
0.0
  0
LINE
  5
2FB
330
6C
100
AcDbEntity
  8
Hidden (ANSI)
 48
0.0135662714019418
100
AcDbLine
 10
6.66008423241839
 20
10.20489474998769
 30
0.0
 11
6.650932982619787
 21
10.20489474998769
 31
0.0
  0
LINE
  5
2FC
330
6C
100
AcDbEntity
  8
Hidden (ANSI)
 48
0.0003517938021105
100
AcDbLine
 10
6.646924579339546
 20
10.20489474998769
 30
0.0
 11
6.646622047816824
 21
10.20489474998769
 31
0.0
  0
LINE
  5
2FD
330
6C
100
AcDbEntity
  8
Hidden (ANSI)
 48
0.0003761741390917
100
AcDbLine
 10
6.694798517430293
 20
10.20489474998769
 30
0.0
 11
6.694798517430293
 21
10.20539474998769
 31
0.0
  0
LINE
  5
2FE
330
6C
100
AcDbEntity
  8
Hidden (ANSI)
 48
0.0003761741390917
100
AcDbLine
 10
6.683983391598697
 20
10.20489474998769
 30
0.0
 11
6.683983391598697
 21
10.20539474998769
 31
0.0
  0
LINE
  5
2FF
330
6C
100
AcDbEntity
  8
Hidden (ANSI)
 48
0.0003761741390917
100
AcDbLine
 10
6.661672467680372
 20
10.20489474998769
 30
0.0
 11
6.661672467680372
 21
10.20539474998769
 31
0.0
  0
LINE
  5
300
330
6C
100
AcDbEntity
  8
Hidden (ANSI)
 48
0.0003761741390917
100
AcDbLine
 10
6.649495997338506
 20
10.20489474998769
 30
0.0
 11
6.649495997338506
 21
10.20539474998769
 31
0.0
  0
LINE
  5
301
330
6C
100
AcDbEntity
  8
Hidden (ANSI)
 48
0.0003761741390917
100
AcDbLine
 10
6.646622047816824
 20
10.20489474998769
 30
0.0
 11
6.646622047816824
 21
10.20539474998769
 31
0.0
  0
LINE
  5
302
330
6C
100
AcDbEntity
  8
Hidden (ANSI)
 48
0.0003761741390917
100
AcDbLine
 10
6.66008423241839
 20
10.20489474998769
 30
0.0
 11
6.66008423241839
 21
10.20539474998769
 31
0.0
  0
LINE
  5
303
330
6C
100
AcDbEntity
  8
Hidden (ANSI)
 48
0.0003761741390917
100
AcDbLine
 10
6.685647257111251
 20
10.20489474998769
 30
0.0
 11
6.685647257111251
 21
10.20539474998769
 31
0.0
  0
LINE
  5
304
330
6C
100
AcDbEntity
  8
Hidden (ANSI)
 48
0.0003761741390917
100
AcDbLine
 10
6.698806920710535
 20
10.20489474998769
 30
0.0
 11
6.698806920710535
 21
10.20539474998769
 31
0.0
  0
LINE
  5
305
330
6C
100
AcDbEntity
  8
Hidden (ANSI)
 48
0.0041975043714046
100
AcDbLine
 10
6.794781719205058
 20
10.20489474998769
 30
0.0
 11
6.791907769683375
 21
10.20489474998769
 31
0.0
  0
LINE
  5
306
330
6C
100
AcDbEntity
  8
Hidden (ANSI)
 48
0.0003761741390917
100
AcDbLine
 10
6.791907769683375
 20
10.20489474998769
 30
0.0
 11
6.791907769683375
 21
10.20539474998769
 31
0.0
  0
LINE
  5
307
330
6C
100
AcDbEntity
  8
Hidden (ANSI)
 48
0.0003761741390917
100
AcDbLine
 10
6.794781719205058
 20
10.20489474998769
 30
0.0
 11
6.794781719205058
 21
10.20539474998769
 31
0.0
  0
LINE
  5
308
330
6C
100
AcDbEntity
  8
Hidden (ANSI)
 48
0.0003761741390917
100
AcDbLine
 10
6.781395164854062
 20
10.20489474998769
 30
0.0
 11
6.781395164854062
 21
10.20539474998769
 31
0.0
  0
LINE
  5
309
330
6C
100
AcDbEntity
  8
Hidden (ANSI)
 48
0.0003761741390917
100
AcDbLine
 10
6.767857350001927
 20
10.20489474998769
 30
0.0
 11
6.767857350001927
 21
10.20539474998769
 31
0.0
  0
LINE
  5
30A
330
6C
100
AcDbEntity
  8
Hidden (ANSI)
 48
0.0003761741390917
100
AcDbLine
 10
6.743428779067622
 20
10.20489474998769
 30
0.0
 11
6.743428779067622
 21
10.20539474998769
 31
0.0
  0
LINE
  5
30B
330
6C
100
AcDbEntity
  8
Hidden (ANSI)
 48
0.010559898801148
100
AcDbLine
 10
6.754622056152072
 20
10.20489474998769
 30
0.0
 11
6.743428779067622
 21
10.20489474998769
 31
0.0
  0
LINE
  5
30C
330
6C
100
AcDbEntity
  8
Hidden (ANSI)
 48
0.0003761741390917
100
AcDbLine
 10
6.754622056152072
 20
10.20489474998769
 30
0.0
 11
6.754622056152072
 21
10.20539474998769
 31
0.0
  0
LINE
  5
30D
330
6C
100
AcDbEntity
  8
Hidden (ANSI)
 48
0.0151054989546538
100
AcDbLine
 10
6.791907769683375
 20
10.20489474998769
 30
0.0
 11
6.781773316106915
 21
10.20489474998769
 31
0.0
  0
LINE
  5
30E
330
6C
100
AcDbEntity
  8
Hidden (ANSI)
 48
0.0003761741390917
100
AcDbLine
 10
6.779731299341509
 20
10.20489474998769
 30
0.0
 11
6.779731299341509
 21
10.20539474998769
 31
0.0
  0
LINE
  5
30F
330
6C
100
AcDbEntity
  8
Hidden (ANSI)
 48
0.0003761741390917
100
AcDbLine
 10
6.769369955013337
 20
10.20489474998769
 30
0.0
 11
6.769369955013337
 21
10.20539474998769
 31
0.0
  0
LINE
  5
310
330
6C
100
AcDbEntity
  8
Hidden (ANSI)
 48
0.0003761741390917
100
AcDbLine
 10
6.781773316106915
 20
10.20489474998769
 30
0.0
 11
6.781773316106915
 21
10.20539474998769
 31
0.0
  0
LINE
  5
311
330
6C
100
AcDbEntity
  8
Hidden (ANSI)
 48
0.0219400599598885
100
AcDbLine
 10
6.781773316106915
 20
10.20489474998769
 30
0.0
 11
6.758630459432313
 21
10.20489474998769
 31
0.0
  0
LINE
  5
312
330
6C
100
AcDbEntity
  8
Hidden (ANSI)
 48
0.0003761741390917
100
AcDbLine
 10
6.758630459432313
 20
10.20489474998769
 30
0.0
 11
6.758630459432313
 21
10.20539474998769
 31
0.0
  0
LINE
  5
313
330
6C
100
AcDbEntity
  8
Hidden (ANSI)
 48
0.0037173959426582
100
AcDbLine
 10
6.758630459432313
 20
10.20489474998769
 30
0.0
 11
6.754622056152072
 21
10.20489474998769
 31
0.0
  0
LINE
  5
314
330
6C
100
AcDbEntity
  8
Hidden (ANSI)
 48
0.0037173959426582
100
AcDbLine
 10
6.076672490037264
 20
10.20489474998769
 30
0.0
 11
6.072664086757022
 21
10.20489474998769
 31
0.0
  0
LINE
  5
315
330
6C
100
AcDbEntity
  8
Hidden (ANSI)
 48
0.0037173959426582
100
AcDbLine
 10
6.028798541426077
 20
10.20489474998769
 30
0.0
 11
6.024790138145835
 21
10.20489474998769
 31
0.0
  0
LINE
  5
316
330
6C
100
AcDbEntity
  8
Hidden (ANSI)
 48
0.0338744521141052
100
AcDbLine
 10
6.051487616597255
 20
10.20489474998769
 30
0.0
 11
6.028798541426077
 21
10.20489474998769
 31
0.0
  0
LINE
  5
317
330
6C
100
AcDbEntity
  8
Hidden (ANSI)
 48
0.0097676087170839
100
AcDbLine
 10
6.061848960925426
 20
10.20489474998769
 30
0.0
 11
6.051487616597255
 21
10.20489474998769
 31
0.0
  0
LINE
  5
318
330
6C
100
AcDbEntity
  8
Hidden (ANSI)
 48
0.0159555748105049
100
AcDbLine
 10
6.072664086757022
 20
10.20489474998769
 30
0.0
 11
6.061848960925426
 21
10.20489474998769
 31
0.0
  0
LINE
  5
319
330
6C
100
AcDbEntity
  8
Hidden (ANSI)
 48
0.0003761741390917
100
AcDbLine
 10
6.024790138145835
 20
10.20489474998769
 30
0.0
 11
6.024790138145835
 21
10.20539474998769
 31
0.0
  0
LINE
  5
31A
330
6C
100
AcDbEntity
  8
Hidden (ANSI)
 48
0.0003761741390917
100
AcDbLine
 10
6.028798541426077
 20
10.20489474998769
 30
0.0
 11
6.028798541426077
 21
10.20539474998769
 31
0.0
  0
LINE
  5
31B
330
6C
100
AcDbEntity
  8
Hidden (ANSI)
 48
0.0003761741390917
100
AcDbLine
 10
6.051487616597255
 20
10.20489474998769
 30
0.0
 11
6.051487616597255
 21
10.20539474998769
 31
0.0
  0
LINE
  5
31C
330
6C
100
AcDbEntity
  8
Hidden (ANSI)
 48
0.0003761741390917
100
AcDbLine
 10
6.061848960925426
 20
10.20489474998769
 30
0.0
 11
6.061848960925426
 21
10.20539474998769
 31
0.0
  0
LINE
  5
31D
330
6C
100
AcDbEntity
  8
Hidden (ANSI)
 48
0.0003761741390917
100
AcDbLine
 10
6.072664086757022
 20
10.20489474998769
 30
0.0
 11
6.072664086757022
 21
10.20539474998769
 31
0.0
  0
LINE
  5
31E
330
6C
100
AcDbEntity
  8
Hidden (ANSI)
 48
0.0003761741390917
100
AcDbLine
 10
6.049975011585844
 20
10.20489474998769
 30
0.0
 11
6.049975011585844
 21
10.20539474998769
 31
0.0
  0
LINE
  5
31F
330
6C
100
AcDbEntity
  8
Hidden (ANSI)
 48
0.0003761741390917
100
AcDbLine
 10
6.063512826437979
 20
10.20489474998769
 30
0.0
 11
6.063512826437979
 21
10.20539474998769
 31
0.0
  0
LINE
  5
320
330
6C
100
AcDbEntity
  8
Hidden (ANSI)
 48
0.0003761741390917
100
AcDbLine
 10
6.076672490037264
 20
10.20489474998769
 30
0.0
 11
6.076672490037264
 21
10.20539474998769
 31
0.0
  0
LINE
  5
321
330
6C
100
AcDbEntity
  8
Hidden (ANSI)
 48
0.0195985119789839
100
AcDbLine
 10
6.86632793624484
 20
10.20489474998769
 30
0.0
 11
6.853168272645556
 21
10.20489474998769
 31
0.0
  0
LINE
  5
322
330
6C
100
AcDbEntity
  8
Hidden (ANSI)
 48
0.0003761741390917
100
AcDbLine
 10
6.853168272645556
 20
10.20489474998769
 30
0.0
 11
6.853168272645556
 21
10.20539474998769
 31
0.0
  0
LINE
  5
323
330
6C
100
AcDbEntity
  8
Hidden (ANSI)
 48
0.0003761741390917
100
AcDbLine
 10
6.86632793624484
 20
10.20489474998769
 30
0.0
 11
6.86632793624484
 21
10.20539474998769
 31
0.0
  0
LINE
  5
324
330
6C
100
AcDbEntity
  8
Hidden (ANSI)
 48
0.0003761741390917
100
AcDbLine
 10
6.818453987633652
 20
10.20489474998769
 30
0.0
 11
6.818453987633652
 21
10.20539474998769
 31
0.0
  0
LINE
  5
325
330
6C
100
AcDbEntity
  8
Hidden (ANSI)
 48
0.0003761741390917
100
AcDbLine
 10
6.829193483214678
 20
10.20489474998769
 30
0.0
 11
6.829193483214678
 21
10.20539474998769
 31
0.0
  0
LINE
  5
326
330
6C
100
AcDbEntity
  8
Hidden (ANSI)
 48
0.0003761741390917
100
AcDbLine
 10
6.851504407133004
 20
10.20489474998769
 30
0.0
 11
6.851504407133004
 21
10.20539474998769
 31
0.0
  0
LINE
  5
327
330
6C
100
AcDbEntity
  8
Hidden (ANSI)
 48
0.0242449026554823
100
AcDbLine
 10
6.853168272645556
 20
10.20489474998769
 30
0.0
 11
6.827605247952695
 21
10.20489474998769
 31
0.0
  0
LINE
  5
328
330
6C
100
AcDbEntity
  8
Hidden (ANSI)
 48
0.0003761741390917
100
AcDbLine
 10
6.827605247952695
 20
10.20489474998769
 30
0.0
 11
6.827605247952695
 21
10.20539474998769
 31
0.0
  0
LINE
  5
329
330
6C
100
AcDbEntity
  8
Hidden (ANSI)
 48
0.0195985119789839
100
AcDbLine
 10
6.827605247952695
 20
10.20489474998769
 30
0.0
 11
6.814445584353411
 21
10.20489474998769
 31
0.0
  0
LINE
  5
32A
330
6C
100
AcDbEntity
  8
Hidden (ANSI)
 48
0.0003761741390917
100
AcDbLine
 10
6.814445584353411
 20
10.20489474998769
 30
0.0
 11
6.814445584353411
 21
10.20539474998769
 31
0.0
  0
LINE
  5
32B
330
6C
100
AcDbEntity
  8
Hidden (ANSI)
 48
0.0003761741390917
100
AcDbLine
 10
6.862319532964599
 20
10.20489474998769
 30
0.0
 11
6.862319532964599
 21
10.20539474998769
 31
0.0
  0
LINE
  5
32C
330
6C
100
AcDbEntity
  8
Hidden (ANSI)
 48
0.0242449026554823
100
AcDbLine
 10
6.135285934229473
 20
10.20489474998769
 30
0.0
 11
6.109722909536612
 21
10.20489474998769
 31
0.0
  0
LINE
  5
32D
330
6C
100
AcDbEntity
  8
Hidden (ANSI)
 48
0.0196541342884302
100
AcDbLine
 10
6.148445597828757
 20
10.20489474998769
 30
0.0
 11
6.135285934229473
 21
10.20489474998769
 31
0.0
  0
LINE
  5
32E
330
6C
100
AcDbEntity
  8
Hidden (ANSI)
 48
0.0200041253119707
100
AcDbLine
 10
6.109722909536612
 20
10.20489474998769
 30
0.0
 11
6.096260724935048
 21
10.20489474998769
 31
0.0
  0
LINE
  5
32F
330
6C
100
AcDbEntity
  8
Hidden (ANSI)
 48
0.0003761741390917
100
AcDbLine
 10
6.144437194548516
 20
10.20489474998769
 30
0.0
 11
6.144437194548516
 21
10.20539474998769
 31
0.0
  0
LINE
  5
330
330
6C
100
AcDbEntity
  8
Hidden (ANSI)
 48
0.0003761741390917
100
AcDbLine
 10
6.13362206871692
 20
10.20489474998769
 30
0.0
 11
6.13362206871692
 21
10.20539474998769
 31
0.0
  0
LINE
  5
331
330
6C
100
AcDbEntity
  8
Hidden (ANSI)
 48
0.0003761741390917
100
AcDbLine
 10
6.111311144798595
 20
10.20489474998769
 30
0.0
 11
6.111311144798595
 21
10.20539474998769
 31
0.0
  0
LINE
  5
332
330
6C
100
AcDbEntity
  8
Hidden (ANSI)
 48
0.0003761741390917
100
AcDbLine
 10
6.09913467445673
 20
10.20489474998769
 30
0.0
 11
6.09913467445673
 21
10.20539474998769
 31
0.0
  0
LINE
  5
333
330
6C
100
AcDbEntity
  8
Hidden (ANSI)
 48
0.0003761741390917
100
AcDbLine
 10
6.096260724935048
 20
10.20489474998769
 30
0.0
 11
6.096260724935048
 21
10.20539474998769
 31
0.0
  0
LINE
  5
334
330
6C
100
AcDbEntity
  8
Hidden (ANSI)
 48
0.0003761741390917
100
AcDbLine
 10
6.109722909536612
 20
10.20489474998769
 30
0.0
 11
6.109722909536612
 21
10.20539474998769
 31
0.0
  0
LINE
  5
335
330
6C
100
AcDbEntity
  8
Hidden (ANSI)
 48
0.0003761741390917
100
AcDbLine
 10
6.135285934229473
 20
10.20489474998769
 30
0.0
 11
6.135285934229473
 21
10.20539474998769
 31
0.0
  0
LINE
  5
336
330
6C
100
AcDbEntity
  8
Hidden (ANSI)
 48
0.0003761741390917
100
AcDbLine
 10
6.100571649217571
 20
10.20489474998769
 30
0.0
 11
6.100571649217571
 21
10.20539474998769
 31
0.0
  0
LINE
  5
337
330
6C
100
AcDbEntity
  8
Hidden (ANSI)
 48
0.0003761741390917
100
AcDbLine
 10
6.096563245937329
 20
10.20489474998769
 30
0.0
 11
6.096563245937329
 21
10.20539474998769
 31
0.0
  0
LINE
  5
338
330
6C
100
AcDbEntity
  8
Hidden (ANSI)
 48
0.0003761741390917
100
AcDbLine
 10
6.148445597828757
 20
10.20489474998769
 30
0.0
 11
6.148445597828757
 21
10.20539474998769
 31
0.0
  0
LINE
  5
339
330
6C
100
AcDbEntity
  8
Hidden (ANSI)
 48
0.0033502315636724
100
AcDbLine
 10
6.223598421445252
 20
10.20489474998769
 30
0.0
 11
6.220445596371964
 21
10.20489474998769
 31
0.0
  0
LINE
  5
33A
330
6C
100
AcDbEntity
  8
Hidden (ANSI)
 48
0.0003761741390917
100
AcDbLine
 10
6.219590018165011
 20
10.20489474998769
 30
0.0
 11
6.219590018165011
 21
10.20539474998769
 31
0.0
  0
LINE
  5
33B
330
6C
100
AcDbEntity
  8
Hidden (ANSI)
 48
0.0003761741390917
100
AcDbLine
 10
6.223598421445252
 20
10.20489474998769
 30
0.0
 11
6.223598421445252
 21
10.20539474998769
 31
0.0
  0
LINE
  5
33C
330
6C
100
AcDbEntity
  8
Hidden (ANSI)
 48
0.0003761741390917
100
AcDbLine
 10
6.19659842199155
 20
10.20489474998769
 30
0.0
 11
6.19659842199155
 21
10.20539474998769
 31
0.0
  0
LINE
  5
33D
330
6C
100
AcDbEntity
  8
Hidden (ANSI)
 48
0.0003761741390917
100
AcDbLine
 10
6.193875732971009
 20
10.20489474998769
 30
0.0
 11
6.193875732971009
 21
10.20539474998769
 31
0.0
  0
LINE
  5
33E
330
6C
100
AcDbEntity
  8
Hidden (ANSI)
 48
0.0018522368045524
100
AcDbLine
 10
6.169092656234529
 20
10.20489474998769
 30
0.0
 11
6.168010187275866
 21
10.20489474998769
 31
0.0
  0
LINE
  5
33F
330
6C
100
AcDbEntity
  8
Hidden (ANSI)
 48
0.0003761741390917
100
AcDbLine
 10
6.168010187275866
 20
10.20489474998769
 30
0.0
 11
6.168010187275866
 21
10.20539474998769
 31
0.0
  0
LINE
  5
340
330
6C
100
AcDbEntity
  8
Hidden (ANSI)
 48
0.0042365598492324
100
AcDbLine
 10
6.168010187275866
 20
10.20489474998769
 30
0.0
 11
6.164153044496765
 21
10.20489474998769
 31
0.0
  0
LINE
  5
341
330
6C
100
AcDbEntity
  8
Hidden (ANSI)
 48
0.0003761741390917
100
AcDbLine
 10
6.164153044496765
 20
10.20489474998769
 30
0.0
 11
6.164153044496765
 21
10.20539474998769
 31
0.0
  0
LINE
  5
342
330
6C
100
AcDbEntity
  8
Hidden (ANSI)
 48
0.0003761741390917
100
AcDbLine
 10
6.191077413699897
 20
10.20489474998769
 30
0.0
 11
6.191077413699897
 21
10.20539474998769
 31
0.0
  0
LINE
  5
343
330
6C
100
AcDbEntity
  8
Hidden (ANSI)
 48
0.0037173959426582
100
AcDbLine
 10
6.339865762022933
 20
10.20489474998769
 30
0.0
 11
6.33585735874269
 21
10.20489474998769
 31
0.0
  0
LINE
  5
344
330
6C
100
AcDbEntity
  8
Hidden (ANSI)
 48
0.0003761741390917
100
AcDbLine
 10
6.33585735874269
 20
10.20489474998769
 30
0.0
 11
6.33585735874269
 21
10.20539474998769
 31
0.0
  0
LINE
  5
345
330
6C
100
AcDbEntity
  8
Hidden (ANSI)
 48
0.0003761741390917
100
AcDbLine
 10
6.339865762022933
 20
10.20489474998769
 30
0.0
 11
6.339865762022933
 21
10.20539474998769
 31
0.0
  0
LINE
  5
346
330
6C
100
AcDbEntity
  8
Hidden (ANSI)
 48
0.0003761741390917
100
AcDbLine
 10
6.300363125774406
 20
10.20489474998769
 30
0.0
 11
6.300363125774406
 21
10.20539474998769
 31
0.0
  0
LINE
  5
347
330
6C
100
AcDbEntity
  8
Hidden (ANSI)
 48
0.0003761741390917
100
AcDbLine
 10
6.304371529054647
 20
10.20489474998769
 30
0.0
 11
6.304371529054647
 21
10.20539474998769
 31
0.0
  0
LINE
  5
348
330
6C
100
AcDbEntity
  8
Hidden (ANSI)
 48
0.0003761741390917
100
AcDbLine
 10
6.277371529600945
 20
10.20489474998769
 30
0.0
 11
6.277371529600945
 21
10.20539474998769
 31
0.0
  0
LINE
  5
349
330
6C
100
AcDbEntity
  8
Hidden (ANSI)
 48
0.0003761741390917
100
AcDbLine
 10
6.274648840580404
 20
10.20489474998769
 30
0.0
 11
6.274648840580404
 21
10.20539474998769
 31
0.0
  0
LINE
  5
34A
330
6C
100
AcDbEntity
  8
Hidden (ANSI)
 48
0.0003761741390917
100
AcDbLine
 10
6.248783294885261
 20
10.20489474998769
 30
0.0
 11
6.248783294885261
 21
10.20539474998769
 31
0.0
  0
LINE
  5
34B
330
6C
100
AcDbEntity
  8
Hidden (ANSI)
 48
0.0003761741390917
100
AcDbLine
 10
6.24492615210616
 20
10.20489474998769
 30
0.0
 11
6.24492615210616
 21
10.20539474998769
 31
0.0
  0
LINE
  5
34C
330
6C
100
AcDbEntity
  8
Hidden (ANSI)
 48
0.0003761741390917
100
AcDbLine
 10
6.271850521309292
 20
10.20489474998769
 30
0.0
 11
6.271850521309292
 21
10.20539474998769
 31
0.0
  0
LINE
  5
34D
330
6C
100
AcDbEntity
  8
Hidden (ANSI)
 48
0.0195985119789839
100
AcDbLine
 10
6.372991811772853
 20
10.20489474998769
 30
0.0
 11
6.359832148173569
 21
10.20489474998769
 31
0.0
  0
LINE
  5
34E
330
6C
100
AcDbEntity
  8
Hidden (ANSI)
 48
0.0359851978719235
100
AcDbLine
 10
6.41088256730872
 20
10.20489474998769
 30
0.0
 11
6.372991811772853
 21
10.20489474998769
 31
0.0
  0
LINE
  5
34F
330
6C
100
AcDbEntity
  8
Hidden (ANSI)
 48
0.0003761741390917
100
AcDbLine
 10
6.359832148173569
 20
10.20489474998769
 30
0.0
 11
6.359832148173569
 21
10.20539474998769
 31
0.0
  0
LINE
  5
350
330
6C
100
AcDbEntity
  8
Hidden (ANSI)
 48
0.0003761741390917
100
AcDbLine
 10
6.372991811772853
 20
10.20489474998769
 30
0.0
 11
6.372991811772853
 21
10.20539474998769
 31
0.0
  0
LINE
  5
351
330
6C
100
AcDbEntity
  8
Hidden (ANSI)
 48
0.0003761741390917
100
AcDbLine
 10
6.36384055145381
 20
10.20489474998769
 30
0.0
 11
6.36384055145381
 21
10.20539474998769
 31
0.0
  0
LINE
  5
352
330
6C
100
AcDbEntity
  8
Hidden (ANSI)
 48
0.0003761741390917
100
AcDbLine
 10
6.374580047034833
 20
10.20489474998769
 30
0.0
 11
6.374580047034833
 21
10.20539474998769
 31
0.0
  0
LINE
  5
353
330
6C
100
AcDbEntity
  8
Hidden (ANSI)
 48
0.0003761741390917
100
AcDbLine
 10
6.41088256730872
 20
10.20489474998769
 30
0.0
 11
6.41088256730872
 21
10.20539474998769
 31
0.0
  0
LINE
  5
354
330
6C
100
AcDbEntity
  8
Hidden (ANSI)
 48
0.0003761741390917
100
AcDbLine
 10
6.381136233383802
 20
10.20489474998769
 30
0.0
 11
6.381136233383802
 21
10.20539474998769
 31
0.0
  0
LINE
  5
355
330
6C
100
AcDbEntity
  8
Hidden (ANSI)
 48
0.0003761741390917
100
AcDbLine
 10
6.385144636664043
 20
10.20489474998769
 30
0.0
 11
6.385144636664043
 21
10.20539474998769
 31
0.0
  0
LINE
  5
356
330
6C
100
AcDbEntity
  8
Hidden (ANSI)
 48
0.0003761741390917
100
AcDbLine
 10
6.358144637210339
 20
10.20489474998769
 30
0.0
 11
6.358144637210339
 21
10.20539474998769
 31
0.0
  0
LINE
  5
357
330
6C
100
AcDbEntity
  8
Hidden (ANSI)
 48
0.0003761741390917
100
AcDbLine
 10
6.355421948189798
 20
10.20489474998769
 30
0.0
 11
6.355421948189798
 21
10.20539474998769
 31
0.0
  0
LINE
  5
358
330
6C
100
AcDbEntity
  8
Hidden (ANSI)
 48
0.011263788677752
100
AcDbLine
 10
6.335857353482471
 20
10.20489474998769
 30
0.0
 11
6.329556402494655
 21
10.20489474998769
 31
0.0
  0
LINE
  5
359
330
6C
100
AcDbEntity
  8
Hidden (ANSI)
 48
0.0003761741390917
100
AcDbLine
 10
6.329556402494655
 20
10.20489474998769
 30
0.0
 11
6.329556402494655
 21
10.20539474998769
 31
0.0
  0
LINE
  5
35A
330
6C
100
AcDbEntity
  8
Hidden (ANSI)
 48
0.0042365598492324
100
AcDbLine
 10
6.329556402494655
 20
10.20489474998769
 30
0.0
 11
6.325699259715555
 21
10.20489474998769
 31
0.0
  0
LINE
  5
35B
330
6C
100
AcDbEntity
  8
Hidden (ANSI)
 48
0.0003761741390917
100
AcDbLine
 10
6.325699259715555
 20
10.20489474998769
 30
0.0
 11
6.325699259715555
 21
10.20539474998769
 31
0.0
  0
LINE
  5
35C
330
6C
100
AcDbEntity
  8
Hidden (ANSI)
 48
0.0003761741390917
100
AcDbLine
 10
6.352623628918688
 20
10.20489474998769
 30
0.0
 11
6.352623628918688
 21
10.20539474998769
 31
0.0
  0
LINE
  5
35D
330
6C
100
AcDbEntity
  8
Hidden (ANSI)
 48
0.0242449026554823
100
AcDbLine
 10
6.470327944257207
 20
10.20489474998769
 30
0.0
 11
6.444764919564347
 21
10.20489474998769
 31
0.0
  0
LINE
  5
35E
330
6C
100
AcDbEntity
  8
Hidden (ANSI)
 48
0.0195985119789839
100
AcDbLine
 10
6.483487607856492
 20
10.20489474998769
 30
0.0
 11
6.470327944257207
 21
10.20489474998769
 31
0.0
  0
LINE
  5
35F
330
6C
100
AcDbEntity
  8
Hidden (ANSI)
 48
0.0195985119789839
100
AcDbLine
 10
6.444764919564347
 20
10.20489474998769
 30
0.0
 11
6.431605255965063
 21
10.20489474998769
 31
0.0
  0
LINE
  5
360
330
6C
100
AcDbEntity
  8
Hidden (ANSI)
 48
0.0003761741390917
100
AcDbLine
 10
6.479479204576249
 20
10.20489474998769
 30
0.0
 11
6.479479204576249
 21
10.20539474998769
 31
0.0
  0
LINE
  5
361
330
6C
100
AcDbEntity
  8
Hidden (ANSI)
 48
0.0003761741390917
100
AcDbLine
 10
6.468664078744653
 20
10.20489474998769
 30
0.0
 11
6.468664078744653
 21
10.20539474998769
 31
0.0
  0
LINE
  5
362
330
6C
100
AcDbEntity
  8
Hidden (ANSI)
 48
0.0003761741390917
100
AcDbLine
 10
6.431605255965063
 20
10.20489474998769
 30
0.0
 11
6.431605255965063
 21
10.20539474998769
 31
0.0
  0
LINE
  5
363
330
6C
100
AcDbEntity
  8
Hidden (ANSI)
 48
0.0003761741390917
100
AcDbLine
 10
6.444764919564347
 20
10.20489474998769
 30
0.0
 11
6.444764919564347
 21
10.20539474998769
 31
0.0
  0
LINE
  5
364
330
6C
100
AcDbEntity
  8
Hidden (ANSI)
 48
0.0003761741390917
100
AcDbLine
 10
6.470327944257207
 20
10.20489474998769
 30
0.0
 11
6.470327944257207
 21
10.20539474998769
 31
0.0
  0
LINE
  5
365
330
6C
100
AcDbEntity
  8
Hidden (ANSI)
 48
0.0003761741390917
100
AcDbLine
 10
6.446353154826327
 20
10.20489474998769
 30
0.0
 11
6.446353154826327
 21
10.20539474998769
 31
0.0
  0
LINE
  5
366
330
6C
100
AcDbEntity
  8
Hidden (ANSI)
 48
0.0003761741390917
100
AcDbLine
 10
6.435613659245304
 20
10.20489474998769
 30
0.0
 11
6.435613659245304
 21
10.20539474998769
 31
0.0
  0
LINE
  5
367
330
6C
100
AcDbEntity
  8
Hidden (ANSI)
 48
0.0003761741390917
100
AcDbLine
 10
6.483487607856492
 20
10.20489474998769
 30
0.0
 11
6.483487607856492
 21
10.20539474998769
 31
0.0
  0
LINE
  5
368
330
6C
100
AcDbEntity
  8
Hidden (ANSI)
 48
0.0003761741390917
100
AcDbLine
 10
6.461909340993196
 20
10.20489474998769
 30
0.0
 11
6.461909340993196
 21
10.20539474998769
 31
0.0
  0
LINE
  5
369
330
6C
100
AcDbEntity
  8
Hidden (ANSI)
 48
0.0003761741390917
100
AcDbLine
 10
6.465917744273437
 20
10.20489474998769
 30
0.0
 11
6.465917744273437
 21
10.20539474998769
 31
0.0
  0
LINE
  5
36A
330
6C
100
AcDbEntity
  8
Hidden (ANSI)
 48
0.0003761741390917
100
AcDbLine
 10
6.438917744819735
 20
10.20489474998769
 30
0.0
 11
6.438917744819735
 21
10.20539474998769
 31
0.0
  0
LINE
  5
36B
330
6C
100
AcDbEntity
  8
Hidden (ANSI)
 48
0.0003761741390917
100
AcDbLine
 10
6.436195055799194
 20
10.20489474998769
 30
0.0
 11
6.436195055799194
 21
10.20539474998769
 31
0.0
  0
LINE
  5
36C
330
6C
100
AcDbEntity
  8
Hidden (ANSI)
 48
0.0003761741390917
100
AcDbLine
 10
6.410329510104051
 20
10.20489474998769
 30
0.0
 11
6.410329510104051
 21
10.20539474998769
 31
0.0
  0
LINE
  5
36D
330
6C
100
AcDbEntity
  8
Hidden (ANSI)
 48
0.0003761741390917
100
AcDbLine
 10
6.40647236732495
 20
10.20489474998769
 30
0.0
 11
6.40647236732495
 21
10.20539474998769
 31
0.0
  0
LINE
  5
36E
330
6C
100
AcDbEntity
  8
Hidden (ANSI)
 48
0.0003761741390917
100
AcDbLine
 10
6.433396736528083
 20
10.20489474998769
 30
0.0
 11
6.433396736528083
 21
10.20539474998769
 31
0.0
  0
LINE
  5
36F
330
6C
100
AcDbEntity
  8
Visible (ANSI)
100
AcDbLine
 10
4.266876778901827
 20
10.20539474998769
 30
0.0
 11
4.329376778901827
 21
10.20539474998769
 31
0.0
  0
LINE
  5
370
330
6C
100
AcDbEntity
  8
Visible (ANSI)
100
AcDbLine
 10
3.829376778901829
 20
10.20539474998769
 30
0.0
 11
3.891876778901829
 21
10.20539474998769
 31
0.0
  0
LINE
  5
371
330
6C
100
AcDbEntity
  8
Visible (ANSI)
100
AcDbLine
 10
3.891876778901829
 20
10.20539474998769
 30
0.0
 11
4.266876778901827
 21
10.20539474998769
 31
0.0
  0
LINE
  5
372
330
6C
100
AcDbEntity
  8
Visible (ANSI)
100
AcDbLine
 10
3.891876778901829
 20
10.14839474998769
 30
0.0
 11
3.829376778901829
 21
10.14839474998769
 31
0.0
  0
LINE
  5
373
330
6C
100
AcDbEntity
  8
Visible (ANSI)
100
AcDbLine
 10
3.829376778901829
 20
10.14839474998769
 30
0.0
 11
3.829376778901829
 21
10.20539474998769
 31
0.0
  0
LINE
  5
374
330
6C
100
AcDbEntity
  8
Visible (ANSI)
100
AcDbLine
 10
4.266876778901827
 20
10.14839474998769
 30
0.0
 11
3.891876778901829
 21
10.14839474998769
 31
0.0
  0
LINE
  5
375
330
6C
100
AcDbEntity
  8
Visible (ANSI)
100
AcDbLine
 10
4.329376778901827
 20
10.14839474998769
 30
0.0
 11
4.266876778901828
 21
10.14839474998769
 31
0.0
  0
LINE
  5
376
330
6C
100
AcDbEntity
  8
Visible (ANSI)
100
AcDbLine
 10
4.329376778901828
 20
10.20539474998769
 30
0.0
 11
4.329376778901828
 21
10.14839474998769
 31
0.0
  0
LINE
  5
377
330
6C
100
AcDbEntity
  8
Visible (ANSI)
100
AcDbLine
 10
21.07937677890183
 20
10.20539474998769
 30
0.0
 11
4.329376778901829
 21
10.20539474998769
 31
0.0
  0
LINE
  5
378
330
6C
100
AcDbEntity
  8
Visible (ANSI)
100
AcDbLine
 10
3.829376778901829
 20
10.20539474998769
 30
0.0
 11
2.298018504158072
 21
10.20539474998769
 31
0.0
  0
LINE
  5
379
330
6C
100
AcDbEntity
  8
Visible (ANSI)
100
AcDbLine
 10
2.298018504158072
 20
10.14839474998769
 30
0.0
 11
3.829376778901829
 21
10.14839474998769
 31
0.0
  0
LINE
  5
37A
330
6C
100
AcDbEntity
  8
Visible (ANSI)
100
AcDbLine
 10
4.329376778901828
 20
10.14839474998769
 30
0.0
 11
21.07937677890183
 21
10.14839474998769
 31
0.0
  0
LINE
  5
37B
330
6C
100
AcDbEntity
  8
Visible (ANSI)
100
AcDbLine
 10
21.07937677890183
 20
10.14839474998769
 30
0.0
 11
21.07937677890183
 21
10.20539474998769
 31
0.0
  0
LINE
  5
37C
330
6C
100
AcDbEntity
  8
Visible (ANSI)
100
AcDbLine
 10
0.9462638997660597
 20
11.3352040731507
 30
0.0
 11
1.005951862614347
 21
11.151503412525
 31
0.0
  0
LINE
  5
37D
330
6C
100
AcDbEntity
  8
Visible (ANSI)
100
AcDbLine
 10
1.06016208404317
 20
11.16911738120437
 30
0.0
 11
1.000474121194884
 21
11.35281804183007
 31
0.0
  0
LINE
  5
37E
330
6C
100
AcDbEntity
  8
Visible (ANSI)
100
AcDbLine
 10
1.25704850422805
 20
10.20539474998769
 30
0.0
 11
1.979609961559053
 21
10.20539474998769
 31
0.0
  0
LINE
  5
37F
330
6C
100
AcDbEntity
  8
Visible (ANSI)
100
AcDbLine
 10
1.979609961559055
 20
10.20539474998769
 30
0.0
 11
2.156503596336288
 21
10.20539474998769
 31
0.0
  0
LINE
  5
380
330
6C
100
AcDbEntity
  8
Visible (ANSI)
100
AcDbLine
 10
2.156503596336288
 20
10.14839474998769
 30
0.0
 11
1.979609961559055
 21
10.14839474998769
 31
0.0
  0
LINE
  5
381
330
6C
100
AcDbEntity
  8
Visible (ANSI)
100
AcDbLine
 10
1.979609961559053
 20
10.14839474998769
 30
0.0
 11
1.25704850422805
 21
10.14839474998769
 31
0.0
  0
LINE
  5
382
330
6C
100
AcDbEntity
  8
Visible (ANSI)
100
AcDbLine
 10
1.014385161758191
 20
10.417899695025
 30
0.0
 11
1.059474118211716
 21
10.8468924595844
 31
0.0
  0
LINE
  5
383
330
6C
100
AcDbEntity
  8
Visible (ANSI)
100
AcDbLine
 10
1.116161866247709
 20
10.84093433717814
 30
0.0
 11
1.071072909794183
 21
10.41194157261874
 31
0.0
  0
LINE
  5
384
330
6C
100
AcDbEntity
  8
Visible (ANSI)
100
AcDbLine
 10
2.156503596336288
 20
10.20539474998769
 30
0.0
 11
2.298018504158072
 21
10.20539474998769
 31
0.0
  0
LINE
  5
385
330
6C
100
AcDbEntity
  8
Visible (ANSI)
100
AcDbLine
 10
2.298018504158072
 20
10.14839474998769
 30
0.0
 11
2.156503596336288
 21
10.14839474998769
 31
0.0
  0
LINE
  5
386
330
6C
100
AcDbEntity
  8
Visible (ANSI)
100
AcDbLine
 10
1.037741428675157
 20
11.0536651884057
 30
0.0
 11
1.005951862614347
 21
11.151503412525
 31
0.0
  0
LINE
  5
387
330
6C
100
AcDbEntity
  8
Visible (ANSI)
100
AcDbLine
 10
1.06016208404317
 20
11.16911738120437
 30
0.0
 11
1.09195165010398
 21
11.07127915708507
 31
0.0
  0
LINE
  5
388
330
6C
100
AcDbEntity
  8
Visible (ANSI)
100
AcDbLine
 10
5.079626778901829
 20
10.20589474998769
 30
0.0
 11
5.079126778901828
 21
10.20589474998769
 31
0.0
  0
LINE
  5
389
330
6C
100
AcDbEntity
  8
Visible (ANSI)
100
AcDbLine
 10
5.079126778901828
 20
10.20539474998769
 30
0.0
 11
5.079126778901828
 21
10.20589474998769
 31
0.0
  0
LINE
  5
38A
330
6C
100
AcDbEntity
  8
Visible (ANSI)
100
AcDbLine
 10
5.079626778901829
 20
10.20539474998769
 30
0.0
 11
5.079626778901829
 21
10.20589474998769
 31
0.0
  0
LINE
  5
38B
330
6C
100
AcDbEntity
  8
Hidden (ANSI)
 48
0.0630375593900681
100
AcDbLine
 10
6.166891910526811
 20
10.20039474998769
 30
0.0
 11
6.100595202574755
 21
10.20039474998769
 31
0.0
  0
LINE
  5
38C
330
6C
100
AcDbEntity
  8
Hidden (ANSI)
 48
0.030532967299223
100
AcDbLine
 10
6.189691780039539
 20
10.20039474998769
 30
0.0
 11
6.166891910526811
 21
10.20039474998769
 31
0.0
  0
LINE
  5
38D
330
6C
100
AcDbEntity
  8
Hidden (ANSI)
 48
0.0046617416664958
100
AcDbLine
 10
6.123948466978568
 20
10.20539474998769
 30
0.0
 11
6.123948466978568
 21
10.20039474998769
 31
0.0
  0
LINE
  5
38E
330
6C
100
AcDbEntity
  8
Hidden (ANSI)
 48
0.0046617416664958
100
AcDbLine
 10
6.121070813544922
 20
10.20539474998769
 30
0.0
 11
6.121070813544922
 21
10.20039474998769
 31
0.0
  0
LINE
  5
38F
330
6C
100
AcDbEntity
  8
Hidden (ANSI)
 48
0.0046617416664958
100
AcDbLine
 10
6.100595202574755
 20
10.20539474998769
 30
0.0
 11
6.100595202574755
 21
10.20039474998769
 31
0.0
  0
LINE
  5
390
330
6C
100
AcDbEntity
  8
Hidden (ANSI)
 48
0.0046617416664958
100
AcDbLine
 10
6.166891910526811
 20
10.20539474998769
 30
0.0
 11
6.166891910526811
 21
10.20039474998769
 31
0.0
  0
LINE
  5
391
330
6C
100
AcDbEntity
  8
Hidden (ANSI)
 48
0.0046617416664958
100
AcDbLine
 10
6.189691780039539
 20
10.20539474998769
 30
0.0
 11
6.189691780039539
 21
10.20039474998769
 31
0.0
  0
LINE
  5
392
330
6C
100
AcDbEntity
  8
Hidden (ANSI)
 48
0.0046617416664958
100
AcDbLine
 10
6.16578512074464
 20
10.20539474998769
 30
0.0
 11
6.16578512074464
 21
10.20039474998769
 31
0.0
  0
LINE
  5
393
330
6C
100
AcDbEntity
  8
Hidden (ANSI)
 48
0.0046617416664958
100
AcDbLine
 10
6.186814126605893
 20
10.20539474998769
 30
0.0
 11
6.186814126605893
 21
10.20039474998769
 31
0.0
  0
LINE
  5
394
330
6C
100
AcDbEntity
  8
Hidden (ANSI)
 48
0.0027459333650768
100
AcDbLine
 10
6.233631334391736
 20
10.20039474998769
 30
0.0
 11
6.230643001979874
 21
10.20039474998769
 31
0.0
  0
LINE
  5
395
330
6C
100
AcDbEntity
  8
Hidden (ANSI)
 48
0.0900288671255112
100
AcDbLine
 10
6.275910704070677
 20
10.20039474998769
 30
0.0
 11
6.233631334391736
 21
10.20039474998769
 31
0.0
  0
LINE
  5
396
330
6C
100
AcDbEntity
  8
Hidden (ANSI)
 48
0.0900759994983673
100
AcDbLine
 10
6.318300752727835
 20
10.20039474998769
 30
0.0
 11
6.275910704070677
 21
10.20039474998769
 31
0.0
  0
LINE
  5
397
330
6C
100
AcDbEntity
  8
Hidden (ANSI)
 48
0.0026405283715576
100
AcDbLine
 10
6.321178406161481
 20
10.20039474998769
 30
0.0
 11
6.318300752727835
 21
10.20039474998769
 31
0.0
  0
LINE
  5
398
330
6C
100
AcDbEntity
  8
Hidden (ANSI)
 48
0.0046617416664958
100
AcDbLine
 10
6.233631334391736
 20
10.20539474998769
 30
0.0
 11
6.233631334391736
 21
10.20039474998769
 31
0.0
  0
LINE
  5
399
330
6C
100
AcDbEntity
  8
Hidden (ANSI)
 48
0.0046617416664958
100
AcDbLine
 10
6.275910704070677
 20
10.20539474998769
 30
0.0
 11
6.275910704070677
 21
10.20039474998769
 31
0.0
  0
LINE
  5
39A
330
6C
100
AcDbEntity
  8
Hidden (ANSI)
 48
0.0046617416664958
100
AcDbLine
 10
6.318300752727835
 20
10.20539474998769
 30
0.0
 11
6.318300752727835
 21
10.20039474998769
 31
0.0
  0
LINE
  5
39B
330
6C
100
AcDbEntity
  8
Hidden (ANSI)
 48
0.0046617416664958
100
AcDbLine
 10
6.321178406161481
 20
10.20539474998769
 30
0.0
 11
6.321178406161481
 21
10.20039474998769
 31
0.0
  0
LINE
  5
39C
330
6C
100
AcDbEntity
  8
Hidden (ANSI)
 48
0.0046617416664958
100
AcDbLine
 10
6.318079394771401
 20
10.20539474998769
 30
0.0
 11
6.318079394771401
 21
10.20039474998769
 31
0.0
  0
LINE
  5
39D
330
6C
100
AcDbEntity
  8
Hidden (ANSI)
 48
0.0046617416664958
100
AcDbLine
 10
6.233742013369953
 20
10.20539474998769
 30
0.0
 11
6.233742013369953
 21
10.20039474998769
 31
0.0
  0
LINE
  5
39E
330
6C
100
AcDbEntity
  8
Hidden (ANSI)
 48
0.0046617416664958
100
AcDbLine
 10
6.230643001979874
 20
10.20539474998769
 30
0.0
 11
6.230643001979874
 21
10.20039474998769
 31
0.0
  0
LINE
  5
39F
330
6C
100
AcDbEntity
  8
Hidden (ANSI)
 48
0.0046617416664958
100
AcDbLine
 10
6.407397330192618
 20
10.20539474998769
 30
0.0
 11
6.407397330192618
 21
10.20039474998769
 31
0.0
  0
LINE
  5
3A0
330
6C
100
AcDbEntity
  8
Hidden (ANSI)
 48
0.0046617416664958
100
AcDbLine
 10
6.365117960513678
 20
10.20539474998769
 30
0.0
 11
6.365117960513678
 21
10.20039474998769
 31
0.0
  0
LINE
  5
3A1
330
6C
100
AcDbEntity
  8
Hidden (ANSI)
 48
0.0046617416664958
100
AcDbLine
 10
6.451226205566599
 20
10.20539474998769
 30
0.0
 11
6.451226205566599
 21
10.20039474998769
 31
0.0
  0
LINE
  5
3A2
330
6C
100
AcDbEntity
  8
Hidden (ANSI)
 48
0.0847509726881981
100
AcDbLine
 10
6.451226205566599
 20
10.20039474998769
 30
0.0
 11
6.362129628101815
 21
10.20039474998769
 31
0.0
  0
LINE
  5
3A3
330
6C
100
AcDbEntity
  8
Hidden (ANSI)
 48
0.0046617416664958
100
AcDbLine
 10
6.362129628101815
 20
10.20539474998769
 30
0.0
 11
6.362129628101815
 21
10.20039474998769
 31
0.0
  0
LINE
  5
3A4
330
6C
100
AcDbEntity
  8
Hidden (ANSI)
 48
0.0045764991082251
100
AcDbLine
 10
4.914467425272349
 20
10.20039474998769
 30
0.0
 11
4.912392161460548
 21
10.20039474998769
 31
0.0
  0
LINE
  5
3A5
330
6C
100
AcDbEntity
  8
Hidden (ANSI)
 48
0.1403492540121078
100
AcDbLine
 10
5.048126778901829
 20
10.20039474998769
 30
0.0
 11
4.914467425272349
 21
10.20039474998769
 31
0.0
  0
LINE
  5
3A6
330
6C
100
AcDbEntity
  8
Hidden (ANSI)
 48
0.2439098954200745
100
AcDbLine
 10
4.912392161460548
 20
10.20039474998769
 30
0.0
 11
4.656172994184082
 21
10.20039474998769
 31
0.0
  0
LINE
  5
3A7
330
6C
100
AcDbEntity
  8
Hidden (ANSI)
 48
0.0046617416664958
100
AcDbLine
 10
4.656172994184082
 20
10.20539474998769
 30
0.0
 11
4.656172994184082
 21
10.20039474998769
 31
0.0
  0
LINE
  5
3A8
330
6C
100
AcDbEntity
  8
Hidden (ANSI)
 48
0.0046617416664958
100
AcDbLine
 10
5.025785029131628
 20
10.20539474998769
 30
0.0
 11
5.025785029131628
 21
10.20039474998769
 31
0.0
  0
LINE
  5
3A9
330
6C
100
AcDbEntity
  8
Hidden (ANSI)
 48
0.0046617416664958
100
AcDbLine
 10
4.912392161460548
 20
10.20539474998769
 30
0.0
 11
4.912392161460548
 21
10.20039474998769
 31
0.0
  0
LINE
  5
3AA
330
6C
100
AcDbEntity
  8
Hidden (ANSI)
 48
0.0046617416664958
100
AcDbLine
 10
4.914467425272349
 20
10.20539474998769
 30
0.0
 11
4.914467425272349
 21
10.20039474998769
 31
0.0
  0
LINE
  5
3AB
330
6C
100
AcDbEntity
  8
Hidden (ANSI)
 48
0.0046617416664958
100
AcDbLine
 10
5.048126778901829
 20
10.20539474998769
 30
0.0
 11
5.048126778901829
 21
10.20039474998769
 31
0.0
  0
LINE
  5
3AC
330
6C
100
AcDbEntity
  8
Hidden (ANSI)
 48
0.0046617416664958
100
AcDbLine
 10
4.912354333963645
 20
10.20539474998769
 30
0.0
 11
4.912354333963645
 21
10.20039474998769
 31
0.0
  0
LINE
  5
3AD
330
6C
100
AcDbEntity
  8
Hidden (ANSI)
 48
0.0046617416664958
100
AcDbLine
 10
6.493616254223756
 20
10.20539474998769
 30
0.0
 11
6.493616254223756
 21
10.20039474998769
 31
0.0
  0
LINE
  5
3AE
330
6C
100
AcDbEntity
  8
Hidden (ANSI)
 48
0.0046617416664958
100
AcDbLine
 10
6.496825944592053
 20
10.20539474998769
 30
0.0
 11
6.496825944592053
 21
10.20039474998769
 31
0.0
  0
LINE
  5
3AF
330
6C
100
AcDbEntity
  8
Hidden (ANSI)
 48
0.0046617416664958
100
AcDbLine
 10
6.581274004971717
 20
10.20539474998769
 30
0.0
 11
6.581274004971717
 21
10.20039474998769
 31
0.0
  0
LINE
  5
3B0
330
6C
100
AcDbEntity
  8
Hidden (ANSI)
 48
0.0046617416664958
100
AcDbLine
 10
6.584151658405364
 20
10.20539474998769
 30
0.0
 11
6.584151658405364
 21
10.20039474998769
 31
0.0
  0
LINE
  5
3B1
330
6C
100
AcDbEntity
  8
Hidden (ANSI)
 48
0.0028513381257653
100
AcDbLine
 10
6.584151658405364
 20
10.20039474998769
 30
0.0
 11
6.581052647015284
 21
10.20039474998769
 31
0.0
  0
LINE
  5
3B2
330
6C
100
AcDbEntity
  8
Hidden (ANSI)
 48
0.0046617416664958
100
AcDbLine
 10
6.581052647015284
 20
10.20539474998769
 30
0.0
 11
6.581052647015284
 21
10.20039474998769
 31
0.0
  0
LINE
  5
3B3
330
6C
100
AcDbEntity
  8
Hidden (ANSI)
 48
0.1449302285909653
100
AcDbLine
 10
6.581052647015284
 20
10.20039474998769
 30
0.0
 11
6.49660458663562
 21
10.20039474998769
 31
0.0
  0
LINE
  5
3B4
330
6C
100
AcDbEntity
  8
Hidden (ANSI)
 48
0.0046617416664958
100
AcDbLine
 10
6.49660458663562
 20
10.20539474998769
 30
0.0
 11
6.49660458663562
 21
10.20039474998769
 31
0.0
  0
LINE
  5
3B5
330
6C
100
AcDbEntity
  8
Hidden (ANSI)
 48
0.0027459333650768
100
AcDbLine
 10
6.49660458663562
 20
10.20039474998769
 30
0.0
 11
6.493616254223756
 21
10.20039474998769
 31
0.0
  0
LINE
  5
3B6
330
6C
100
AcDbEntity
  8
Hidden (ANSI)
 48
0.2439098954200745
100
AcDbLine
 10
5.502580563619575
 20
10.20039474998769
 30
0.0
 11
5.246361396343109
 21
10.20039474998769
 31
0.0
  0
LINE
  5
3B7
330
6C
100
AcDbEntity
  8
Hidden (ANSI)
 48
0.1403492540121078
100
AcDbLine
 10
5.244286132531309
 20
10.20039474998769
 30
0.0
 11
5.110626778901829
 21
10.20039474998769
 31
0.0
  0
LINE
  5
3B8
330
6C
100
AcDbEntity
  8
Hidden (ANSI)
 48
0.0045764991082251
100
AcDbLine
 10
5.246361396343109
 20
10.20039474998769
 30
0.0
 11
5.244286132531309
 21
10.20039474998769
 31
0.0
  0
LINE
  5
3B9
330
6C
100
AcDbEntity
  8
Hidden (ANSI)
 48
0.0046617416664958
100
AcDbLine
 10
5.110626778901829
 20
10.20539474998769
 30
0.0
 11
5.110626778901829
 21
10.20039474998769
 31
0.0
  0
LINE
  5
3BA
330
6C
100
AcDbEntity
  8
Hidden (ANSI)
 48
0.0046617416664958
100
AcDbLine
 10
5.244286132531309
 20
10.20539474998769
 30
0.0
 11
5.244286132531309
 21
10.20039474998769
 31
0.0
  0
LINE
  5
3BB
330
6C
100
AcDbEntity
  8
Hidden (ANSI)
 48
0.0046617416664958
100
AcDbLine
 10
5.246361396343109
 20
10.20539474998769
 30
0.0
 11
5.246361396343109
 21
10.20039474998769
 31
0.0
  0
LINE
  5
3BC
330
6C
100
AcDbEntity
  8
Hidden (ANSI)
 48
0.0046617416664958
100
AcDbLine
 10
5.132968528672029
 20
10.20539474998769
 30
0.0
 11
5.132968528672029
 21
10.20039474998769
 31
0.0
  0
LINE
  5
3BD
330
6C
100
AcDbEntity
  8
Hidden (ANSI)
 48
0.0046617416664958
100
AcDbLine
 10
5.502580563619575
 20
10.20539474998769
 30
0.0
 11
5.502580563619575
 21
10.20039474998769
 31
0.0
  0
LINE
  5
3BE
330
6C
100
AcDbEntity
  8
Hidden (ANSI)
 48
0.0046617416664958
100
AcDbLine
 10
5.246399223840012
 20
10.20539474998769
 30
0.0
 11
5.246399223840012
 21
10.20039474998769
 31
0.0
  0
LINE
  5
3BF
330
6C
100
AcDbEntity
  8
Hidden (ANSI)
 48
0.0046617416664958
100
AcDbLine
 10
6.668931755719679
 20
10.20539474998769
 30
0.0
 11
6.668931755719679
 21
10.20039474998769
 31
0.0
  0
LINE
  5
3C0
330
6C
100
AcDbEntity
  8
Hidden (ANSI)
 48
0.0402700901031494
100
AcDbLine
 10
6.668931755719679
 20
10.20039474998769
 30
0.0
 11
6.626541707062521
 21
10.20039474998769
 31
0.0
  0
LINE
  5
3C1
330
6C
100
AcDbEntity
  8
Hidden (ANSI)
 48
0.0046617416664958
100
AcDbLine
 10
6.626541707062521
 20
10.20539474998769
 30
0.0
 11
6.626541707062521
 21
10.20039474998769
 31
0.0
  0
LINE
  5
3C2
330
6C
100
AcDbEntity
  8
Hidden (ANSI)
 48
0.0046617416664958
100
AcDbLine
 10
6.714199457810481
 20
10.20539474998769
 30
0.0
 11
6.714199457810481
 21
10.20039474998769
 31
0.0
  0
LINE
  5
3C3
330
6C
100
AcDbEntity
  8
Hidden (ANSI)
 48
0.0402700901031494
100
AcDbLine
 10
6.714199457810481
 20
10.20039474998769
 30
0.0
 11
6.671809409153324
 21
10.20039474998769
 31
0.0
  0
LINE
  5
3C4
330
6C
100
AcDbEntity
  8
Hidden (ANSI)
 48
0.0046617416664958
100
AcDbLine
 10
6.671809409153324
 20
10.20539474998769
 30
0.0
 11
6.671809409153324
 21
10.20039474998769
 31
0.0
  0
LINE
  5
3C5
330
6C
100
AcDbEntity
  8
Hidden (ANSI)
 48
0.0026405283715576
100
AcDbLine
 10
6.671809409153324
 20
10.20039474998769
 30
0.0
 11
6.668931755719679
 21
10.20039474998769
 31
0.0
  0
LINE
  5
3C6
330
6C
100
AcDbEntity
  8
Hidden (ANSI)
 48
0.0847509726881981
100
AcDbLine
 10
5.66230644883495
 20
10.20039474998769
 30
0.0
 11
5.573209871370166
 21
10.20039474998769
 31
0.0
  0
LINE
  5
3C7
330
6C
100
AcDbEntity
  8
Hidden (ANSI)
 48
0.0046617416664958
100
AcDbLine
 10
5.573209871370166
 20
10.20539474998769
 30
0.0
 11
5.573209871370166
 21
10.20039474998769
 31
0.0
  0
LINE
  5
3C8
330
6C
100
AcDbEntity
  8
Hidden (ANSI)
 48
0.0046617416664958
100
AcDbLine
 10
5.66230644883495
 20
10.20539474998769
 30
0.0
 11
5.66230644883495
 21
10.20039474998769
 31
0.0
  0
LINE
  5
3C9
330
6C
100
AcDbEntity
  8
Hidden (ANSI)
 48
0.0046617416664958
100
AcDbLine
 10
5.576198203782029
 20
10.20539474998769
 30
0.0
 11
5.576198203782029
 21
10.20039474998769
 31
0.0
  0
LINE
  5
3CA
330
6C
100
AcDbEntity
  8
Hidden (ANSI)
 48
0.0046617416664958
100
AcDbLine
 10
5.618477573460969
 20
10.20539474998769
 30
0.0
 11
5.618477573460969
 21
10.20039474998769
 31
0.0
  0
LINE
  5
3CB
330
6C
100
AcDbEntity
  8
Hidden (ANSI)
 48
0.0046617416664958
100
AcDbLine
 10
6.891064465001444
 20
10.20539474998769
 30
0.0
 11
6.891064465001444
 21
10.20039474998769
 31
0.0
  0
LINE
  5
3CC
330
6C
100
AcDbEntity
  8
Hidden (ANSI)
 48
0.0046617416664958
100
AcDbLine
 10
6.977172710054365
 20
10.20539474998769
 30
0.0
 11
6.977172710054365
 21
10.20039474998769
 31
0.0
  0
LINE
  5
3CD
330
6C
100
AcDbEntity
  8
Hidden (ANSI)
 48
0.0847509726881981
100
AcDbLine
 10
6.977172710054365
 20
10.20039474998769
 30
0.0
 11
6.88807613258958
 21
10.20039474998769
 31
0.0
  0
LINE
  5
3CE
330
6C
100
AcDbEntity
  8
Hidden (ANSI)
 48
0.0046617416664958
100
AcDbLine
 10
6.88807613258958
 20
10.20539474998769
 30
0.0
 11
6.88807613258958
 21
10.20039474998769
 31
0.0
  0
LINE
  5
3CF
330
6C
100
AcDbEntity
  8
Hidden (ANSI)
 48
0.0027459333650768
100
AcDbLine
 10
5.70768482990397
 20
10.20039474998769
 30
0.0
 11
5.704696497492108
 21
10.20039474998769
 31
0.0
  0
LINE
  5
3D0
330
6C
100
AcDbEntity
  8
Hidden (ANSI)
 48
0.0900288671255112
100
AcDbLine
 10
5.749964199582911
 20
10.20039474998769
 30
0.0
 11
5.70768482990397
 21
10.20039474998769
 31
0.0
  0
LINE
  5
3D1
330
6C
100
AcDbEntity
  8
Hidden (ANSI)
 48
0.0900759994983673
100
AcDbLine
 10
5.792354248240068
 20
10.20039474998769
 30
0.0
 11
5.749964199582911
 21
10.20039474998769
 31
0.0
  0
LINE
  5
3D2
330
6C
100
AcDbEntity
  8
Hidden (ANSI)
 48
0.0026405283715576
100
AcDbLine
 10
5.795231901673714
 20
10.20039474998769
 30
0.0
 11
5.792354248240068
 21
10.20039474998769
 31
0.0
  0
LINE
  5
3D3
330
6C
100
AcDbEntity
  8
Hidden (ANSI)
 48
0.0046617416664958
100
AcDbLine
 10
5.70768482990397
 20
10.20539474998769
 30
0.0
 11
5.70768482990397
 21
10.20039474998769
 31
0.0
  0
LINE
  5
3D4
330
6C
100
AcDbEntity
  8
Hidden (ANSI)
 48
0.0046617416664958
100
AcDbLine
 10
5.749964199582911
 20
10.20539474998769
 30
0.0
 11
5.749964199582911
 21
10.20039474998769
 31
0.0
  0
LINE
  5
3D5
330
6C
100
AcDbEntity
  8
Hidden (ANSI)
 48
0.0046617416664958
100
AcDbLine
 10
5.792354248240068
 20
10.20539474998769
 30
0.0
 11
5.792354248240068
 21
10.20039474998769
 31
0.0
  0
LINE
  5
3D6
330
6C
100
AcDbEntity
  8
Hidden (ANSI)
 48
0.0046617416664958
100
AcDbLine
 10
5.795231901673714
 20
10.20539474998769
 30
0.0
 11
5.795231901673714
 21
10.20039474998769
 31
0.0
  0
LINE
  5
3D7
330
6C
100
AcDbEntity
  8
Hidden (ANSI)
 48
0.0046617416664958
100
AcDbLine
 10
5.792132890283635
 20
10.20539474998769
 30
0.0
 11
5.792132890283635
 21
10.20039474998769
 31
0.0
  0
LINE
  5
3D8
330
6C
100
AcDbEntity
  8
Hidden (ANSI)
 48
0.0046617416664958
100
AcDbLine
 10
5.707795508882187
 20
10.20539474998769
 30
0.0
 11
5.707795508882187
 21
10.20039474998769
 31
0.0
  0
LINE
  5
3D9
330
6C
100
AcDbEntity
  8
Hidden (ANSI)
 48
0.0046617416664958
100
AcDbLine
 10
5.704696497492108
 20
10.20539474998769
 30
0.0
 11
5.704696497492108
 21
10.20039474998769
 31
0.0
  0
LINE
  5
3DA
330
6C
100
AcDbEntity
  8
Hidden (ANSI)
 48
0.0046617416664958
100
AcDbLine
 10
7.044354849832159
 20
10.20539474998769
 30
0.0
 11
7.044354849832159
 21
10.20039474998769
 31
0.0
  0
LINE
  5
3DB
330
6C
100
AcDbEntity
  8
Hidden (ANSI)
 48
0.0046617416664958
100
AcDbLine
 10
7.064830460802326
 20
10.20539474998769
 30
0.0
 11
7.064830460802326
 21
10.20039474998769
 31
0.0
  0
LINE
  5
3DC
330
6C
100
AcDbEntity
  8
Hidden (ANSI)
 48
0.0416403561830521
100
AcDbLine
 10
7.064830460802326
 20
10.20039474998769
 30
0.0
 11
7.021001585428346
 21
10.20039474998769
 31
0.0
  0
LINE
  5
3DD
330
6C
100
AcDbEntity
  8
Hidden (ANSI)
 48
0.0046617416664958
100
AcDbLine
 10
7.021001585428346
 20
10.20539474998769
 30
0.0
 11
7.021001585428346
 21
10.20039474998769
 31
0.0
  0
LINE
  5
3DE
330
6C
100
AcDbEntity
  8
Hidden (ANSI)
 48
0.0046617416664958
100
AcDbLine
 10
7.041477196398512
 20
10.20539474998769
 30
0.0
 11
7.041477196398512
 21
10.20039474998769
 31
0.0
  0
LINE
  5
3DF
330
6C
100
AcDbEntity
  8
Hidden (ANSI)
 48
0.0630375593900681
100
AcDbLine
 10
5.903918658282928
 20
10.20039474998769
 30
0.0
 11
5.837621950330872
 21
10.20039474998769
 31
0.0
  0
LINE
  5
3E0
330
6C
100
AcDbEntity
  8
Hidden (ANSI)
 48
0.030532967299223
100
AcDbLine
 10
5.926718527795656
 20
10.20039474998769
 30
0.0
 11
5.903918658282928
 21
10.20039474998769
 31
0.0
  0
LINE
  5
3E1
330
6C
100
AcDbEntity
  8
Hidden (ANSI)
 48
0.0046617416664958
100
AcDbLine
 10
5.860975214734684
 20
10.20539474998769
 30
0.0
 11
5.860975214734684
 21
10.20039474998769
 31
0.0
  0
LINE
  5
3E2
330
6C
100
AcDbEntity
  8
Hidden (ANSI)
 48
0.0046617416664958
100
AcDbLine
 10
5.85809756130104
 20
10.20539474998769
 30
0.0
 11
5.85809756130104
 21
10.20039474998769
 31
0.0
  0
LINE
  5
3E3
330
6C
100
AcDbEntity
  8
Hidden (ANSI)
 48
0.0046617416664958
100
AcDbLine
 10
5.837621950330872
 20
10.20539474998769
 30
0.0
 11
5.837621950330872
 21
10.20039474998769
 31
0.0
  0
LINE
  5
3E4
330
6C
100
AcDbEntity
  8
Hidden (ANSI)
 48
0.0046617416664958
100
AcDbLine
 10
5.903918658282928
 20
10.20539474998769
 30
0.0
 11
5.903918658282928
 21
10.20039474998769
 31
0.0
  0
LINE
  5
3E5
330
6C
100
AcDbEntity
  8
Hidden (ANSI)
 48
0.0046617416664958
100
AcDbLine
 10
5.926718527795656
 20
10.20539474998769
 30
0.0
 11
5.926718527795656
 21
10.20039474998769
 31
0.0
  0
LINE
  5
3E6
330
6C
100
AcDbEntity
  8
Hidden (ANSI)
 48
0.0046617416664958
100
AcDbLine
 10
5.902811868500757
 20
10.20539474998769
 30
0.0
 11
5.902811868500757
 21
10.20039474998769
 31
0.0
  0
LINE
  5
3E7
330
6C
100
AcDbEntity
  8
Hidden (ANSI)
 48
0.0046617416664958
100
AcDbLine
 10
5.92384087436201
 20
10.20539474998769
 30
0.0
 11
5.92384087436201
 21
10.20039474998769
 31
0.0
  0
LINE
  5
3E8
330
6C
100
AcDbEntity
  8
Hidden (ANSI)
 48
0.0046617416664958
100
AcDbLine
 10
5.905357484999751
 20
10.20539474998769
 30
0.0
 11
5.905357484999751
 21
10.20039474998769
 31
0.0
  0
LINE
  5
3E9
330
6C
100
AcDbEntity
  8
Hidden (ANSI)
 48
0.0046617416664958
100
AcDbLine
 10
7.107220509459484
 20
10.20539474998769
 30
0.0
 11
7.107220509459484
 21
10.20039474998769
 31
0.0
  0
LINE
  5
3EA
330
6C
100
AcDbEntity
  8
Hidden (ANSI)
 48
0.0046617416664958
100
AcDbLine
 10
7.110430199827781
 20
10.20539474998769
 30
0.0
 11
7.110430199827781
 21
10.20039474998769
 31
0.0
  0
LINE
  5
3EB
330
6C
100
AcDbEntity
  8
Hidden (ANSI)
 48
0.0046617416664958
100
AcDbLine
 10
7.194878260207445
 20
10.20539474998769
 30
0.0
 11
7.194878260207445
 21
10.20039474998769
 31
0.0
  0
LINE
  5
3EC
330
6C
100
AcDbEntity
  8
Hidden (ANSI)
 48
0.0046617416664958
100
AcDbLine
 10
7.19775591364109
 20
10.20539474998769
 30
0.0
 11
7.19775591364109
 21
10.20039474998769
 31
0.0
  0
LINE
  5
3ED
330
6C
100
AcDbEntity
  8
Hidden (ANSI)
 48
0.0028513381257653
100
AcDbLine
 10
7.19775591364109
 20
10.20039474998769
 30
0.0
 11
7.19465690225101
 21
10.20039474998769
 31
0.0
  0
LINE
  5
3EE
330
6C
100
AcDbEntity
  8
Hidden (ANSI)
 48
0.0046617416664958
100
AcDbLine
 10
7.19465690225101
 20
10.20539474998769
 30
0.0
 11
7.19465690225101
 21
10.20039474998769
 31
0.0
  0
LINE
  5
3EF
330
6C
100
AcDbEntity
  8
Hidden (ANSI)
 48
0.1449302285909653
100
AcDbLine
 10
7.19465690225101
 20
10.20039474998769
 30
0.0
 11
7.110208841871346
 21
10.20039474998769
 31
0.0
  0
LINE
  5
3F0
330
6C
100
AcDbEntity
  8
Hidden (ANSI)
 48
0.0046617416664958
100
AcDbLine
 10
7.110208841871346
 20
10.20539474998769
 30
0.0
 11
7.110208841871346
 21
10.20039474998769
 31
0.0
  0
LINE
  5
3F1
330
6C
100
AcDbEntity
  8
Hidden (ANSI)
 48
0.0027459333650768
100
AcDbLine
 10
7.110208841871346
 20
10.20039474998769
 30
0.0
 11
7.107220509459484
 21
10.20039474998769
 31
0.0
  0
LINE
  5
3F2
330
6C
100
AcDbEntity
  8
Hidden (ANSI)
 48
0.0847509726881981
100
AcDbLine
 10
6.056766327200775
 20
10.20039474998769
 30
0.0
 11
5.967669749735991
 21
10.20039474998769
 31
0.0
  0
LINE
  5
3F3
330
6C
100
AcDbEntity
  8
Hidden (ANSI)
 48
0.0046617416664958
100
AcDbLine
 10
5.967669749735991
 20
10.20539474998769
 30
0.0
 11
5.967669749735991
 21
10.20039474998769
 31
0.0
  0
LINE
  5
3F4
330
6C
100
AcDbEntity
  8
Hidden (ANSI)
 48
0.0046617416664958
100
AcDbLine
 10
6.056766327200775
 20
10.20539474998769
 30
0.0
 11
6.056766327200775
 21
10.20039474998769
 31
0.0
  0
LINE
  5
3F5
330
6C
100
AcDbEntity
  8
Hidden (ANSI)
 48
0.0046617416664958
100
AcDbLine
 10
5.970658082147854
 20
10.20539474998769
 30
0.0
 11
5.970658082147854
 21
10.20039474998769
 31
0.0
  0
LINE
  5
3F6
330
6C
100
AcDbEntity
  8
Hidden (ANSI)
 48
0.0046617416664958
100
AcDbLine
 10
6.012937451826794
 20
10.20539474998769
 30
0.0
 11
6.012937451826794
 21
10.20039474998769
 31
0.0
  0
LINE
  5
3F7
330
6C
100
AcDbEntity
  8
Hidden (ANSI)
 48
0.0046617416664958
100
AcDbLine
 10
7.283974837672229
 20
10.20539474998769
 30
0.0
 11
7.283974837672229
 21
10.20039474998769
 31
0.0
  0
LINE
  5
3F8
330
6C
100
AcDbEntity
  8
Hidden (ANSI)
 48
0.0046617416664958
100
AcDbLine
 10
7.241695467993287
 20
10.20539474998769
 30
0.0
 11
7.241695467993287
 21
10.20039474998769
 31
0.0
  0
LINE
  5
3F9
330
6C
100
AcDbEntity
  8
Hidden (ANSI)
 48
0.0046617416664958
100
AcDbLine
 10
7.327803713046209
 20
10.20539474998769
 30
0.0
 11
7.327803713046209
 21
10.20039474998769
 31
0.0
  0
LINE
  5
3FA
330
6C
100
AcDbEntity
  8
Hidden (ANSI)
 48
0.0847509726881981
100
AcDbLine
 10
7.327803713046209
 20
10.20039474998769
 30
0.0
 11
7.238707135581425
 21
10.20039474998769
 31
0.0
  0
LINE
  5
3FB
330
6C
100
AcDbEntity
  8
Hidden (ANSI)
 48
0.0046617416664958
100
AcDbLine
 10
7.238707135581425
 20
10.20539474998769
 30
0.0
 11
7.238707135581425
 21
10.20039474998769
 31
0.0
  0
SPLINE
  5
3FC
330
6C
100
AcDbEntity
  8
Visible (ANSI)
100
AcDbSpline
210
0.0
220
0.0
230
1.0
 70
     8
 71
     3
 72
    10
 73
     6
 74
     0
 42
0.0000000001
 43
0.0000000001
 40
0.0
 40
0.0
 40
0.0
 40
0.0
 40
0.0538633932584973
 40
0.0538633932584973
 40
0.1077535183989789
 40
0.1077535183989789
 40
0.1077535183989789
 40
0.1077535183989789
 10
1.09195165010398
 20
11.07127915708507
 30
0.0
 10
1.094094308379435
 20
11.06468473298491
 30
0.0
 10
1.096079532778149
 20
11.05816055349826
 30
0.0
 10
1.099813893377263
 20
11.0450368815848
 30
0.0
 10
1.10153921512305
 20
11.03852474436649
 30
0.0
 10
1.103173235328275
 20
11.03186391894463
 30
0.0
  0
SPLINE
  5
3FD
330
6C
100
AcDbEntity
  8
Visible (ANSI)
100
AcDbSpline
210
0.0
220
0.0
230
1.0
 70
     8
 71
     3
 72
    10
 73
     6
 74
     0
 42
0.0000000001
 43
0.0000000001
 40
0.0
 40
0.0
 40
0.0
 40
0.0
 40
0.2442829776917912
 40
0.2442829776917912
 40
0.4883338098094154
 40
0.4883338098094154
 40
0.4883338098094154
 40
0.4883338098094154
 10
1.103173235328272
 20
11.03186391894464
 30
0.0
 10
1.110532011604294
 20
11.00186702910426
 30
0.0
 10
1.115406358691306
 20
10.97135475887727
 30
0.0
 10
1.120013735573629
 20
10.90874420431489
 30
0.0
 10
1.119676186677907
 20
10.87710243894226
 30
0.0
 10
1.116631280835186
 20
10.84558842670514
 30
0.0
  0
ARC
  5
3FE
330
6C
100
AcDbEntity
  8
Visible (ANSI)
100
AcDbCircle
 10
0.562213170607504
 20
10.89915669121005
 30
0.0
 40
0.5569999999196586
100
AcDbArc
 50
353.9999999999787
 51
354.4811730533873
  0
ARC
  5
3FF
330
6C
100
AcDbEntity
  8
Visible (ANSI)
100
AcDbCircle
 10
0.5622131704053601
 20
10.8991566912305
 30
0.0
 40
0.5000000001228339
100
AcDbArc
 50
354.000000000065
 51
354.4811730532866
  0
SPLINE
  5
400
330
6C
100
AcDbEntity
  8
Visible (ANSI)
100
AcDbSpline
210
0.0
220
0.0
230
1.0
 70
     8
 71
     3
 72
    10
 73
     6
 74
     0
 42
0.0000000001
 43
0.0000000001
 40
0.0
 40
0.0
 40
0.0
 40
0.0
 40
0.2167770922970784
 40
0.2167770922970784
 40
0.4346531343386162
 40
0.4346531343386162
 40
0.4346531343386162
 40
0.4346531343386162
 10
1.059895495758823
 20
10.85107027783126
 30
0.0
 10
1.062631462392161
 20
10.87938684668986
 30
0.0
 10
1.062929409150517
 20
10.90779571022976
 30
0.0
 10
1.058789826037625
 20
10.96404932287654
 30
0.0
 10
1.054404962109218
 20
10.99141916057573
 30
0.0
 10
1.047814664962672
 20
11.01828346655612
 30
0.0
  0
SPLINE
  5
401
330
6C
100
AcDbEntity
  8
Visible (ANSI)
100
AcDbSpline
210
0.0
220
0.0
230
1.0
 70
     8
 71
     3
 72
    10
 73
     6
 74
     0
 42
0.0000000001
 43
0.0000000001
 40
0.0
 40
0.0
 40
0.0
 40
0.0
 40
0.0491119350268707
 40
0.0491119350268707
 40
0.098101628242853
 40
0.098101628242853
 40
0.098101628242853
 40
0.098101628242853
 10
1.047814664962673
 20
11.01828346655611
 30
0.0
 10
1.046347889591713
 20
11.02426254481218
 30
0.0
 10
1.044800626531917
 20
11.03010301529436
 30
0.0
 10
1.04144870514652
 20
11.04188268021266
 30
0.0
 10
1.039668048361148
 20
11.04773566271574
 30
0.0
 10
1.037741428675158
 20
11.0536651884057
 30
0.0
  0
LINE
  5
402
330
6C
100
AcDbEntity
  8
Visible (ANSI)
100
AcDbLine
 10
0.8690096511723231
 20
11.57296820222449
 30
0.0
 11
0.9462638997660597
 21
11.3352040731507
 31
0.0
  0
LINE
  5
403
330
6C
100
AcDbEntity
  8
Visible (ANSI)
100
AcDbLine
 10
1.000474121194884
 20
11.35281804183007
 30
0.0
 11
0.9232198726011475
 21
11.59058217090386
 31
0.0
  0
LINE
  5
404
330
6C
100
AcDbEntity
  8
Visible (ANSI)
100
AcDbLine
 10
0.9232198726011475
 20
11.59058217090386
 30
0.0
 11
0.8690096511723231
 21
11.57296820222449
 31
0.0
  0
LINE
  5
405
330
6C
100
AcDbEntity
  8
Visible (ANSI)
100
AcDbLine
 10
0.9462638997660597
 20
11.3352040731507
 30
0.0
 11
1.000474121194884
 21
11.35281804183007
 31
0.0
  0
ARC
  5
406
330
6C
100
AcDbEntity
  8
Visible (ANSI)
100
AcDbCircle
 10
1.25704850422805
 20
10.39239474998769
 30
0.0
 40
0.2440000000000003
100
AcDbArc
 50
174.0
 51
270.0
  0
ARC
  5
407
330
6C
100
AcDbEntity
  8
Visible (ANSI)
100
AcDbCircle
 10
1.257048504228049
 20
10.39239474998769
 30
0.0
 40
0.1869999999999989
100
AcDbArc
 50
173.9999999999999
 51
270.0000000000005
  0
LINE
  5
408
330
6C
100
AcDbEntity
  8
Hidden (ANSI)
 48
0.0541838519275189
100
AcDbLine
 10
3.414876778901828
 20
10.20539474998769
 30
0.0
 11
3.414876778901828
 21
10.14839474998769
 31
0.0
  0
LINE
  5
409
330
6C
100
AcDbEntity
  8
Hidden (ANSI)
 48
0.0541838519275189
100
AcDbLine
 10
3.243876778901829
 20
10.20539474998769
 30
0.0
 11
3.243876778901829
 21
10.14839474998769
 31
0.0
  0
LINE
  5
40A
330
6C
100
AcDbEntity
  8
Hidden (ANSI)
 48
0.0541838519275189
100
AcDbLine
 10
11.07112677890182
 20
10.20539474998769
 30
0.0
 11
11.07112677890182
 21
10.14839474998769
 31
0.0
  0
LINE
  5
40B
330
6C
100
AcDbEntity
  8
Hidden (ANSI)
 48
0.0541838519275189
100
AcDbLine
 10
10.90012677890183
 20
10.20539474998769
 30
0.0
 11
10.90012677890183
 21
10.14839474998769
 31
0.0
  0
LINE
  5
40C
330
6C
100
AcDbEntity
  8
Hidden (ANSI)
 48
0.0541838519275189
100
AcDbLine
 10
9.852376778901827
 20
10.20539474998769
 30
0.0
 11
9.852376778901827
 21
10.14839474998769
 31
0.0
  0
LINE
  5
40D
330
6C
100
AcDbEntity
  8
Hidden (ANSI)
 48
0.0541838519275189
100
AcDbLine
 10
9.681376778901828
 20
10.20539474998769
 30
0.0
 11
9.681376778901828
 21
10.14839474998769
 31
0.0
  0
LINE
  5
40E
330
6C
100
AcDbEntity
  8
Hidden (ANSI)
 48
0.0541838519275189
100
AcDbLine
 10
13.50862677890183
 20
10.20539474998769
 30
0.0
 11
13.50862677890183
 21
10.14839474998769
 31
0.0
  0
LINE
  5
40F
330
6C
100
AcDbEntity
  8
Hidden (ANSI)
 48
0.0541838519275189
100
AcDbLine
 10
13.33762677890183
 20
10.20539474998769
 30
0.0
 11
13.33762677890183
 21
10.14839474998769
 31
0.0
  0
LINE
  5
410
330
6C
100
AcDbEntity
  8
Hidden (ANSI)
 48
0.0541838519275189
100
AcDbLine
 10
12.28987677890183
 20
10.20539474998769
 30
0.0
 11
12.28987677890183
 21
10.14839474998769
 31
0.0
  0
LINE
  5
411
330
6C
100
AcDbEntity
  8
Hidden (ANSI)
 48
0.0541838519275189
100
AcDbLine
 10
12.11887677890183
 20
10.20539474998769
 30
0.0
 11
12.11887677890183
 21
10.14839474998769
 31
0.0
  0
LINE
  5
412
330
6C
100
AcDbEntity
  8
Hidden (ANSI)
 48
0.0541838519275189
100
AcDbLine
 10
15.94612677890183
 20
10.20539474998769
 30
0.0
 11
15.94612677890183
 21
10.14839474998769
 31
0.0
  0
LINE
  5
413
330
6C
100
AcDbEntity
  8
Hidden (ANSI)
 48
0.0541838519275189
100
AcDbLine
 10
15.77512677890182
 20
10.20539474998769
 30
0.0
 11
15.77512677890182
 21
10.14839474998769
 31
0.0
  0
LINE
  5
414
330
6C
100
AcDbEntity
  8
Hidden (ANSI)
 48
0.0541838519275189
100
AcDbLine
 10
14.72737677890183
 20
10.20539474998769
 30
0.0
 11
14.72737677890183
 21
10.14839474998769
 31
0.0
  0
LINE
  5
415
330
6C
100
AcDbEntity
  8
Hidden (ANSI)
 48
0.0541838519275189
100
AcDbLine
 10
14.55637677890182
 20
10.20539474998769
 30
0.0
 11
14.55637677890182
 21
10.14839474998769
 31
0.0
  0
LINE
  5
416
330
6C
100
AcDbEntity
  8
Hidden (ANSI)
 48
0.0541838519275189
100
AcDbLine
 10
18.38362677890183
 20
10.20539474998769
 30
0.0
 11
18.38362677890183
 21
10.14839474998769
 31
0.0
  0
LINE
  5
417
330
6C
100
AcDbEntity
  8
Hidden (ANSI)
 48
0.0541838519275189
100
AcDbLine
 10
18.21262677890183
 20
10.20539474998769
 30
0.0
 11
18.21262677890183
 21
10.14839474998769
 31
0.0
  0
LINE
  5
418
330
6C
100
AcDbEntity
  8
Hidden (ANSI)
 48
0.0541838519275189
100
AcDbLine
 10
17.16487677890183
 20
10.20539474998769
 30
0.0
 11
17.16487677890183
 21
10.14839474998769
 31
0.0
  0
LINE
  5
419
330
6C
100
AcDbEntity
  8
Hidden (ANSI)
 48
0.0541838519275189
100
AcDbLine
 10
16.99387677890183
 20
10.20539474998769
 30
0.0
 11
16.99387677890183
 21
10.14839474998769
 31
0.0
  0
LINE
  5
41A
330
6C
100
AcDbEntity
  8
Hidden (ANSI)
 48
0.0541838519275189
100
AcDbLine
 10
19.60237677890183
 20
10.20539474998769
 30
0.0
 11
19.60237677890183
 21
10.14839474998769
 31
0.0
  0
LINE
  5
41B
330
6C
100
AcDbEntity
  8
Hidden (ANSI)
 48
0.0541838519275189
100
AcDbLine
 10
19.43137677890183
 20
10.20539474998769
 30
0.0
 11
19.43137677890183
 21
10.14839474998769
 31
0.0
  0
LINE
  5
41C
330
6C
100
AcDbEntity
  8
Hidden (ANSI)
 48
0.0541838519275189
100
AcDbLine
 10
20.82112677890183
 20
10.20539474998769
 30
0.0
 11
20.82112677890183
 21
10.14839474998769
 31
0.0
  0
LINE
  5
41D
330
6C
100
AcDbEntity
  8
Hidden (ANSI)
 48
0.0541838519275189
100
AcDbLine
 10
20.65012677890183
 20
10.20539474998769
 30
0.0
 11
20.65012677890183
 21
10.14839474998769
 31
0.0
  0
LINE
  5
41E
330
6C
100
AcDbEntity
  8
Hidden (ANSI)
 48
0.0541838519275189
100
AcDbLine
 10
5.664876778901827
 20
10.20539474998769
 30
0.0
 11
5.664876778901827
 21
10.14839474998769
 31
0.0
  0
LINE
  5
41F
330
6C
100
AcDbEntity
  8
Hidden (ANSI)
 48
0.0541838519275189
100
AcDbLine
 10
5.493876778901828
 20
10.20539474998769
 30
0.0
 11
5.493876778901828
 21
10.14839474998769
 31
0.0
  0
LINE
  5
420
330
6C
100
AcDbEntity
  8
Hidden (ANSI)
 48
0.0541838519275189
100
AcDbLine
 10
7.164876778901827
 20
10.20539474998769
 30
0.0
 11
7.164876778901827
 21
10.14839474998769
 31
0.0
  0
LINE
  5
421
330
6C
100
AcDbEntity
  8
Hidden (ANSI)
 48
0.0541838519275189
100
AcDbLine
 10
6.993876778901828
 20
10.20539474998769
 30
0.0
 11
6.993876778901828
 21
10.14839474998769
 31
0.0
  0
LINE
  5
422
330
6C
100
AcDbEntity
  8
Hidden (ANSI)
 48
0.0541838519275189
100
AcDbLine
 10
8.914876778901827
 20
10.20539474998769
 30
0.0
 11
8.914876778901827
 21
10.14839474998769
 31
0.0
  0
LINE
  5
423
330
6C
100
AcDbEntity
  8
Hidden (ANSI)
 48
0.0541838519275189
100
AcDbLine
 10
8.743876778901828
 20
10.20539474998769
 30
0.0
 11
8.743876778901828
 21
10.14839474998769
 31
0.0
  0
LINE
  5
424
330
6C
100
AcDbEntity
  8
Hidden (ANSI)
 48
0.0541838519275189
100
AcDbLine
 10
10.66487677890183
 20
10.20539474998769
 30
0.0
 11
10.66487677890183
 21
10.14839474998769
 31
0.0
  0
LINE
  5
425
330
6C
100
AcDbEntity
  8
Hidden (ANSI)
 48
0.0541838519275189
100
AcDbLine
 10
10.49387677890183
 20
10.20539474998769
 30
0.0
 11
10.49387677890183
 21
10.14839474998769
 31
0.0
  0
LINE
  5
426
330
6C
100
AcDbEntity
  8
Hidden (ANSI)
 48
0.0541838519275189
100
AcDbLine
 10
14.41487677890183
 20
10.20539474998769
 30
0.0
 11
14.41487677890183
 21
10.14839474998769
 31
0.0
  0
LINE
  5
427
330
6C
100
AcDbEntity
  8
Hidden (ANSI)
 48
0.0541838519275189
100
AcDbLine
 10
14.24387677890183
 20
10.20539474998769
 30
0.0
 11
14.24387677890183
 21
10.14839474998769
 31
0.0
  0
LINE
  5
428
330
6C
100
AcDbEntity
  8
Hidden (ANSI)
 48
0.0541838519275189
100
AcDbLine
 10
16.41487677890182
 20
10.20539474998769
 30
0.0
 11
16.41487677890182
 21
10.14839474998769
 31
0.0
  0
LINE
  5
429
330
6C
100
AcDbEntity
  8
Hidden (ANSI)
 48
0.0541838519275189
100
AcDbLine
 10
16.24387677890183
 20
10.20539474998769
 30
0.0
 11
16.24387677890183
 21
10.14839474998769
 31
0.0
  0
LINE
  5
42A
330
6C
100
AcDbEntity
  8
Hidden (ANSI)
 48
0.0541838519275189
100
AcDbLine
 10
20.41487677890183
 20
10.20539474998769
 30
0.0
 11
20.41487677890183
 21
10.14839474998769
 31
0.0
  0
LINE
  5
42B
330
6C
100
AcDbEntity
  8
Hidden (ANSI)
 48
0.0541838519275189
100
AcDbLine
 10
20.24387677890183
 20
10.20539474998769
 30
0.0
 11
20.24387677890183
 21
10.14839474998769
 31
0.0
  0
ARC
  5
42C
330
6C
100
AcDbEntity
  8
Hidden (ANSI)
 48
0.1255531907081604
100
AcDbCircle
 10
2.347971931388242
 20
10.08039474998769
 30
0.0
 40
0.125
100
AcDbArc
 50
89.99999999999984
 51
150.4770155424431
  0
ARC
  5
42D
330
6C
100
AcDbEntity
  8
Hidden (ANSI)
 48
0.1528152674436569
100
AcDbCircle
 10
0.9565299202473598
 20
11.08355588845311
 30
0.0
 40
0.125
100
AcDbArc
 50
304.4017204957471
 51
17.99999999999994
  0
LINE
  5
42E
330
6C
100
AcDbEntity
  8
Hidden (ANSI)
 48
0.3486539721488953
100
AcDbLine
 10
0.8791301839881093
 20
10.4321155660294
 30
0.0
 11
0.9174089482462765
 21
10.79631368003888
 31
0.0
  0
ARC
  5
42F
330
6C
100
AcDbEntity
  8
Hidden (ANSI)
 48
0.2105350792407989
100
AcDbCircle
 10
1.171509292514036
 20
10.7696066576851
 30
0.0
 40
0.2554999999999986
100
AcDbArc
 50
124.4017204957466
 51
174.0000000025046
  0
ARC
  5
430
330
6C
100
AcDbEntity
  8
Hidden (ANSI)
 48
0.6062564849853516
100
AcDbCircle
 10
1.25704850422805
 20
10.39239474998769
 30
0.0
 40
0.3799999999999974
100
AcDbArc
 50
174.0
 51
270.0
  0
LINE
  5
431
330
6C
100
AcDbEntity
  8
Hidden (ANSI)
 48
0.918998897075653
100
AcDbLine
 10
2.016876778901831
 20
10.01239474998769
 30
0.0
 11
1.257048504228051
 21
10.01239474998769
 31
0.0
  0
ARC
  5
432
330
6C
100
AcDbEntity
  8
Hidden (ANSI)
 48
0.2567351460456848
100
AcDbCircle
 10
2.016876778901831
 20
10.26789474998769
 30
0.0
 40
0.2555000000000003
100
AcDbArc
 50
270.0000000000002
 51
330.4770155424437
  0
ARC
  5
433
330
6C
100
AcDbEntity
  8
Visible (ANSI)
100
AcDbCircle
 10
2.344455777007631
 20
10.08639474998769
 30
0.0
 40
0.062
100
AcDbArc
 50
90.00000000000033
 51
151.0107053342191
  0
ARC
  5
434
330
6C
100
AcDbEntity
  8
Visible (ANSI)
100
AcDbCircle
 10
0.9636318955808468
 20
11.08111466375282
 30
0.0
 40
0.062
100
AcDbArc
 50
303.7162135590206
 51
18.00000000000057
  0
LINE
  5
435
330
6C
100
AcDbEntity
  8
Visible (ANSI)
100
AcDbLine
 10
0.8607212002114486
 20
10.80227180245624
 30
0.0
 11
0.8224424359521149
 21
10.43807368843566
 31
0.0
  0
ARC
  5
436
330
6C
100
AcDbEntity
  8
Visible (ANSI)
100
AcDbCircle
 10
1.171509292514036
 20
10.7696066576851
 30
0.0
 40
0.3125000000000008
100
AcDbArc
 50
123.7162135590178
 51
173.9999999999999
  0
ARC
  5
437
330
6C
100
AcDbEntity
  8
Visible (ANSI)
100
AcDbCircle
 10
2.016876778901831
 20
10.26789474998769
 30
0.0
 40
0.3125000000000004
100
AcDbArc
 50
270.0
 51
331.0107053342196
  0
LINE
  5
438
330
6C
100
AcDbEntity
  8
Visible (ANSI)
100
AcDbLine
 10
1.257048504228046
 20
9.955394749987691
 30
0.0
 11
2.016876778901831
 21
9.955394749987691
 31
0.0
  0
ARC
  5
439
330
6C
100
AcDbEntity
  8
Visible (ANSI)
100
AcDbCircle
 10
1.25704850422805
 20
10.39239474998769
 30
0.0
 40
0.4370000000000002
100
AcDbArc
 50
173.9999999999998
 51
269.9999999999994
  0
ENDSEC
  0
SECTION
  2
OBJECTS
  0
DICTIONARY
  5
C
330
0
100
AcDbDictionary
281
     1
  3
ACAD_COLOR
350
63
  3
ACAD_GROUP
350
D
  3
ACAD_LAYOUT
350
62
  3
ACAD_MATERIAL
350
10
  3
ACAD_MLEADERSTYLE
350
66
  3
ACAD_MLINESTYLE
350
5F
  3
ACAD_PLOTSETTINGS
350
61
  3
ACAD_PLOTSTYLENAME
350
E
  3
ACAD_SCALELIST
350
42
  3
ACAD_TABLESTYLE
350
64
  3
ACAD_VISUALSTYLE
350
29
  3
ACDB_RECOMPOSE_DATA
350
4CF
  3
AcDbVariableDictionary
350
74
  3
DWGPROPS
350
4D0
  0
DICTIONARY
  5
43E
330
8
100
AcDbDictionary
280
     1
281
     1
  0
DICTIONARY
  5
63
102
{ACAD_REACTORS
330
C
102
}
330
C
100
AcDbDictionary
281
     1
  0
DICTIONARY
  5
D
102
{ACAD_REACTORS
330
C
102
}
330
C
100
AcDbDictionary
281
     1
  0
DICTIONARY
  5
62
102
{ACAD_REACTORS
330
C
102
}
330
C
100
AcDbDictionary
281
     1
  3
Layout1
350
6B
  3
Layout2
350
73
  3
Model
350
6F
  0
DICTIONARY
  5
10
102
{ACAD_REACTORS
330
C
102
}
330
C
100
AcDbDictionary
281
     1
  3
ByBlock
350
19
  3
ByLayer
350
11
  3
Global
350
21
  0
DICTIONARY
  5
66
102
{ACAD_REACTORS
330
C
102
}
330
C
100
AcDbDictionary
281
     1
  3
Standard
350
67
  0
DICTIONARY
  5
5F
102
{ACAD_REACTORS
330
C
102
}
330
C
100
AcDbDictionary
281
     1
  3
Standard
350
60
  0
DICTIONARY
  5
61
102
{ACAD_REACTORS
330
C
102
}
330
C
100
AcDbDictionary
281
     1
  0
ACDBDICTIONARYWDFLT
  5
E
102
{ACAD_REACTORS
330
C
102
}
330
C
100
AcDbDictionary
281
     1
  3
Normal
350
F
100
AcDbDictionaryWithDefault
340
F
  0
DICTIONARY
  5
42
102
{ACAD_REACTORS
330
C
102
}
330
C
100
AcDbDictionary
281
     1
  3
A0
350
43
  3
A1
350
44
  3
A2
350
45
  3
A3
350
46
  3
A4
350
47
  3
A5
350
48
  3
A6
350
49
  3
A7
350
4A
  3
A8
350
4B
  3
A9
350
4C
  3
B0
350
4D
  3
B1
350
4E
  3
B2
350
4F
  3
B3
350
50
  3
B4
350
51
  3
B5
350
52
  3
B6
350
53
  0
DICTIONARY
  5
64
102
{ACAD_REACTORS
330
C
102
}
330
C
100
AcDbDictionary
281
     1
  3
Standard
350
65
  0
DICTIONARY
  5
29
102
{ACAD_REACTORS
330
C
102
}
330
C
100
AcDbDictionary
281
     1
  3
2dWireframe
350
2F
  3
Basic
350
2E
  3
Brighten
350
35
  3
ColorChange
350
39
  3
Conceptual
350
32
  3
Dim
350
34
  3
EdgeColorOff
350
41
  3
Facepattern
350
38
  3
Flat
350
2A
  3
FlatWithEdges
350
2B
  3
Gouraud
350
2C
  3
GouraudWithEdges
350
2D
  3
Hidden
350
31
  3
JitterOff
350
3F
  3
Linepattern
350
37
  3
OverhangOff
350
40
  3
Realistic
350
33
  3
Shaded
350
3E
  3
Shaded with edges
350
3D
  3
Shades of Gray
350
3A
  3
Sketchy
350
3B
  3
Thicken
350
36
  3
Wireframe
350
30
  3
X-Ray
350
3C
  0
XRECORD
  5
4CF
102
{ACAD_REACTORS
330
C
102
}
330
C
100
AcDbXrecord
280
     1
 90
        1
330
65
  0
DICTIONARY
  5
74
102
{ACAD_REACTORS
330
C
102
}
330
C
100
AcDbDictionary
281
     1
  3
CANNOSCALE
350
77
  3
CMLEADERSTYLE
350
76
  3
CTABLESTYLE
350
75
  3
DIMASSOC
350
484
  3
HIDETEXT
350
483
  3
INDEXCTL
350
482
  3
LAYEREVAL
350
47F
  3
LAYERNOTIFY
350
480
  3
LIGHTINGUNITS
350
47E
  3
MSLTSCALE
350
47D
  3
SORTENTS
350
481
  3
XCLIPFRAME
350
4CD
  0
XRECORD
  5
4D0
102
{ACAD_REACTORS
330
C
102
}
330
C
100
AcDbXrecord
280
     1
  1
DWGPROPS COOKIE
  2

  3

  4
jwalls
  6

  7

  8
jwalls
  9
-
300
Manager=
301
Company=
302
Category=
303
Part Number=
304
Description=
305
Project=
306
Designer=jwalls
307
Engineer=
308
Authority=
309
Cost Center=
 40
0.0057196064814815
 41
2455740.449386065
 42
2455740.469034815
  1

 90
       20
300
Vendor=
300
User Status=
300
Design Status=WorkInProgress
300
Checked by=
300
Engr Approved by=
300
Mfg Approved by=
300
BY=
300
REV DATE=
300
DATE=
300
SCALE=
  0
LAYOUT
  5
6B
102
{ACAD_XDICTIONARY
360
505
102
}
102
{ACAD_REACTORS
330
62
102
}
330
62
100
AcDbPlotSettings
  1

  2

  4

  6

 40
0.0
 41
0.0
 42
0.0
 43
0.0
 44
0.0
 45
0.0
 46
0.0
 47
0.0
 48
0.0
 49
0.0
140
0.0
141
0.0
142
1.0
143
1.0
 70
   688
 72
     0
 73
     0
 74
     5
  7

 75
    16
147
1.0
148
0.0
149
0.0
100
AcDbLayout
  1
Layout1
 70
     1
 71
     1
 10
0.0
 20
0.0
 11
22.0
 21
17.0
 12
0.0
 22
0.0
 32
0.0
 14
0.0
 24
0.0
 34
0.0
 15
22.0
 25
17.0
 35
0.0
146
0.0
 13
0.0
 23
0.0
 33
0.0
 16
1.0
 26
0.0
 36
0.0
 17
0.0
 27
1.0
 37
0.0
 76
     0
330
68
  0
LAYOUT
  5
73
102
{ACAD_XDICTIONARY
360
509
102
}
102
{ACAD_REACTORS
330
62
102
}
330
62
100
AcDbPlotSettings
  1

  2

  4

  6

 40
0.0
 41
0.0
 42
0.0
 43
0.0
 44
0.0
 45
0.0
 46
0.0
 47
0.0
 48
0.0
 49
0.0
140
0.0
141
0.0
142
1.0
143
1.0
 70
   688
 72
     0
 73
     0
 74
     5
  7

 75
    16
147
1.0
148
0.0
149
0.0
100
AcDbLayout
  1
Layout2
 70
     1
 71
     2
 10
0.0
 20
0.0
 11
12.0
 21
9.0
 12
0.0
 22
0.0
 32
0.0
 14
0.0
 24
0.0
 34
0.0
 15
0.0
 25
0.0
 35
0.0
146
0.0
 13
0.0
 23
0.0
 33
0.0
 16
1.0
 26
0.0
 36
0.0
 17
0.0
 27
1.0
 37
0.0
 76
     0
330
70
  0
LAYOUT
  5
6F
102
{ACAD_XDICTIONARY
360
507
102
}
102
{ACAD_REACTORS
330
62
102
}
330
62
100
AcDbPlotSettings
  1

  2

  4

  6

 40
0.0
 41
0.0
 42
0.0
 43
0.0
 44
0.0
 45
0.0
 46
0.0
 47
0.0
 48
0.0
 49
0.0
140
0.0
141
0.0
142
1.0
143
1.0
 70
  1712
 72
     0
 73
     0
 74
     0
  7

 75
     0
147
1.0
148
0.0
149
0.0
100
AcDbLayout
  1
Model
 70
     1
 71
     0
 10
0.0
 20
0.0
 11
12.0
 21
9.0
 12
0.0
 22
0.0
 32
0.0
 14
0.0
 24
0.0
 34
0.0
 15
0.0
 25
0.0
 35
0.0
146
0.0
 13
0.0
 23
0.0
 33
0.0
 16
1.0
 26
0.0
 36
0.0
 17
0.0
 27
1.0
 37
0.0
 76
     0
330
6C
331
57
  0
MATERIAL
  5
19
102
{ACAD_XDICTIONARY
360
1A
102
}
102
{ACAD_REACTORS
330
10
102
}
330
10
100
AcDbMaterial
  1
ByBlock
 72
     0
 43
0.0208333333333333
 43
0.0
 43
0.0
 43
0.0
 43
0.0
 43
0.0208333333333333
 43
0.0
 43
0.0
 43
0.0
 43
0.0
 43
1.0
 43
0.0
 43
0.0
 43
0.0
 43
0.0
 43
1.0
 77
     0
 47
0.0208333333333333
 47
0.0
 47
0.0
 47
0.0
 47
0.0
 47
0.0208333333333333
 47
0.0
 47
0.0
 47
0.0
 47
0.0
 47
1.0
 47
0.0
 47
0.0
 47
0.0
 47
0.0
 47
1.0
171
     0
 49
0.0208333333333333
 49
0.0
 49
0.0
 49
0.0
 49
0.0
 49
0.0208333333333333
 49
0.0
 49
0.0
 49
0.0
 49
0.0
 49
1.0
 49
0.0
 49
0.0
 49
0.0
 49
0.0
 49
1.0
175
     0
142
0.0208333333333333
142
0.0
142
0.0
142
0.0
142
0.0
142
0.0208333333333333
142
0.0
142
0.0
142
0.0
142
0.0
142
1.0
142
0.0
142
0.0
142
0.0
142
0.0
142
1.0
179
     0
144
0.0208333333333333
144
0.0
144
0.0
144
0.0
144
0.0
144
0.0208333333333333
144
0.0
144
0.0
144
0.0
144
0.0
144
1.0
144
0.0
144
0.0
144
0.0
144
0.0
144
1.0
147
0.0208333333333333
147
0.0
147
0.0
147
0.0
147
0.0
147
0.0208333333333333
147
0.0
147
0.0
147
0.0
147
0.0
147
1.0
147
0.0
147
0.0
147
0.0
147
0.0
147
1.0
  0
MATERIAL
  5
11
102
{ACAD_XDICTIONARY
360
12
102
}
102
{ACAD_REACTORS
330
10
102
}
330
10
100
AcDbMaterial
  1
ByLayer
 72
     0
 43
0.0208333333333333
 43
0.0
 43
0.0
 43
0.0
 43
0.0
 43
0.0208333333333333
 43
0.0
 43
0.0
 43
0.0
 43
0.0
 43
1.0
 43
0.0
 43
0.0
 43
0.0
 43
0.0
 43
1.0
 77
     0
 47
0.0208333333333333
 47
0.0
 47
0.0
 47
0.0
 47
0.0
 47
0.0208333333333333
 47
0.0
 47
0.0
 47
0.0
 47
0.0
 47
1.0
 47
0.0
 47
0.0
 47
0.0
 47
0.0
 47
1.0
171
     0
 49
0.0208333333333333
 49
0.0
 49
0.0
 49
0.0
 49
0.0
 49
0.0208333333333333
 49
0.0
 49
0.0
 49
0.0
 49
0.0
 49
1.0
 49
0.0
 49
0.0
 49
0.0
 49
0.0
 49
1.0
175
     0
142
0.0208333333333333
142
0.0
142
0.0
142
0.0
142
0.0
142
0.0208333333333333
142
0.0
142
0.0
142
0.0
142
0.0
142
1.0
142
0.0
142
0.0
142
0.0
142
0.0
142
1.0
179
     0
144
0.0208333333333333
144
0.0
144
0.0
144
0.0
144
0.0
144
0.0208333333333333
144
0.0
144
0.0
144
0.0
144
0.0
144
1.0
144
0.0
144
0.0
144
0.0
144
0.0
144
1.0
147
0.0208333333333333
147
0.0
147
0.0
147
0.0
147
0.0
147
0.0208333333333333
147
0.0
147
0.0
147
0.0
147
0.0
147
1.0
147
0.0
147
0.0
147
0.0
147
0.0
147
1.0
  0
MATERIAL
  5
21
102
{ACAD_XDICTIONARY
360
22
102
}
102
{ACAD_REACTORS
330
10
102
}
330
10
100
AcDbMaterial
  1
Global
 72
     0
 43
0.0208333333333333
 43
0.0
 43
0.0
 43
0.0
 43
0.0
 43
0.0208333333333333
 43
0.0
 43
0.0
 43
0.0
 43
0.0
 43
1.0
 43
0.0
 43
0.0
 43
0.0
 43
0.0
 43
1.0
 77
     0
 47
0.0208333333333333
 47
0.0
 47
0.0
 47
0.0
 47
0.0
 47
0.0208333333333333
 47
0.0
 47
0.0
 47
0.0
 47
0.0
 47
1.0
 47
0.0
 47
0.0
 47
0.0
 47
0.0
 47
1.0
171
     0
 49
0.0208333333333333
 49
0.0
 49
0.0
 49
0.0
 49
0.0
 49
0.0208333333333333
 49
0.0
 49
0.0
 49
0.0
 49
0.0
 49
1.0
 49
0.0
 49
0.0
 49
0.0
 49
0.0
 49
1.0
175
     0
142
0.0208333333333333
142
0.0
142
0.0
142
0.0
142
0.0
142
0.0208333333333333
142
0.0
142
0.0
142
0.0
142
0.0
142
1.0
142
0.0
142
0.0
142
0.0
142
0.0
142
1.0
179
     0
144
0.0208333333333333
144
0.0
144
0.0
144
0.0
144
0.0
144
0.0208333333333333
144
0.0
144
0.0
144
0.0
144
0.0
144
1.0
144
0.0
144
0.0
144
0.0
144
0.0
144
1.0
147
0.0208333333333333
147
0.0
147
0.0
147
0.0
147
0.0
147
0.0208333333333333
147
0.0
147
0.0
147
0.0
147
0.0
147
1.0
147
0.0
147
0.0
147
0.0
147
0.0
147
1.0
  0
MLEADERSTYLE
  5
67
102
{ACAD_REACTORS
330
66
102
}
330
66
100
AcDbMLeaderStyle
170
     2
171
     1
172
     0
 90
        2
 40
0.0
 41
0.0
173
     1
 91
-1056964608
340
5B
 92
       -2
290
     1
 42
0.09
291
     1
 43
0.36
  3
Standard
 44
0.18
300

342
55
174
     1
178
     6
175
     1
176
     0
 93
-1056964608
 45
0.18
292
     0
297
     0
 46
0.18
 94
-1056964608
 47
1.0
 49
1.0
140
1.0
293
     1
141
0.0
294
     1
177
     0
142
1.0
295
     0
296
     0
143
0.125
1001
ACAD_MLEADERVER
1070
     2
  0
MLINESTYLE
  5
60
102
{ACAD_REACTORS
330
5F
102
}
330
5F
100
AcDbMlineStyle
  2
STANDARD
 70
     0
  3

 62
   256
 51
90.0
 52
90.0
 71
     2
 49
0.5
 62
   256
  6
BYLAYER
 49
-0.5
 62
   256
  6
BYLAYER
  0
ACDBPLACEHOLDER
  5
F
102
{ACAD_REACTORS
330
E
102
}
330
E
  0
SCALE
  5
43
102
{ACAD_REACTORS
330
42
102
}
330
42
100
AcDbScale
 70
     0
300
1:1
140
1.0
141
1.0
290
     1
  0
SCALE
  5
44
102
{ACAD_REACTORS
330
42
102
}
330
42
100
AcDbScale
 70
     0
300
1/128" = 1'-0"
140
0.0078125
141
12.0
290
     0
  0
SCALE
  5
45
102
{ACAD_REACTORS
330
42
102
}
330
42
100
AcDbScale
 70
     0
300
1/64" = 1'-0"
140
0.015625
141
12.0
290
     0
  0
SCALE
  5
46
102
{ACAD_REACTORS
330
42
102
}
330
42
100
AcDbScale
 70
     0
300
1/32" = 1'-0"
140
0.03125
141
12.0
290
     0
  0
SCALE
  5
47
102
{ACAD_REACTORS
330
42
102
}
330
42
100
AcDbScale
 70
     0
300
1/16" = 1'-0"
140
0.0625
141
12.0
290
     0
  0
SCALE
  5
48
102
{ACAD_REACTORS
330
42
102
}
330
42
100
AcDbScale
 70
     0
300
3/32" = 1'-0"
140
0.09375
141
12.0
290
     0
  0
SCALE
  5
49
102
{ACAD_REACTORS
330
42
102
}
330
42
100
AcDbScale
 70
     0
300
1/8" = 1'-0"
140
0.125
141
12.0
290
     0
  0
SCALE
  5
4A
102
{ACAD_REACTORS
330
42
102
}
330
42
100
AcDbScale
 70
     0
300
3/16" = 1'-0"
140
0.1875
141
12.0
290
     0
  0
SCALE
  5
4B
102
{ACAD_REACTORS
330
42
102
}
330
42
100
AcDbScale
 70
     0
300
1/4" = 1'-0"
140
0.25
141
12.0
290
     0
  0
SCALE
  5
4C
102
{ACAD_REACTORS
330
42
102
}
330
42
100
AcDbScale
 70
     0
300
3/8" = 1'-0"
140
0.375
141
12.0
290
     0
  0
SCALE
  5
4D
102
{ACAD_REACTORS
330
42
102
}
330
42
100
AcDbScale
 70
     0
300
1/2" = 1'-0"
140
0.5
141
12.0
290
     0
  0
SCALE
  5
4E
102
{ACAD_REACTORS
330
42
102
}
330
42
100
AcDbScale
 70
     0
300
3/4" = 1'-0"
140
0.75
141
12.0
290
     0
  0
SCALE
  5
4F
102
{ACAD_REACTORS
330
42
102
}
330
42
100
AcDbScale
 70
     0
300
1" = 1'-0"
140
1.0
141
12.0
290
     0
  0
SCALE
  5
50
102
{ACAD_REACTORS
330
42
102
}
330
42
100
AcDbScale
 70
     0
300
1-1/2" = 1'-0"
140
1.5
141
12.0
290
     0
  0
SCALE
  5
51
102
{ACAD_REACTORS
330
42
102
}
330
42
100
AcDbScale
 70
     0
300
3" = 1'-0"
140
3.0
141
12.0
290
     0
  0
SCALE
  5
52
102
{ACAD_REACTORS
330
42
102
}
330
42
100
AcDbScale
 70
     0
300
6" = 1'-0"
140
6.0
141
12.0
290
     0
  0
SCALE
  5
53
102
{ACAD_REACTORS
330
42
102
}
330
42
100
AcDbScale
 70
     0
300
1'-0" = 1'-0"
140
12.0
141
12.0
290
     0
  0
TABLESTYLE
  5
65
102
{ACAD_XDICTIONARY
360
43A
102
}
102
{ACAD_REACTORS
330
64
102
}
330
64
100
AcDbTableStyle
  3
Standard
 70
     0
 71
     0
 40
0.06
 41
0.06
280
     0
281
     0
  7
Standard
140
0.18
170
     2
 62
     0
 63
     7
283
     0
274
    -2
284
     1
 64
     0
275
    -2
285
     1
 65
     0
276
    -2
286
     1
 66
     0
277
    -2
287
     1
 67
     0
278
    -2
288
     1
 68
     0
279
    -2
289
     1
 69
     0
  7
Standard
140
0.25
170
     5
 62
     0
 63
     7
283
     0
274
    -2
284
     1
 64
     0
275
    -2
285
     1
 65
     0
276
    -2
286
     1
 66
     0
277
    -2
287
     1
 67
     0
278
    -2
288
     1
 68
     0
279
    -2
289
     1
 69
     0
  7
Standard
140
0.18
170
     5
 62
     0
 63
     7
283
     0
274
    -2
284
     1
 64
     0
275
    -2
285
     1
 65
     0
276
    -2
286
     1
 66
     0
277
    -2
287
     1
 67
     0
278
    -2
288
     1
 68
     0
279
    -2
289
     1
 69
     0
  0
VISUALSTYLE
  5
2F
102
{ACAD_XDICTIONARY
360
4DE
102
}
102
{ACAD_REACTORS
330
29
102
}
330
29
100
AcDbVisualStyle
  2
2dWireframe
 70
     4
 71
     0
 72
     2
 73
     0
 90
        0
 40
-0.6
 41
-30.0
 62
     5
 63
     7
 74
     1
 91
        4
 64
     7
 65
   257
 75
     1
175
     1
 42
1.0
 92
        0
 66
   257
 43
1.0
 76
     1
 77
     6
 78
     2
 67
     7
 79
     5
170
     0
171
     0
290
     0
174
     0
 93
        1
 44
0.0
173
     0
291
     0
 45
0.0
1001
ACAD
1000
AcDbSavedByObjectVersion
1070
     0
  0
VISUALSTYLE
  5
2E
102
{ACAD_XDICTIONARY
360
4DC
102
}
102
{ACAD_REACTORS
330
29
102
}
330
29
100
AcDbVisualStyle
  2
Basic
 70
     7
 71
     1
 72
     0
 73
     1
 90
        0
 40
-0.6
 41
-30.0
 62
     5
 63
     7
 74
     0
 91
        4
 64
     7
 65
   257
 75
     1
175
     1
 42
1.0
 92
        8
 66
     7
 43
1.0
 76
     1
 77
     6
 78
     2
 67
     7
 79
     5
170
     0
171
     0
290
     0
174
     0
 93
        1
 44
0.0
173
     0
291
     1
 45
0.0
1001
ACAD
1000
AcDbSavedByObjectVersion
1070
     0
  0
VISUALSTYLE
  5
35
102
{ACAD_XDICTIONARY
360
4EA
102
}
102
{ACAD_REACTORS
330
29
102
}
330
29
100
AcDbVisualStyle
  2
Brighten
 70
    12
 71
     2
 72
     2
 73
     0
 90
        0
 40
-0.6
 41
-30.0
 62
     5
 63
     7
 74
     1
 91
        4
 64
     7
 65
   257
 75
     1
175
     1
 42
1.0
 92
        8
 66
     7
 43
1.0
 76
     1
 77
     6
 78
     2
 67
     7
 79
     5
170
     0
171
     0
290
     0
174
     0
 93
        1
 44
50.0
173
     0
291
     1
 45
0.0
1001
ACAD
1000
AcDbSavedByObjectVersion
1070
     0
  0
VISUALSTYLE
  5
39
102
{ACAD_XDICTIONARY
360
4F2
102
}
102
{ACAD_REACTORS
330
29
102
}
330
29
100
AcDbVisualStyle
  2
ColorChange
 70
    16
 71
     2
 72
     2
 73
     3
 90
        0
 40
-0.6
 41
-30.0
 62
     5
 63
     8
 74
     1
 91
        4
 64
     7
 65
   257
 75
     1
175
     1
 42
1.0
 92
        8
 66
     8
 43
1.0
 76
     1
 77
     6
 78
     2
 67
     7
 79
     5
170
     0
171
     0
290
     0
174
     0
 93
        1
 44
0.0
173
     0
291
     1
 45
0.0
1001
ACAD
1000
AcDbSavedByObjectVersion
1070
     0
  0
VISUALSTYLE
  5
32
102
{ACAD_XDICTIONARY
360
4E4
102
}
102
{ACAD_REACTORS
330
29
102
}
330
29
100
AcDbVisualStyle
  2
Conceptual
 70
     9
 71
     3
 72
     2
 73
     0
 90
        0
 40
-0.6
 41
-30.0
 62
     5
 63
     7
 74
     2
 91
        2
 64
     7
 65
   257
 75
     1
175
     1
 42
179.0
 92
        8
 66
     7
 43
1.0
 76
     1
 77
     6
 78
     2
 67
     7
 79
     3
170
     0
171
     0
290
     0
174
     0
 93
        1
 44
0.0
173
     0
291
     0
 45
0.0
1001
ACAD
1000
AcDbSavedByObjectVersion
1070
     0
  0
VISUALSTYLE
  5
34
102
{ACAD_XDICTIONARY
360
4E8
102
}
102
{ACAD_REACTORS
330
29
102
}
330
29
100
AcDbVisualStyle
  2
Dim
 70
    11
 71
     2
 72
     2
 73
     0
 90
        0
 40
-0.6
 41
-30.0
 62
     5
 63
     7
 74
     1
 91
        4
 64
     7
 65
   257
 75
     1
175
     1
 42
1.0
 92
        8
 66
     7
 43
1.0
 76
     1
 77
     6
 78
     2
 67
     7
 79
     5
170
     0
171
     0
290
     0
174
     0
 93
        1
 44
-50.0
173
     0
291
     1
 45
0.0
1001
ACAD
1000
AcDbSavedByObjectVersion
1070
     0
  0
VISUALSTYLE
  5
41
102
{ACAD_XDICTIONARY
360
502
102
}
102
{ACAD_REACTORS
330
29
102
}
330
29
100
AcDbVisualStyle
  2
EdgeColorOff
 70
    22
 71
     2
 72
     2
 73
     0
 90
        0
 40
-0.6
 41
-30.0
 62
     5
 63
     7
 74
     1
 91
        4
 64
     7
 65
   257
 75
     1
175
     1
 42
1.0
 92
        8
 66
     7
 43
1.0
 76
     1
 77
     6
 78
     2
 67
     7
 79
     5
170
     0
171
     0
290
     0
174
     0
 93
        1
 44
0.0
173
     0
291
     1
 45
0.0
1001
ACAD
1000
AcDbSavedByObjectVersion
1070
     0
  0
VISUALSTYLE
  5
38
102
{ACAD_XDICTIONARY
360
4F0
102
}
102
{ACAD_REACTORS
330
29
102
}
330
29
100
AcDbVisualStyle
  2
Facepattern
 70
    15
 71
     2
 72
     2
 73
     0
 90
        0
 40
-0.6
 41
-30.0
 62
     5
 63
     7
 74
     1
 91
        4
 64
     7
 65
   257
 75
     1
175
     1
 42
1.0
 92
        8
 66
     7
 43
1.0
 76
     1
 77
     6
 78
     2
 67
     7
 79
     5
170
     0
171
     0
290
     0
174
     0
 93
        1
 44
0.0
173
     0
291
     1
 45
0.0
1001
ACAD
1000
AcDbSavedByObjectVersion
1070
     0
  0
VISUALSTYLE
  5
2A
102
{ACAD_XDICTIONARY
360
4D4
102
}
102
{ACAD_REACTORS
330
29
102
}
330
29
100
AcDbVisualStyle
  2
Flat
 70
     0
 71
     2
 72
     1
 73
     1
 90
        2
 40
-0.6
 41
30.0
 62
     5
 63
     7
 74
     0
 91
        0
 64
     7
 65
   257
 75
     1
175
     1
 42
1.0
 92
        8
 66
     7
 43
1.0
 76
     1
 77
     6
 78
     2
 67
     7
 79
     5
170
     0
171
     0
290
     0
174
     0
 93
       13
 44
0.0
173
     0
291
     1
 45
0.0
1001
ACAD
1000
AcDbSavedByObjectVersion
1070
     0
  0
VISUALSTYLE
  5
2B
102
{ACAD_XDICTIONARY
360
4D6
102
}
102
{ACAD_REACTORS
330
29
102
}
330
29
100
AcDbVisualStyle
  2
FlatWithEdges
 70
     1
 71
     2
 72
     1
 73
     1
 90
        2
 40
-0.6
 41
30.0
 62
     5
 63
     7
 74
     1
 91
        0
 64
     7
 65
   257
 75
     1
175
     1
 42
1.0
 92
        0
 66
   257
 43
1.0
 76
     1
 77
     6
 78
     2
 67
     7
 79
     5
170
     0
171
     0
290
     0
174
     0
 93
       13
 44
0.0
173
     0
291
     1
 45
0.0
1001
ACAD
1000
AcDbSavedByObjectVersion
1070
     0
  0
VISUALSTYLE
  5
2C
102
{ACAD_XDICTIONARY
360
4D8
102
}
102
{ACAD_REACTORS
330
29
102
}
330
29
100
AcDbVisualStyle
  2
Gouraud
 70
     2
 71
     2
 72
     2
 73
     1
 90
        2
 40
-0.6
 41
30.0
 62
     5
 63
     7
 74
     0
 91
        0
 64
     7
 65
   257
 75
     1
175
     1
 42
1.0
 92
        0
 66
     7
 43
1.0
 76
     1
 77
     6
 78
     2
 67
     7
 79
     5
170
     0
171
     0
290
     0
174
     0
 93
       13
 44
0.0
173
     0
291
     1
 45
0.0
1001
ACAD
1000
AcDbSavedByObjectVersion
1070
     0
  0
VISUALSTYLE
  5
2D
102
{ACAD_XDICTIONARY
360
4DA
102
}
102
{ACAD_REACTORS
330
29
102
}
330
29
100
AcDbVisualStyle
  2
GouraudWithEdges
 70
     3
 71
     2
 72
     2
 73
     1
 90
        2
 40
-0.6
 41
30.0
 62
     5
 63
     7
 74
     1
 91
        0
 64
     7
 65
   257
 75
     1
175
     1
 42
1.0
 92
        0
 66
   257
 43
1.0
 76
     1
 77
     6
 78
     2
 67
     7
 79
     5
170
     0
171
     0
290
     0
174
     0
 93
       13
 44
0.0
173
     0
291
     1
 45
0.0
1001
ACAD
1000
AcDbSavedByObjectVersion
1070
     0
  0
VISUALSTYLE
  5
31
102
{ACAD_XDICTIONARY
360
4E2
102
}
102
{ACAD_REACTORS
330
29
102
}
330
29
100
AcDbVisualStyle
  2
Hidden
 70
     6
 71
     1
 72
     2
 73
     2
 90
        0
 40
-0.6
 41
-30.0
 62
     5
 63
     7
 74
     2
 91
        2
 64
     7
 65
   257
 75
     2
175
     1
 42
40.0
 92
        0
 66
   257
 43
1.0
 76
     1
 77
     6
 78
     2
 67
     7
 79
     3
170
     0
171
     0
290
     0
174
     0
 93
        1
 44
0.0
173
     0
291
     0
 45
0.0
1001
ACAD
1000
AcDbSavedByObjectVersion
1070
     0
  0
VISUALSTYLE
  5
3F
102
{ACAD_XDICTIONARY
360
4FE
102
}
102
{ACAD_REACTORS
330
29
102
}
330
29
100
AcDbVisualStyle
  2
JitterOff
 70
    20
 71
     2
 72
     2
 73
     0
 90
        0
 40
-0.6
 41
-30.0
 62
     5
 63
     7
 74
     1
 91
        4
 64
     7
 65
   257
 75
     1
175
     1
 42
1.0
 92
       10
 66
     7
 43
1.0
 76
     1
 77
     6
 78
     2
 67
     7
 79
     5
170
     0
171
     0
290
     0
174
     0
 93
        1
 44
0.0
173
     0
291
     1
 45
0.0
1001
ACAD
1000
AcDbSavedByObjectVersion
1070
     0
  0
VISUALSTYLE
  5
37
102
{ACAD_XDICTIONARY
360
4EE
102
}
102
{ACAD_REACTORS
330
29
102
}
330
29
100
AcDbVisualStyle
  2
Linepattern
 70
    14
 71
     2
 72
     2
 73
     0
 90
        0
 40
-0.6
 41
-30.0
 62
     5
 63
     7
 74
     1
 91
        4
 64
     7
 65
   257
 75
     7
175
     7
 42
1.0
 92
        8
 66
     7
 43
1.0
 76
     1
 77
     6
 78
     2
 67
     7
 79
     5
170
     0
171
     0
290
     0
174
     0
 93
        1
 44
0.0
173
     0
291
     1
 45
0.0
1001
ACAD
1000
AcDbSavedByObjectVersion
1070
     0
  0
VISUALSTYLE
  5
40
102
{ACAD_XDICTIONARY
360
500
102
}
102
{ACAD_REACTORS
330
29
102
}
330
29
100
AcDbVisualStyle
  2
OverhangOff
 70
    21
 71
     2
 72
     2
 73
     0
 90
        0
 40
-0.6
 41
-30.0
 62
     5
 63
     7
 74
     1
 91
        4
 64
     7
 65
   257
 75
     1
175
     1
 42
1.0
 92
        9
 66
     7
 43
1.0
 76
     1
 77
     6
 78
     2
 67
     7
 79
     5
170
     0
171
     0
290
     0
174
     0
 93
        1
 44
0.0
173
     0
291
     1
 45
0.0
1001
ACAD
1000
AcDbSavedByObjectVersion
1070
     0
  0
VISUALSTYLE
  5
33
102
{ACAD_XDICTIONARY
360
4E6
102
}
102
{ACAD_REACTORS
330
29
102
}
330
29
100
AcDbVisualStyle
  2
Realistic
 70
     8
 71
     2
 72
     2
 73
     0
 90
        2
 40
-0.6
 41
30.0
 62
     5
 63
     7
 74
     0
 91
        0
 64
     7
 65
   257
 75
     1
175
     1
 42
1.0
 92
        8
 66
   257
 43
1.0
 76
     1
 77
     6
 78
     2
 67
     7
 79
     3
170
     0
171
     0
290
     0
174
     0
 93
       13
 44
0.0
173
     0
291
     0
 45
0.0
1001
ACAD
1000
AcDbSavedByObjectVersion
1070
     0
  0
VISUALSTYLE
  5
3E
102
{ACAD_XDICTIONARY
360
4FC
102
}
102
{ACAD_REACTORS
330
29
102
}
330
29
100
AcDbVisualStyle
  2
Shaded
 70
    27
 71
     2
 72
     2
 73
     1
 90
        2
 40
-0.6
 41
30.0
 62
     5
 63
     7
 74
     0
 91
        4
 64
     7
 65
   257
 75
     1
175
     1
 42
1.0
 92
        8
 66
   257
 43
1.0
 76
     1
 77
     6
 78
     2
 67
     8
 79
     3
170
     0
171
     0
290
     0
174
     0
 93
        5
 44
0.0
173
     0
291
     0
 45
0.0
1001
ACAD
1000
AcDbSavedByObjectVersion
1070
     0
  0
VISUALSTYLE
  5
3D
102
{ACAD_XDICTIONARY
360
4FA
102
}
102
{ACAD_REACTORS
330
29
102
}
330
29
100
AcDbVisualStyle
  2
Shaded with edges
 70
    26
 71
     2
 72
     2
 73
     1
 90
        2
 40
-0.6
 41
30.0
 62
     5
 63
     7
 74
     1
 91
       10
 64
     7
 65
   257
 75
     2
175
     1
 42
1.0
 92
        8
 66
   257
 43
1.0
 76
     1
 77
     6
 78
     2
 67
     7
 79
     3
170
     0
171
     0
290
     0
174
     0
 93
        5
 44
0.0
173
     0
291
     0
 45
0.0
1001
ACAD
1000
AcDbSavedByObjectVersion
1070
     0
  0
VISUALSTYLE
  5
3A
102
{ACAD_XDICTIONARY
360
4F4
102
}
102
{ACAD_REACTORS
330
29
102
}
330
29
100
AcDbVisualStyle
  2
Shades of Gray
 70
    23
 71
     2
 72
     2
 73
     3
 90
        0
 40
-0.6
 41
-30.0
 62
     5
 63
     7
 74
     2
 91
        2
 64
     7
 65
     7
 75
     1
175
     1
 42
40.0
 92
        8
 66
     7
 43
1.0
 76
     1
 77
     6
 78
     2
 67
     7
 79
     3
170
     0
171
     0
290
     0
174
     0
 93
        1
 44
0.0
173
     0
291
     0
 45
0.0
1001
ACAD
1000
AcDbSavedByObjectVersion
1070
     0
  0
VISUALSTYLE
  5
3B
102
{ACAD_XDICTIONARY
360
4F6
102
}
102
{ACAD_REACTORS
330
29
102
}
330
29
100
AcDbVisualStyle
  2
Sketchy
 70
    24
 71
     1
 72
     2
 73
     2
 90
        0
 40
-0.6
 41
-30.0
 62
     5
 63
     7
 74
     2
 91
        2
 64
     7
 65
     7
 75
     1
175
     1
 42
40.0
 92
       11
 66
     7
 43
1.0
 76
     1
 77
     6
 78
     2
 67
     7
 79
     6
170
     0
171
     0
290
     0
174
     0
 93
        1
 44
0.0
173
     0
291
     0
 45
0.0
1001
ACAD
1000
AcDbSavedByObjectVersion
1070
     0
  0
VISUALSTYLE
  5
36
102
{ACAD_XDICTIONARY
360
4EC
102
}
102
{ACAD_REACTORS
330
29
102
}
330
29
100
AcDbVisualStyle
  2
Thicken
 70
    13
 71
     2
 72
     2
 73
     0
 90
        0
 40
-0.6
 41
-30.0
 62
     5
 63
     7
 74
     1
 91
        4
 64
     7
 65
   257
 75
     1
175
     1
 42
1.0
 92
       12
 66
     7
 43
1.0
 76
     1
 77
     6
 78
     2
 67
     7
 79
     5
170
     0
171
     0
290
     0
174
     0
 93
        1
 44
0.0
173
     0
291
     1
 45
0.0
1001
ACAD
1000
AcDbSavedByObjectVersion
1070
     0
  0
VISUALSTYLE
  5
30
102
{ACAD_XDICTIONARY
360
4E0
102
}
102
{ACAD_REACTORS
330
29
102
}
330
29
100
AcDbVisualStyle
  2
Wireframe
 70
     5
 71
     0
 72
     2
 73
     0
 90
        0
 40
-0.6
 41
-30.0
 62
     5
 63
     7
 74
     1
 91
        4
 64
     7
 65
   257
 75
     1
175
     1
 42
1.0
 92
        0
 66
   257
 43
1.0
 76
     1
 77
     6
 78
     2
 67
     7
 79
     3
170
     0
171
     0
290
     0
174
     0
 93
        1
 44
0.0
173
     0
291
     0
 45
0.0
1001
ACAD
1000
AcDbSavedByObjectVersion
1070
     0
  0
VISUALSTYLE
  5
3C
102
{ACAD_XDICTIONARY
360
4F8
102
}
102
{ACAD_REACTORS
330
29
102
}
330
29
100
AcDbVisualStyle
  2
X-Ray
 70
    25
 71
     2
 72
     2
 73
     1
 90
        1
 40
0.5
 41
-30.0
 62
     5
 63
     7
 74
     1
 91
        0
 64
     7
 65
   257
 75
     1
175
     1
 42
1.0
 92
        8
 66
     7
 43
1.0
 76
     1
 77
     6
 78
     2
 67
     7
 79
     3
170
     0
171
     0
290
     0
174
     0
 93
       13
 44
0.0
173
     0
291
     0
 45
0.0
1001
ACAD
1000
AcDbSavedByObjectVersion
1070
     0
  0
DICTIONARYVAR
  5
77
102
{ACAD_REACTORS
330
74
102
}
330
74
100
DictionaryVariables
280
     0
  1
1:1
  0
DICTIONARYVAR
  5
76
102
{ACAD_REACTORS
330
74
102
}
330
74
100
DictionaryVariables
280
     0
  1
STANDARD
  0
DICTIONARYVAR
  5
75
102
{ACAD_REACTORS
330
74
102
}
330
74
100
DictionaryVariables
280
     0
  1
STANDARD
  0
DICTIONARYVAR
  5
484
102
{ACAD_REACTORS
330
74
102
}
330
74
100
DictionaryVariables
280
     0
  1
1
  0
DICTIONARYVAR
  5
483
102
{ACAD_REACTORS
330
74
102
}
330
74
100
DictionaryVariables
280
     0
  1
1
  0
DICTIONARYVAR
  5
482
102
{ACAD_REACTORS
330
74
102
}
330
74
100
DictionaryVariables
280
     0
  1
0
  0
DICTIONARYVAR
  5
47F
102
{ACAD_REACTORS
330
74
102
}
330
74
100
DictionaryVariables
280
     0
  1
0
  0
DICTIONARYVAR
  5
480
102
{ACAD_REACTORS
330
74
102
}
330
74
100
DictionaryVariables
280
     0
  1
0
  0
DICTIONARYVAR
  5
47E
102
{ACAD_REACTORS
330
74
102
}
330
74
100
DictionaryVariables
280
     0
  1
2
  0
DICTIONARYVAR
  5
47D
102
{ACAD_REACTORS
330
74
102
}
330
74
100
DictionaryVariables
280
     0
  1
1
  0
DICTIONARYVAR
  5
481
102
{ACAD_REACTORS
330
74
102
}
330
74
100
DictionaryVariables
280
     0
  1
127
  0
DICTIONARYVAR
  5
4CD
102
{ACAD_REACTORS
330
74
102
}
330
74
100
DictionaryVariables
280
     0
  1
2
  0
DICTIONARY
  5
505
330
6B
100
AcDbDictionary
280
     1
281
     1
  3
ACAD_XREC_ROUNDTRIP
360
506
  0
DICTIONARY
  5
509
330
73
100
AcDbDictionary
280
     1
281
     1
  3
ACAD_XREC_ROUNDTRIP
360
50A
  0
DICTIONARY
  5
507
330
6F
100
AcDbDictionary
280
     1
281
     1
  3
ACAD_XREC_ROUNDTRIP
360
508
  0
DICTIONARY
  5
1A
330
19
100
AcDbDictionary
280
     1
281
     1
  3
ACAD_XREC_ROUNDTRIP
360
4D2
  3
BUMPTILE
360
1C
  3
DIFFUSETILE
360
1B
  3
OPACITYTILE
360
1F
  3
REFLECTIONTILE
360
1E
  3
REFRACTIONTILE
360
20
  3
SPECULARTILE
360
1D
  0
DICTIONARY
  5
12
330
11
100
AcDbDictionary
280
     1
281
     1
  3
ACAD_XREC_ROUNDTRIP
360
4D1
  3
BUMPTILE
360
14
  3
DIFFUSETILE
360
13
  3
OPACITYTILE
360
17
  3
REFLECTIONTILE
360
16
  3
REFRACTIONTILE
360
18
  3
SPECULARTILE
360
15
  0
DICTIONARY
  5
22
330
21
100
AcDbDictionary
280
     1
281
     1
  3
ACAD_XREC_ROUNDTRIP
360
4D3
  3
BUMPTILE
360
24
  3
DIFFUSETILE
360
23
  3
OPACITYTILE
360
27
  3
REFLECTIONTILE
360
26
  3
REFRACTIONTILE
360
28
  3
SPECULARTILE
360
25
  0
DICTIONARY
  5
43A
330
65
100
AcDbDictionary
280
     1
281
     1
  3
ACAD_ROUNDTRIP_2008_TABLESTYLE_CELLSTYLEMAP
360
4CE
  3
ACAD_XREC_ROUNDTRIP
360
504
  0
DICTIONARY
  5
4DE
330
2F
100
AcDbDictionary
280
     1
281
     1
  3
ACAD_XREC_ROUNDTRIP
360
4DF
  0
DICTIONARY
  5
4DC
330
2E
100
AcDbDictionary
280
     1
281
     1
  3
ACAD_XREC_ROUNDTRIP
360
4DD
  0
DICTIONARY
  5
4EA
330
35
100
AcDbDictionary
280
     1
281
     1
  3
ACAD_XREC_ROUNDTRIP
360
4EB
  0
DICTIONARY
  5
4F2
330
39
100
AcDbDictionary
280
     1
281
     1
  3
ACAD_XREC_ROUNDTRIP
360
4F3
  0
DICTIONARY
  5
4E4
330
32
100
AcDbDictionary
280
     1
281
     1
  3
ACAD_XREC_ROUNDTRIP
360
4E5
  0
DICTIONARY
  5
4E8
330
34
100
AcDbDictionary
280
     1
281
     1
  3
ACAD_XREC_ROUNDTRIP
360
4E9
  0
DICTIONARY
  5
502
330
41
100
AcDbDictionary
280
     1
281
     1
  3
ACAD_XREC_ROUNDTRIP
360
503
  0
DICTIONARY
  5
4F0
330
38
100
AcDbDictionary
280
     1
281
     1
  3
ACAD_XREC_ROUNDTRIP
360
4F1
  0
DICTIONARY
  5
4D4
330
2A
100
AcDbDictionary
280
     1
281
     1
  3
ACAD_XREC_ROUNDTRIP
360
4D5
  0
DICTIONARY
  5
4D6
330
2B
100
AcDbDictionary
280
     1
281
     1
  3
ACAD_XREC_ROUNDTRIP
360
4D7
  0
DICTIONARY
  5
4D8
330
2C
100
AcDbDictionary
280
     1
281
     1
  3
ACAD_XREC_ROUNDTRIP
360
4D9
  0
DICTIONARY
  5
4DA
330
2D
100
AcDbDictionary
280
     1
281
     1
  3
ACAD_XREC_ROUNDTRIP
360
4DB
  0
DICTIONARY
  5
4E2
330
31
100
AcDbDictionary
280
     1
281
     1
  3
ACAD_XREC_ROUNDTRIP
360
4E3
  0
DICTIONARY
  5
4FE
330
3F
100
AcDbDictionary
280
     1
281
     1
  3
ACAD_XREC_ROUNDTRIP
360
4FF
  0
DICTIONARY
  5
4EE
330
37
100
AcDbDictionary
280
     1
281
     1
  3
ACAD_XREC_ROUNDTRIP
360
4EF
  0
DICTIONARY
  5
500
330
40
100
AcDbDictionary
280
     1
281
     1
  3
ACAD_XREC_ROUNDTRIP
360
501
  0
DICTIONARY
  5
4E6
330
33
100
AcDbDictionary
280
     1
281
     1
  3
ACAD_XREC_ROUNDTRIP
360
4E7
  0
DICTIONARY
  5
4FC
330
3E
100
AcDbDictionary
280
     1
281
     1
  3
ACAD_XREC_ROUNDTRIP
360
4FD
  0
DICTIONARY
  5
4FA
330
3D
100
AcDbDictionary
280
     1
281
     1
  3
ACAD_XREC_ROUNDTRIP
360
4FB
  0
DICTIONARY
  5
4F4
330
3A
100
AcDbDictionary
280
     1
281
     1
  3
ACAD_XREC_ROUNDTRIP
360
4F5
  0
DICTIONARY
  5
4F6
330
3B
100
AcDbDictionary
280
     1
281
     1
  3
ACAD_XREC_ROUNDTRIP
360
4F7
  0
DICTIONARY
  5
4EC
330
36
100
AcDbDictionary
280
     1
281
     1
  3
ACAD_XREC_ROUNDTRIP
360
4ED
  0
DICTIONARY
  5
4E0
330
30
100
AcDbDictionary
280
     1
281
     1
  3
ACAD_XREC_ROUNDTRIP
360
4E1
  0
DICTIONARY
  5
4F8
330
3C
100
AcDbDictionary
280
     1
281
     1
  3
ACAD_XREC_ROUNDTRIP
360
4F9
  0
XRECORD
  5
506
102
{ACAD_REACTORS
330
505
102
}
330
505
100
AcDbXrecord
280
     1
102
SHADEPLOT
 70
     0
102
SHADEPLOTRESLEVEL
 70
     2
102
SHADEPLOTCUSTOMDPI
 70
   300
  0
XRECORD
  5
50A
102
{ACAD_REACTORS
330
509
102
}
330
509
100
AcDbXrecord
280
     1
102
SHADEPLOT
 70
     0
102
SHADEPLOTRESLEVEL
 70
     2
102
SHADEPLOTCUSTOMDPI
 70
   300
  0
XRECORD
  5
508
102
{ACAD_REACTORS
330
507
102
}
330
507
100
AcDbXrecord
280
     1
102
SHADEPLOT
 70
     0
102
SHADEPLOTRESLEVEL
 70
     2
102
SHADEPLOTCUSTOMDPI
 70
   300
  0
XRECORD
  5
4D2
102
{ACAD_REACTORS
330
1A
102
}
330
1A
100
AcDbXrecord
280
     1
102
MATERIAL
148
0.0
149
0.0
149
0.0
 93
        0
 94
      127
282
     0
 72
     0
 77
     0
171
     0
175
     0
179
     0
273
     0
  0
XRECORD
  5
1C
102
{ACAD_REACTORS
330
1A
102
}
330
1A
100
AcDbXrecord
280
     1
270
     1
271
     1
  0
XRECORD
  5
1B
102
{ACAD_REACTORS
330
1A
102
}
330
1A
100
AcDbXrecord
280
     1
270
     1
271
     1
  0
XRECORD
  5
1F
102
{ACAD_REACTORS
330
1A
102
}
330
1A
100
AcDbXrecord
280
     1
270
     1
271
     1
  0
XRECORD
  5
1E
102
{ACAD_REACTORS
330
1A
102
}
330
1A
100
AcDbXrecord
280
     1
270
     1
271
     1
  0
XRECORD
  5
20
102
{ACAD_REACTORS
330
1A
102
}
330
1A
100
AcDbXrecord
280
     1
270
     1
271
     1
  0
XRECORD
  5
1D
102
{ACAD_REACTORS
330
1A
102
}
330
1A
100
AcDbXrecord
280
     1
270
     1
271
     1
  0
XRECORD
  5
4D1
102
{ACAD_REACTORS
330
12
102
}
330
12
100
AcDbXrecord
280
     1
102
MATERIAL
148
0.0
149
0.0
149
0.0
 93
        0
 94
      127
282
     0
 72
     0
 77
     0
171
     0
175
     0
179
     0
273
     0
  0
XRECORD
  5
14
102
{ACAD_REACTORS
330
12
102
}
330
12
100
AcDbXrecord
280
     1
270
     1
271
     1
  0
XRECORD
  5
13
102
{ACAD_REACTORS
330
12
102
}
330
12
100
AcDbXrecord
280
     1
270
     1
271
     1
  0
XRECORD
  5
17
102
{ACAD_REACTORS
330
12
102
}
330
12
100
AcDbXrecord
280
     1
270
     1
271
     1
  0
XRECORD
  5
16
102
{ACAD_REACTORS
330
12
102
}
330
12
100
AcDbXrecord
280
     1
270
     1
271
     1
  0
XRECORD
  5
18
102
{ACAD_REACTORS
330
12
102
}
330
12
100
AcDbXrecord
280
     1
270
     1
271
     1
  0
XRECORD
  5
15
102
{ACAD_REACTORS
330
12
102
}
330
12
100
AcDbXrecord
280
     1
270
     1
271
     1
  0
XRECORD
  5
4D3
102
{ACAD_REACTORS
330
22
102
}
330
22
100
AcDbXrecord
280
     1
102
MATERIAL
148
0.0
149
0.0
149
0.0
 93
        0
 94
      127
282
     0
 72
     0
 77
     0
171
     0
175
     0
179
     0
273
     0
  0
XRECORD
  5
24
102
{ACAD_REACTORS
330
22
102
}
330
22
100
AcDbXrecord
280
     1
270
     1
271
     1
  0
XRECORD
  5
23
102
{ACAD_REACTORS
330
22
102
}
330
22
100
AcDbXrecord
280
     1
270
     1
271
     1
  0
XRECORD
  5
27
102
{ACAD_REACTORS
330
22
102
}
330
22
100
AcDbXrecord
280
     1
270
     1
271
     1
  0
XRECORD
  5
26
102
{ACAD_REACTORS
330
22
102
}
330
22
100
AcDbXrecord
280
     1
270
     1
271
     1
  0
XRECORD
  5
28
102
{ACAD_REACTORS
330
22
102
}
330
22
100
AcDbXrecord
280
     1
270
     1
271
     1
  0
XRECORD
  5
25
102
{ACAD_REACTORS
330
22
102
}
330
22
100
AcDbXrecord
280
     1
270
     1
271
     1
  0
CELLSTYLEMAP
  5
4CE
102
{ACAD_REACTORS
330
43A
102
}
330
43A
100
AcDbCellStyleMap
 90
        3
300
CELLSTYLE
  1
TABLEFORMAT_BEGIN
 90
        5
170
     1
 91
        0
 92
    32768
 62
   257
 93
        1
300
CONTENTFORMAT
  1
CONTENTFORMAT_BEGIN
 90
        0
 91
        0
 92
      512
 93
        0
300

 40
0.0
140
1.0
 94
        5
 62
     0
340
55
144
0.25
309
CONTENTFORMAT_END
171
     0
 94
        0
309
TABLEFORMAT_END
  1
CELLSTYLE_BEGIN
 90
        1
 91
        1
300
_TITLE
309
CELLSTYLE_END
300
CELLSTYLE
  1
TABLEFORMAT_BEGIN
 90
        5
170
     1
 91
        0
 92
        0
 62
   257
 93
        1
300
CONTENTFORMAT
  1
CONTENTFORMAT_BEGIN
 90
        0
 91
        0
 92
      512
 93
        0
300

 40
0.0
140
1.0
 94
        5
 62
     0
340
55
144
0.18
309
CONTENTFORMAT_END
171
     0
 94
        0
309
TABLEFORMAT_END
  1
CELLSTYLE_BEGIN
 90
        2
 91
        1
300
_HEADER
309
CELLSTYLE_END
300
CELLSTYLE
  1
TABLEFORMAT_BEGIN
 90
        5
170
     1
 91
        0
 92
        0
 62
   257
 93
        1
300
CONTENTFORMAT
  1
CONTENTFORMAT_BEGIN
 90
        0
 91
        0
 92
      512
 93
        0
300

 40
0.0
140
1.0
 94
        2
 62
     0
340
55
144
0.18
309
CONTENTFORMAT_END
171
     0
 94
        0
309
TABLEFORMAT_END
  1
CELLSTYLE_BEGIN
 90
        3
 91
        2
300
_DATA
309
CELLSTYLE_END
  0
XRECORD
  5
504
102
{ACAD_REACTORS
330
43A
102
}
330
43A
100
AcDbXrecord
280
     1
102
ACAD_ROUNDTRIP_PRE2007_TABLESTYLE
 90
      512
 91
        0
  1

 92
      512
 93
        0
  2

 94
      512
 95
        0
  3

  0
XRECORD
  5
4DF
102
{ACAD_REACTORS
330
4DE
102
}
330
4DE
100
AcDbXrecord
280
     1
102
RTVSPropertyOp0
 70
     1
102
RTVSPropertyOp1
 70
     1
102
RTVSPropertyOp2
 70
     1
102
RTVSPropertyOp3
 70
     1
102
RTVSPropertyOp4
 70
     1
102
RTVSPropertyOp5
 70
     1
102
RTVSPropertyOp6
 70
     1
102
RTVSPropertyOp7
 70
     1
102
RTVSPropertyOp8
 70
     1
102
RTVSPropertyOp9
 70
     1
102
RTVSPropertyOp10
 70
     1
102
RTVSPropertyOp11
 70
     1
102
RTVSPropertyOp12
 70
     1
102
RTVSPropertyOp13
 70
     1
102
RTVSPropertyOp14
 70
     1
102
RTVSPropertyOp15
 70
     1
102
RTVSPropertyOp16
 70
     1
102
RTVSPropertyOp17
 70
     1
102
RTVSPropertyOp18
 70
     1
102
RTVSPropertyOp19
 70
     1
102
RTVSPropertyOp20
 70
     1
102
RTVSPropertyOp21
 70
     1
102
RTVSPropertyOp22
 70
     1
102
RTVSPropertyOp23
 70
     1
102
RTVSPropertyOp24
 70
     1
102
RTVSPropertyOp25
 70
     1
102
RTVSPropertyOp26
 70
     1
102
RTVSPropertyOp27
 70
     1
102
RTVSPropertyOp28
 70
     1
102
RTVSPropertyOp29
 70
     1
102
RTVSPropertyOp30
 70
     1
102
RTVSPropertyOp31
 70
     1
102
RTVSPropertyOp32
 70
     1
  0
XRECORD
  5
4DD
102
{ACAD_REACTORS
330
4DC
102
}
330
4DC
100
AcDbXrecord
280
     1
102
RTVSPropertyOp0
 70
     1
102
RTVSPropertyOp1
 70
     1
102
RTVSPropertyOp2
 70
     1
102
RTVSPropertyOp3
 70
     1
102
RTVSPropertyOp4
 70
     1
102
RTVSPropertyOp5
 70
     1
102
RTVSPropertyOp6
 70
     1
102
RTVSPropertyOp7
 70
     1
102
RTVSPropertyOp8
 70
     1
102
RTVSPropertyOp9
 70
     1
102
RTVSPropertyOp10
 70
     1
102
RTVSPropertyOp11
 70
     1
102
RTVSPropertyOp12
 70
     1
102
RTVSPropertyOp13
 70
     1
102
RTVSPropertyOp14
 70
     1
102
RTVSPropertyOp15
 70
     1
102
RTVSPropertyOp16
 70
     1
102
RTVSPropertyOp17
 70
     1
102
RTVSPropertyOp18
 70
     1
102
RTVSPropertyOp19
 70
     1
102
RTVSPropertyOp20
 70
     1
102
RTVSPropertyOp21
 70
     1
102
RTVSPropertyOp22
 70
     1
102
RTVSPropertyOp23
 70
     1
102
RTVSPropertyOp24
 70
     1
102
RTVSPropertyOp25
 70
     1
102
RTVSPropertyOp26
 70
     1
102
RTVSPropertyOp27
 70
     1
102
RTVSPropertyOp28
 70
     1
102
RTVSPropertyOp29
 70
     1
102
RTVSPropertyOp30
 70
     1
102
RTVSPropertyOp31
 70
     1
102
RTVSPropertyOp32
 70
     1
  0
XRECORD
  5
4EB
102
{ACAD_REACTORS
330
4EA
102
}
330
4EA
100
AcDbXrecord
280
     1
102
RTVSPropertyOp0
 70
     1
102
RTVSPropertyOp1
 70
     1
102
RTVSPropertyOp2
 70
     1
102
RTVSPropertyOp3
 70
     1
102
RTVSPropertyOp4
 70
     1
102
RTVSPropertyOp5
 70
     1
102
RTVSPropertyOp6
 70
     1
102
RTVSPropertyOp7
 70
     1
102
RTVSPropertyOp8
 70
     1
102
RTVSPropertyOp9
 70
     1
102
RTVSPropertyOp10
 70
     1
102
RTVSPropertyOp11
 70
     1
102
RTVSPropertyOp12
 70
     1
102
RTVSPropertyOp13
 70
     1
102
RTVSPropertyOp14
 70
     1
102
RTVSPropertyOp15
 70
     1
102
RTVSPropertyOp16
 70
     1
102
RTVSPropertyOp17
 70
     1
102
RTVSPropertyOp18
 70
     1
102
RTVSPropertyOp19
 70
     1
102
RTVSPropertyOp20
 70
     1
102
RTVSPropertyOp21
 70
     1
102
RTVSPropertyOp22
 70
     1
102
RTVSPropertyOp23
 70
     1
102
RTVSPropertyOp24
 70
     1
102
RTVSPropertyOp25
 70
     1
102
RTVSPropertyOp26
 70
     1
102
RTVSPropertyOp27
 70
     1
102
RTVSPropertyOp28
 70
     1
102
RTVSPropertyOp29
 70
     1
102
RTVSPropertyOp30
 70
     1
102
RTVSPropertyOp31
 70
     1
102
RTVSPropertyOp32
 70
     1
  0
XRECORD
  5
4F3
102
{ACAD_REACTORS
330
4F2
102
}
330
4F2
100
AcDbXrecord
280
     1
102
RTVSPropertyOp0
 70
     1
102
RTVSPropertyOp1
 70
     1
102
RTVSPropertyOp2
 70
     1
102
RTVSPropertyOp3
 70
     1
102
RTVSPropertyOp4
 70
     1
102
RTVSPropertyOp5
 70
     1
102
RTVSPropertyOp6
 70
     1
102
RTVSPropertyOp7
 70
     1
102
RTVSPropertyOp8
 70
     1
102
RTVSPropertyOp9
 70
     1
102
RTVSPropertyOp10
 70
     1
102
RTVSPropertyOp11
 70
     1
102
RTVSPropertyOp12
 70
     1
102
RTVSPropertyOp13
 70
     1
102
RTVSPropertyOp14
 70
     1
102
RTVSPropertyOp15
 70
     1
102
RTVSPropertyOp16
 70
     1
102
RTVSPropertyOp17
 70
     1
102
RTVSPropertyOp18
 70
     1
102
RTVSPropertyOp19
 70
     1
102
RTVSPropertyOp20
 70
     1
102
RTVSPropertyOp21
 70
     1
102
RTVSPropertyOp22
 70
     1
102
RTVSPropertyOp23
 70
     1
102
RTVSPropertyOp24
 70
     1
102
RTVSPropertyOp25
 70
     1
102
RTVSPropertyOp26
 70
     1
102
RTVSPropertyOp27
 70
     1
102
RTVSPropertyOp28
 70
     1
102
RTVSPropertyOp29
 70
     1
102
RTVSPropertyOp30
 70
     1
102
RTVSPropertyOp31
 70
     1
102
RTVSPropertyOp32
 70
     1
  0
XRECORD
  5
4E5
102
{ACAD_REACTORS
330
4E4
102
}
330
4E4
100
AcDbXrecord
280
     1
102
RTVSPropertyOp0
 70
     1
102
RTVSPropertyOp1
 70
     1
102
RTVSPropertyOp2
 70
     1
102
RTVSPropertyOp3
 70
     1
102
RTVSPropertyOp4
 70
     1
102
RTVSPropertyOp5
 70
     1
102
RTVSPropertyOp6
 70
     1
102
RTVSPropertyOp7
 70
     1
102
RTVSPropertyOp8
 70
     1
102
RTVSPropertyOp9
 70
     1
102
RTVSPropertyOp10
 70
     1
102
RTVSPropertyOp11
 70
     1
102
RTVSPropertyOp12
 70
     1
102
RTVSPropertyOp13
 70
     1
102
RTVSPropertyOp14
 70
     1
102
RTVSPropertyOp15
 70
     1
102
RTVSPropertyOp16
 70
     1
102
RTVSPropertyOp17
 70
     1
102
RTVSPropertyOp18
 70
     1
102
RTVSPropertyOp19
 70
     1
102
RTVSPropertyOp20
 70
     1
102
RTVSPropertyOp21
 70
     1
102
RTVSPropertyOp22
 70
     1
102
RTVSPropertyOp23
 70
     1
102
RTVSPropertyOp24
 70
     1
102
RTVSPropertyOp25
 70
     1
102
RTVSPropertyOp26
 70
     1
102
RTVSPropertyOp27
 70
     1
102
RTVSPropertyOp28
 70
     1
102
RTVSPropertyOp29
 70
     1
102
RTVSPropertyOp30
 70
     1
102
RTVSPropertyOp31
 70
     1
102
RTVSPropertyOp32
 70
     1
  0
XRECORD
  5
4E9
102
{ACAD_REACTORS
330
4E8
102
}
330
4E8
100
AcDbXrecord
280
     1
102
RTVSPropertyOp0
 70
     1
102
RTVSPropertyOp1
 70
     1
102
RTVSPropertyOp2
 70
     1
102
RTVSPropertyOp3
 70
     1
102
RTVSPropertyOp4
 70
     1
102
RTVSPropertyOp5
 70
     1
102
RTVSPropertyOp6
 70
     1
102
RTVSPropertyOp7
 70
     1
102
RTVSPropertyOp8
 70
     1
102
RTVSPropertyOp9
 70
     1
102
RTVSPropertyOp10
 70
     1
102
RTVSPropertyOp11
 70
     1
102
RTVSPropertyOp12
 70
     1
102
RTVSPropertyOp13
 70
     1
102
RTVSPropertyOp14
 70
     1
102
RTVSPropertyOp15
 70
     1
102
RTVSPropertyOp16
 70
     1
102
RTVSPropertyOp17
 70
     1
102
RTVSPropertyOp18
 70
     1
102
RTVSPropertyOp19
 70
     1
102
RTVSPropertyOp20
 70
     1
102
RTVSPropertyOp21
 70
     1
102
RTVSPropertyOp22
 70
     1
102
RTVSPropertyOp23
 70
     1
102
RTVSPropertyOp24
 70
     1
102
RTVSPropertyOp25
 70
     1
102
RTVSPropertyOp26
 70
     1
102
RTVSPropertyOp27
 70
     1
102
RTVSPropertyOp28
 70
     1
102
RTVSPropertyOp29
 70
     1
102
RTVSPropertyOp30
 70
     1
102
RTVSPropertyOp31
 70
     1
102
RTVSPropertyOp32
 70
     1
  0
XRECORD
  5
503
102
{ACAD_REACTORS
330
502
102
}
330
502
100
AcDbXrecord
280
     1
102
RTVSPropertyOp0
 70
     0
102
RTVSPropertyOp1
 70
     0
102
RTVSPropertyOp2
 70
     0
102
RTVSPropertyOp3
 70
     0
102
RTVSPropertyOp4
 70
     0
102
RTVSPropertyOp5
 70
     0
102
RTVSPropertyOp6
 70
     0
102
RTVSPropertyOp7
 70
     0
102
RTVSPropertyOp8
 70
     0
102
RTVSPropertyOp9
 70
     0
102
RTVSPropertyOp10
 70
     0
102
RTVSPropertyOp11
 70
     0
102
RTVSPropertyOp12
 70
     0
102
RTVSPropertyOp13
 70
     0
102
RTVSPropertyOp14
 70
     2
102
RTVSPropertyOp15
 70
     0
102
RTVSPropertyOp16
 70
     0
102
RTVSPropertyOp17
 70
     0
102
RTVSPropertyOp18
 70
     0
102
RTVSPropertyOp19
 70
     0
102
RTVSPropertyOp20
 70
     0
102
RTVSPropertyOp21
 70
     0
102
RTVSPropertyOp22
 70
     0
102
RTVSPropertyOp23
 70
     0
102
RTVSPropertyOp24
 70
     0
102
RTVSPropertyOp25
 70
     0
102
RTVSPropertyOp26
 70
     0
102
RTVSPropertyOp27
 70
     0
102
RTVSPropertyOp28
 70
     1
102
RTVSPropertyOp29
 70
     1
102
RTVSPropertyOp30
 70
     1
102
RTVSPropertyOp31
 70
     1
102
RTVSPropertyOp32
 70
     1
  0
XRECORD
  5
4F1
102
{ACAD_REACTORS
330
4F0
102
}
330
4F0
100
AcDbXrecord
280
     1
102
RTVSPropertyOp0
 70
     1
102
RTVSPropertyOp1
 70
     1
102
RTVSPropertyOp2
 70
     1
102
RTVSPropertyOp3
 70
     1
102
RTVSPropertyOp4
 70
     1
102
RTVSPropertyOp5
 70
     1
102
RTVSPropertyOp6
 70
     1
102
RTVSPropertyOp7
 70
     1
102
RTVSPropertyOp8
 70
     1
102
RTVSPropertyOp9
 70
     1
102
RTVSPropertyOp10
 70
     1
102
RTVSPropertyOp11
 70
     1
102
RTVSPropertyOp12
 70
     1
102
RTVSPropertyOp13
 70
     1
102
RTVSPropertyOp14
 70
     1
102
RTVSPropertyOp15
 70
     1
102
RTVSPropertyOp16
 70
     1
102
RTVSPropertyOp17
 70
     1
102
RTVSPropertyOp18
 70
     1
102
RTVSPropertyOp19
 70
     1
102
RTVSPropertyOp20
 70
     1
102
RTVSPropertyOp21
 70
     1
102
RTVSPropertyOp22
 70
     1
102
RTVSPropertyOp23
 70
     1
102
RTVSPropertyOp24
 70
     1
102
RTVSPropertyOp25
 70
     1
102
RTVSPropertyOp26
 70
     1
102
RTVSPropertyOp27
 70
     1
102
RTVSPropertyOp28
 70
     1
102
RTVSPropertyOp29
 70
     1
102
RTVSPropertyOp30
 70
     1
102
RTVSPropertyOp31
 70
     1
102
RTVSPropertyOp32
 70
     1
  0
XRECORD
  5
4D5
102
{ACAD_REACTORS
330
4D4
102
}
330
4D4
100
AcDbXrecord
280
     1
102
RTVSPropertyOp0
 70
     1
102
RTVSPropertyOp1
 70
     1
102
RTVSPropertyOp2
 70
     1
102
RTVSPropertyOp3
 70
     1
102
RTVSPropertyOp4
 70
     1
102
RTVSPropertyOp5
 70
     1
102
RTVSPropertyOp6
 70
     1
102
RTVSPropertyOp7
 70
     1
102
RTVSPropertyOp8
 70
     1
102
RTVSPropertyOp9
 70
     1
102
RTVSPropertyOp10
 70
     1
102
RTVSPropertyOp11
 70
     1
102
RTVSPropertyOp12
 70
     1
102
RTVSPropertyOp13
 70
     1
102
RTVSPropertyOp14
 70
     1
102
RTVSPropertyOp15
 70
     1
102
RTVSPropertyOp16
 70
     1
102
RTVSPropertyOp17
 70
     1
102
RTVSPropertyOp18
 70
     1
102
RTVSPropertyOp19
 70
     1
102
RTVSPropertyOp20
 70
     1
102
RTVSPropertyOp21
 70
     1
102
RTVSPropertyOp22
 70
     1
102
RTVSPropertyOp23
 70
     1
102
RTVSPropertyOp24
 70
     1
102
RTVSPropertyOp25
 70
     1
102
RTVSPropertyOp26
 70
     1
102
RTVSPropertyOp27
 70
     1
102
RTVSPropertyOp28
 70
     1
102
RTVSPropertyOp29
 70
     1
102
RTVSPropertyOp30
 70
     1
102
RTVSPropertyOp31
 70
     1
102
RTVSPropertyOp32
 70
     1
  0
XRECORD
  5
4D7
102
{ACAD_REACTORS
330
4D6
102
}
330
4D6
100
AcDbXrecord
280
     1
102
RTVSPropertyOp0
 70
     1
102
RTVSPropertyOp1
 70
     1
102
RTVSPropertyOp2
 70
     1
102
RTVSPropertyOp3
 70
     1
102
RTVSPropertyOp4
 70
     1
102
RTVSPropertyOp5
 70
     1
102
RTVSPropertyOp6
 70
     1
102
RTVSPropertyOp7
 70
     1
102
RTVSPropertyOp8
 70
     1
102
RTVSPropertyOp9
 70
     1
102
RTVSPropertyOp10
 70
     1
102
RTVSPropertyOp11
 70
     1
102
RTVSPropertyOp12
 70
     1
102
RTVSPropertyOp13
 70
     1
102
RTVSPropertyOp14
 70
     1
102
RTVSPropertyOp15
 70
     1
102
RTVSPropertyOp16
 70
     1
102
RTVSPropertyOp17
 70
     1
102
RTVSPropertyOp18
 70
     1
102
RTVSPropertyOp19
 70
     1
102
RTVSPropertyOp20
 70
     1
102
RTVSPropertyOp21
 70
     1
102
RTVSPropertyOp22
 70
     1
102
RTVSPropertyOp23
 70
     1
102
RTVSPropertyOp24
 70
     1
102
RTVSPropertyOp25
 70
     1
102
RTVSPropertyOp26
 70
     1
102
RTVSPropertyOp27
 70
     1
102
RTVSPropertyOp28
 70
     1
102
RTVSPropertyOp29
 70
     1
102
RTVSPropertyOp30
 70
     1
102
RTVSPropertyOp31
 70
     1
102
RTVSPropertyOp32
 70
     1
  0
XRECORD
  5
4D9
102
{ACAD_REACTORS
330
4D8
102
}
330
4D8
100
AcDbXrecord
280
     1
102
RTVSPropertyOp0
 70
     1
102
RTVSPropertyOp1
 70
     1
102
RTVSPropertyOp2
 70
     1
102
RTVSPropertyOp3
 70
     1
102
RTVSPropertyOp4
 70
     1
102
RTVSPropertyOp5
 70
     1
102
RTVSPropertyOp6
 70
     1
102
RTVSPropertyOp7
 70
     1
102
RTVSPropertyOp8
 70
     1
102
RTVSPropertyOp9
 70
     1
102
RTVSPropertyOp10
 70
     1
102
RTVSPropertyOp11
 70
     1
102
RTVSPropertyOp12
 70
     1
102
RTVSPropertyOp13
 70
     1
102
RTVSPropertyOp14
 70
     1
102
RTVSPropertyOp15
 70
     1
102
RTVSPropertyOp16
 70
     1
102
RTVSPropertyOp17
 70
     1
102
RTVSPropertyOp18
 70
     1
102
RTVSPropertyOp19
 70
     1
102
RTVSPropertyOp20
 70
     1
102
RTVSPropertyOp21
 70
     1
102
RTVSPropertyOp22
 70
     1
102
RTVSPropertyOp23
 70
     1
102
RTVSPropertyOp24
 70
     1
102
RTVSPropertyOp25
 70
     1
102
RTVSPropertyOp26
 70
     1
102
RTVSPropertyOp27
 70
     1
102
RTVSPropertyOp28
 70
     1
102
RTVSPropertyOp29
 70
     1
102
RTVSPropertyOp30
 70
     1
102
RTVSPropertyOp31
 70
     1
102
RTVSPropertyOp32
 70
     1
  0
XRECORD
  5
4DB
102
{ACAD_REACTORS
330
4DA
102
}
330
4DA
100
AcDbXrecord
280
     1
102
RTVSPropertyOp0
 70
     1
102
RTVSPropertyOp1
 70
     1
102
RTVSPropertyOp2
 70
     1
102
RTVSPropertyOp3
 70
     1
102
RTVSPropertyOp4
 70
     1
102
RTVSPropertyOp5
 70
     1
102
RTVSPropertyOp6
 70
     1
102
RTVSPropertyOp7
 70
     1
102
RTVSPropertyOp8
 70
     1
102
RTVSPropertyOp9
 70
     1
102
RTVSPropertyOp10
 70
     1
102
RTVSPropertyOp11
 70
     1
102
RTVSPropertyOp12
 70
     1
102
RTVSPropertyOp13
 70
     1
102
RTVSPropertyOp14
 70
     1
102
RTVSPropertyOp15
 70
     1
102
RTVSPropertyOp16
 70
     1
102
RTVSPropertyOp17
 70
     1
102
RTVSPropertyOp18
 70
     1
102
RTVSPropertyOp19
 70
     1
102
RTVSPropertyOp20
 70
     1
102
RTVSPropertyOp21
 70
     1
102
RTVSPropertyOp22
 70
     1
102
RTVSPropertyOp23
 70
     1
102
RTVSPropertyOp24
 70
     1
102
RTVSPropertyOp25
 70
     1
102
RTVSPropertyOp26
 70
     1
102
RTVSPropertyOp27
 70
     1
102
RTVSPropertyOp28
 70
     1
102
RTVSPropertyOp29
 70
     1
102
RTVSPropertyOp30
 70
     1
102
RTVSPropertyOp31
 70
     1
102
RTVSPropertyOp32
 70
     1
  0
XRECORD
  5
4E3
102
{ACAD_REACTORS
330
4E2
102
}
330
4E2
100
AcDbXrecord
280
     1
102
RTVSPropertyOp0
 70
     1
102
RTVSPropertyOp1
 70
     1
102
RTVSPropertyOp2
 70
     1
102
RTVSPropertyOp3
 70
     1
102
RTVSPropertyOp4
 70
     1
102
RTVSPropertyOp5
 70
     1
102
RTVSPropertyOp6
 70
     1
102
RTVSPropertyOp7
 70
     1
102
RTVSPropertyOp8
 70
     1
102
RTVSPropertyOp9
 70
     1
102
RTVSPropertyOp10
 70
     1
102
RTVSPropertyOp11
 70
     1
102
RTVSPropertyOp12
 70
     1
102
RTVSPropertyOp13
 70
     1
102
RTVSPropertyOp14
 70
     1
102
RTVSPropertyOp15
 70
     1
102
RTVSPropertyOp16
 70
     1
102
RTVSPropertyOp17
 70
     1
102
RTVSPropertyOp18
 70
     1
102
RTVSPropertyOp19
 70
     1
102
RTVSPropertyOp20
 70
     1
102
RTVSPropertyOp21
 70
     1
102
RTVSPropertyOp22
 70
     1
102
RTVSPropertyOp23
 70
     1
102
RTVSPropertyOp24
 70
     1
102
RTVSPropertyOp25
 70
     1
102
RTVSPropertyOp26
 70
     1
102
RTVSPropertyOp27
 70
     1
102
RTVSPropertyOp28
 70
     1
102
RTVSPropertyOp29
 70
     1
102
RTVSPropertyOp30
 70
     1
102
RTVSPropertyOp31
 70
     1
102
RTVSPropertyOp32
 70
     1
  0
XRECORD
  5
4FF
102
{ACAD_REACTORS
330
4FE
102
}
330
4FE
100
AcDbXrecord
280
     1
102
RTVSPropertyOp0
 70
     0
102
RTVSPropertyOp1
 70
     0
102
RTVSPropertyOp2
 70
     0
102
RTVSPropertyOp3
 70
     0
102
RTVSPropertyOp4
 70
     0
102
RTVSPropertyOp5
 70
     0
102
RTVSPropertyOp6
 70
     0
102
RTVSPropertyOp7
 70
     0
102
RTVSPropertyOp8
 70
     0
102
RTVSPropertyOp9
 70
     0
102
RTVSPropertyOp10
 70
     0
102
RTVSPropertyOp11
 70
     0
102
RTVSPropertyOp12
 70
     0
102
RTVSPropertyOp13
 70
     0
102
RTVSPropertyOp14
 70
     2
102
RTVSPropertyOp15
 70
     0
102
RTVSPropertyOp16
 70
     0
102
RTVSPropertyOp17
 70
     0
102
RTVSPropertyOp18
 70
     0
102
RTVSPropertyOp19
 70
     0
102
RTVSPropertyOp20
 70
     0
102
RTVSPropertyOp21
 70
     0
102
RTVSPropertyOp22
 70
     0
102
RTVSPropertyOp23
 70
     0
102
RTVSPropertyOp24
 70
     0
102
RTVSPropertyOp25
 70
     0
102
RTVSPropertyOp26
 70
     0
102
RTVSPropertyOp27
 70
     0
102
RTVSPropertyOp28
 70
     1
102
RTVSPropertyOp29
 70
     1
102
RTVSPropertyOp30
 70
     1
102
RTVSPropertyOp31
 70
     1
102
RTVSPropertyOp32
 70
     1
  0
XRECORD
  5
4EF
102
{ACAD_REACTORS
330
4EE
102
}
330
4EE
100
AcDbXrecord
280
     1
102
RTVSPropertyOp0
 70
     1
102
RTVSPropertyOp1
 70
     1
102
RTVSPropertyOp2
 70
     1
102
RTVSPropertyOp3
 70
     1
102
RTVSPropertyOp4
 70
     1
102
RTVSPropertyOp5
 70
     1
102
RTVSPropertyOp6
 70
     1
102
RTVSPropertyOp7
 70
     1
102
RTVSPropertyOp8
 70
     1
102
RTVSPropertyOp9
 70
     1
102
RTVSPropertyOp10
 70
     1
102
RTVSPropertyOp11
 70
     1
102
RTVSPropertyOp12
 70
     1
102
RTVSPropertyOp13
 70
     1
102
RTVSPropertyOp14
 70
     1
102
RTVSPropertyOp15
 70
     1
102
RTVSPropertyOp16
 70
     1
102
RTVSPropertyOp17
 70
     1
102
RTVSPropertyOp18
 70
     1
102
RTVSPropertyOp19
 70
     1
102
RTVSPropertyOp20
 70
     1
102
RTVSPropertyOp21
 70
     1
102
RTVSPropertyOp22
 70
     1
102
RTVSPropertyOp23
 70
     1
102
RTVSPropertyOp24
 70
     1
102
RTVSPropertyOp25
 70
     1
102
RTVSPropertyOp26
 70
     1
102
RTVSPropertyOp27
 70
     1
102
RTVSPropertyOp28
 70
     1
102
RTVSPropertyOp29
 70
     1
102
RTVSPropertyOp30
 70
     1
102
RTVSPropertyOp31
 70
     1
102
RTVSPropertyOp32
 70
     1
  0
XRECORD
  5
501
102
{ACAD_REACTORS
330
500
102
}
330
500
100
AcDbXrecord
280
     1
102
RTVSPropertyOp0
 70
     0
102
RTVSPropertyOp1
 70
     0
102
RTVSPropertyOp2
 70
     0
102
RTVSPropertyOp3
 70
     0
102
RTVSPropertyOp4
 70
     0
102
RTVSPropertyOp5
 70
     0
102
RTVSPropertyOp6
 70
     0
102
RTVSPropertyOp7
 70
     0
102
RTVSPropertyOp8
 70
     0
102
RTVSPropertyOp9
 70
     0
102
RTVSPropertyOp10
 70
     0
102
RTVSPropertyOp11
 70
     0
102
RTVSPropertyOp12
 70
     0
102
RTVSPropertyOp13
 70
     0
102
RTVSPropertyOp14
 70
     2
102
RTVSPropertyOp15
 70
     0
102
RTVSPropertyOp16
 70
     0
102
RTVSPropertyOp17
 70
     0
102
RTVSPropertyOp18
 70
     0
102
RTVSPropertyOp19
 70
     0
102
RTVSPropertyOp20
 70
     0
102
RTVSPropertyOp21
 70
     0
102
RTVSPropertyOp22
 70
     0
102
RTVSPropertyOp23
 70
     0
102
RTVSPropertyOp24
 70
     0
102
RTVSPropertyOp25
 70
     0
102
RTVSPropertyOp26
 70
     0
102
RTVSPropertyOp27
 70
     0
102
RTVSPropertyOp28
 70
     1
102
RTVSPropertyOp29
 70
     1
102
RTVSPropertyOp30
 70
     1
102
RTVSPropertyOp31
 70
     1
102
RTVSPropertyOp32
 70
     1
  0
XRECORD
  5
4E7
102
{ACAD_REACTORS
330
4E6
102
}
330
4E6
100
AcDbXrecord
280
     1
102
RTVSPropertyOp0
 70
     1
102
RTVSPropertyOp1
 70
     1
102
RTVSPropertyOp2
 70
     1
102
RTVSPropertyOp3
 70
     1
102
RTVSPropertyOp4
 70
     1
102
RTVSPropertyOp5
 70
     1
102
RTVSPropertyOp6
 70
     1
102
RTVSPropertyOp7
 70
     1
102
RTVSPropertyOp8
 70
     1
102
RTVSPropertyOp9
 70
     1
102
RTVSPropertyOp10
 70
     1
102
RTVSPropertyOp11
 70
     1
102
RTVSPropertyOp12
 70
     1
102
RTVSPropertyOp13
 70
     1
102
RTVSPropertyOp14
 70
     1
102
RTVSPropertyOp15
 70
     1
102
RTVSPropertyOp16
 70
     1
102
RTVSPropertyOp17
 70
     1
102
RTVSPropertyOp18
 70
     1
102
RTVSPropertyOp19
 70
     1
102
RTVSPropertyOp20
 70
     1
102
RTVSPropertyOp21
 70
     1
102
RTVSPropertyOp22
 70
     1
102
RTVSPropertyOp23
 70
     1
102
RTVSPropertyOp24
 70
     1
102
RTVSPropertyOp25
 70
     1
102
RTVSPropertyOp26
 70
     1
102
RTVSPropertyOp27
 70
     1
102
RTVSPropertyOp28
 70
     1
102
RTVSPropertyOp29
 70
     1
102
RTVSPropertyOp30
 70
     1
102
RTVSPropertyOp31
 70
     1
102
RTVSPropertyOp32
 70
     1
  0
XRECORD
  5
4FD
102
{ACAD_REACTORS
330
4FC
102
}
330
4FC
100
AcDbXrecord
280
     1
102
RTVSPropertyOp0
 70
     1
102
RTVSPropertyOp1
 70
     1
102
RTVSPropertyOp2
 70
     1
102
RTVSPropertyOp3
 70
     1
102
RTVSPropertyOp4
 70
     1
102
RTVSPropertyOp5
 70
     1
102
RTVSPropertyOp6
 70
     1
102
RTVSPropertyOp7
 70
     1
102
RTVSPropertyOp8
 70
     1
102
RTVSPropertyOp9
 70
     1
102
RTVSPropertyOp10
 70
     1
102
RTVSPropertyOp11
 70
     1
102
RTVSPropertyOp12
 70
     1
102
RTVSPropertyOp13
 70
     1
102
RTVSPropertyOp14
 70
     1
102
RTVSPropertyOp15
 70
     1
102
RTVSPropertyOp16
 70
     1
102
RTVSPropertyOp17
 70
     1
102
RTVSPropertyOp18
 70
     1
102
RTVSPropertyOp19
 70
     1
102
RTVSPropertyOp20
 70
     1
102
RTVSPropertyOp21
 70
     1
102
RTVSPropertyOp22
 70
     1
102
RTVSPropertyOp23
 70
     1
102
RTVSPropertyOp24
 70
     1
102
RTVSPropertyOp25
 70
     1
102
RTVSPropertyOp26
 70
     1
102
RTVSPropertyOp27
 70
     1
102
RTVSPropertyOp28
 70
     1
102
RTVSPropertyOp29
 70
     1
102
RTVSPropertyOp30
 70
     1
102
RTVSPropertyOp31
 70
     1
102
RTVSPropertyOp32
 70
     1
  0
XRECORD
  5
4FB
102
{ACAD_REACTORS
330
4FA
102
}
330
4FA
100
AcDbXrecord
280
     1
102
RTVSPropertyOp0
 70
     1
102
RTVSPropertyOp1
 70
     1
102
RTVSPropertyOp2
 70
     1
102
RTVSPropertyOp3
 70
     1
102
RTVSPropertyOp4
 70
     1
102
RTVSPropertyOp5
 70
     1
102
RTVSPropertyOp6
 70
     1
102
RTVSPropertyOp7
 70
     1
102
RTVSPropertyOp8
 70
     1
102
RTVSPropertyOp9
 70
     1
102
RTVSPropertyOp10
 70
     1
102
RTVSPropertyOp11
 70
     1
102
RTVSPropertyOp12
 70
     1
102
RTVSPropertyOp13
 70
     1
102
RTVSPropertyOp14
 70
     1
102
RTVSPropertyOp15
 70
     1
102
RTVSPropertyOp16
 70
     1
102
RTVSPropertyOp17
 70
     1
102
RTVSPropertyOp18
 70
     1
102
RTVSPropertyOp19
 70
     1
102
RTVSPropertyOp20
 70
     1
102
RTVSPropertyOp21
 70
     1
102
RTVSPropertyOp22
 70
     1
102
RTVSPropertyOp23
 70
     1
102
RTVSPropertyOp24
 70
     1
102
RTVSPropertyOp25
 70
     1
102
RTVSPropertyOp26
 70
     1
102
RTVSPropertyOp27
 70
     1
102
RTVSPropertyOp28
 70
     1
102
RTVSPropertyOp29
 70
     1
102
RTVSPropertyOp30
 70
     1
102
RTVSPropertyOp31
 70
     1
102
RTVSPropertyOp32
 70
     1
  0
XRECORD
  5
4F5
102
{ACAD_REACTORS
330
4F4
102
}
330
4F4
100
AcDbXrecord
280
     1
102
RTVSPropertyOp0
 70
     1
102
RTVSPropertyOp1
 70
     1
102
RTVSPropertyOp2
 70
     1
102
RTVSPropertyOp3
 70
     1
102
RTVSPropertyOp4
 70
     1
102
RTVSPropertyOp5
 70
     1
102
RTVSPropertyOp6
 70
     1
102
RTVSPropertyOp7
 70
     1
102
RTVSPropertyOp8
 70
     1
102
RTVSPropertyOp9
 70
     1
102
RTVSPropertyOp10
 70
     1
102
RTVSPropertyOp11
 70
     1
102
RTVSPropertyOp12
 70
     1
102
RTVSPropertyOp13
 70
     1
102
RTVSPropertyOp14
 70
     1
102
RTVSPropertyOp15
 70
     1
102
RTVSPropertyOp16
 70
     1
102
RTVSPropertyOp17
 70
     1
102
RTVSPropertyOp18
 70
     1
102
RTVSPropertyOp19
 70
     1
102
RTVSPropertyOp20
 70
     1
102
RTVSPropertyOp21
 70
     1
102
RTVSPropertyOp22
 70
     1
102
RTVSPropertyOp23
 70
     1
102
RTVSPropertyOp24
 70
     1
102
RTVSPropertyOp25
 70
     1
102
RTVSPropertyOp26
 70
     1
102
RTVSPropertyOp27
 70
     1
102
RTVSPropertyOp28
 70
     1
102
RTVSPropertyOp29
 70
     1
102
RTVSPropertyOp30
 70
     1
102
RTVSPropertyOp31
 70
     1
102
RTVSPropertyOp32
 70
     1
  0
XRECORD
  5
4F7
102
{ACAD_REACTORS
330
4F6
102
}
330
4F6
100
AcDbXrecord
280
     1
102
RTVSPropertyOp0
 70
     1
102
RTVSPropertyOp1
 70
     1
102
RTVSPropertyOp2
 70
     1
102
RTVSPropertyOp3
 70
     1
102
RTVSPropertyOp4
 70
     1
102
RTVSPropertyOp5
 70
     1
102
RTVSPropertyOp6
 70
     1
102
RTVSPropertyOp7
 70
     1
102
RTVSPropertyOp8
 70
     1
102
RTVSPropertyOp9
 70
     1
102
RTVSPropertyOp10
 70
     1
102
RTVSPropertyOp11
 70
     1
102
RTVSPropertyOp12
 70
     1
102
RTVSPropertyOp13
 70
     1
102
RTVSPropertyOp14
 70
     1
102
RTVSPropertyOp15
 70
     1
102
RTVSPropertyOp16
 70
     1
102
RTVSPropertyOp17
 70
     1
102
RTVSPropertyOp18
 70
     1
102
RTVSPropertyOp19
 70
     1
102
RTVSPropertyOp20
 70
     1
102
RTVSPropertyOp21
 70
     1
102
RTVSPropertyOp22
 70
     1
102
RTVSPropertyOp23
 70
     1
102
RTVSPropertyOp24
 70
     1
102
RTVSPropertyOp25
 70
     1
102
RTVSPropertyOp26
 70
     1
102
RTVSPropertyOp27
 70
     1
102
RTVSPropertyOp28
 70
     1
102
RTVSPropertyOp29
 70
     1
102
RTVSPropertyOp30
 70
     1
102
RTVSPropertyOp31
 70
     1
102
RTVSPropertyOp32
 70
     1
  0
XRECORD
  5
4ED
102
{ACAD_REACTORS
330
4EC
102
}
330
4EC
100
AcDbXrecord
280
     1
102
RTVSPropertyOp0
 70
     1
102
RTVSPropertyOp1
 70
     1
102
RTVSPropertyOp2
 70
     1
102
RTVSPropertyOp3
 70
     1
102
RTVSPropertyOp4
 70
     1
102
RTVSPropertyOp5
 70
     1
102
RTVSPropertyOp6
 70
     1
102
RTVSPropertyOp7
 70
     1
102
RTVSPropertyOp8
 70
     1
102
RTVSPropertyOp9
 70
     1
102
RTVSPropertyOp10
 70
     1
102
RTVSPropertyOp11
 70
     1
102
RTVSPropertyOp12
 70
     1
102
RTVSPropertyOp13
 70
     1
102
RTVSPropertyOp14
 70
     1
102
RTVSPropertyOp15
 70
     1
102
RTVSPropertyOp16
 70
     1
102
RTVSPropertyOp17
 70
     1
102
RTVSPropertyOp18
 70
     1
102
RTVSPropertyOp19
 70
     1
102
RTVSPropertyOp20
 70
     1
102
RTVSPropertyOp21
 70
     1
102
RTVSPropertyOp22
 70
     1
102
RTVSPropertyOp23
 70
     1
102
RTVSPropertyOp24
 70
     1
102
RTVSPropertyOp25
 70
     1
102
RTVSPropertyOp26
 70
     1
102
RTVSPropertyOp27
 70
     1
102
RTVSPropertyOp28
 70
     1
102
RTVSPropertyOp29
 70
     1
102
RTVSPropertyOp30
 70
     1
102
RTVSPropertyOp31
 70
     1
102
RTVSPropertyOp32
 70
     1
  0
XRECORD
  5
4E1
102
{ACAD_REACTORS
330
4E0
102
}
330
4E0
100
AcDbXrecord
280
     1
102
RTVSPropertyOp0
 70
     1
102
RTVSPropertyOp1
 70
     1
102
RTVSPropertyOp2
 70
     1
102
RTVSPropertyOp3
 70
     1
102
RTVSPropertyOp4
 70
     1
102
RTVSPropertyOp5
 70
     1
102
RTVSPropertyOp6
 70
     1
102
RTVSPropertyOp7
 70
     1
102
RTVSPropertyOp8
 70
     1
102
RTVSPropertyOp9
 70
     1
102
RTVSPropertyOp10
 70
     1
102
RTVSPropertyOp11
 70
     1
102
RTVSPropertyOp12
 70
     1
102
RTVSPropertyOp13
 70
     1
102
RTVSPropertyOp14
 70
     1
102
RTVSPropertyOp15
 70
     1
102
RTVSPropertyOp16
 70
     1
102
RTVSPropertyOp17
 70
     1
102
RTVSPropertyOp18
 70
     1
102
RTVSPropertyOp19
 70
     1
102
RTVSPropertyOp20
 70
     1
102
RTVSPropertyOp21
 70
     1
102
RTVSPropertyOp22
 70
     1
102
RTVSPropertyOp23
 70
     1
102
RTVSPropertyOp24
 70
     1
102
RTVSPropertyOp25
 70
     1
102
RTVSPropertyOp26
 70
     1
102
RTVSPropertyOp27
 70
     1
102
RTVSPropertyOp28
 70
     1
102
RTVSPropertyOp29
 70
     1
102
RTVSPropertyOp30
 70
     1
102
RTVSPropertyOp31
 70
     1
102
RTVSPropertyOp32
 70
     1
  0
XRECORD
  5
4F9
102
{ACAD_REACTORS
330
4F8
102
}
330
4F8
100
AcDbXrecord
280
     1
102
RTVSPropertyOp0
 70
     1
102
RTVSPropertyOp1
 70
     1
102
RTVSPropertyOp2
 70
     1
102
RTVSPropertyOp3
 70
     1
102
RTVSPropertyOp4
 70
     1
102
RTVSPropertyOp5
 70
     1
102
RTVSPropertyOp6
 70
     1
102
RTVSPropertyOp7
 70
     1
102
RTVSPropertyOp8
 70
     1
102
RTVSPropertyOp9
 70
     1
102
RTVSPropertyOp10
 70
     1
102
RTVSPropertyOp11
 70
     1
102
RTVSPropertyOp12
 70
     1
102
RTVSPropertyOp13
 70
     1
102
RTVSPropertyOp14
 70
     1
102
RTVSPropertyOp15
 70
     1
102
RTVSPropertyOp16
 70
     1
102
RTVSPropertyOp17
 70
     1
102
RTVSPropertyOp18
 70
     1
102
RTVSPropertyOp19
 70
     1
102
RTVSPropertyOp20
 70
     1
102
RTVSPropertyOp21
 70
     1
102
RTVSPropertyOp22
 70
     1
102
RTVSPropertyOp23
 70
     1
102
RTVSPropertyOp24
 70
     1
102
RTVSPropertyOp25
 70
     1
102
RTVSPropertyOp26
 70
     1
102
RTVSPropertyOp27
 70
     1
102
RTVSPropertyOp28
 70
     1
102
RTVSPropertyOp29
 70
     1
102
RTVSPropertyOp30
 70
     1
102
RTVSPropertyOp31
 70
     1
102
RTVSPropertyOp32
 70
     1
  0
ENDSEC
  0
EOF
