  0
SECTION
  2
HEADER
  9
$ACADVER
  1
AC1015
  9
$ACADMAINTVER
 70
    20
  9
$DWGCODEPAGE
  3
ANSI_1252
  9
$INSBASE
 10
0.0
 20
0.0
 30
0.0
  9
$EXTMIN
 10
0.6239999999999995
 20
0.6239999999999981
 30
0.0
  9
$EXTMAX
 10
21.374
 20
16.374
 30
0.0
  9
$LIMMIN
 10
0.0
 20
0.0
  9
$LIMMAX
 10
22.0
 20
17.0
  9
$ORTHOMODE
 70
     1
  9
$REGENMODE
 70
     1
  9
$FILLMODE
 70
     1
  9
$QTEXTMODE
 70
     0
  9
$MIRRTEXT
 70
     0
  9
$LTSCALE
 40
2.0
  9
$ATTMODE
 70
     1
  9
$TEXTSIZE
 40
0.2
  9
$TRACEWID
 40
0.05
  9
$TEXTSTYLE
  7
Standard
  9
$CLAYER
  8
0
  9
$CELTYPE
  6
ByLayer
  9
$CECOLOR
 62
   256
  9
$CELTSCALE
 40
1.0
  9
$DISPSILH
 70
     0
  9
$DIMSCALE
 40
1.0
  9
$DIMASZ
 40
0.0708661417322835
  9
$DIMEXO
 40
0.0625
  9
$DIMDLI
 40
0.38
  9
$DIMRND
 40
0.0
  9
$DIMDLE
 40
0.0
  9
$DIMEXE
 40
0.18
  9
$DIMTP
 40
0.0
  9
$DIMTM
 40
0.0
  9
$DIMTXT
 40
0.0708661417322835
  9
$DIMCEN
 40
0.09
  9
$DIMTSZ
 40
0.0
  9
$DIMTOL
 70
     0
  9
$DIMLIM
 70
     0
  9
$DIMTIH
 70
     1
  9
$DIMTOH
 70
     1
  9
$DIMSE1
 70
     0
  9
$DIMSE2
 70
     0
  9
$DIMTAD
 70
     0
  9
$DIMZIN
 70
     0
  9
$DIMBLK
  1

  9
$DIMASO
 70
     1
  9
$DIMSHO
 70
     1
  9
$DIMPOST
  1

  9
$DIMAPOST
  1

  9
$DIMALT
 70
     0
  9
$DIMALTD
 70
     2
  9
$DIMALTF
 40
25.4
  9
$DIMLFAC
 40
1.0
  9
$DIMTOFL
 70
     0
  9
$DIMTVP
 40
0.0
  9
$DIMTIX
 70
     0
  9
$DIMSOXD
 70
     0
  9
$DIMSAH
 70
     0
  9
$DIMBLK1
  1

  9
$DIMBLK2
  1

  9
$DIMSTYLE
  2
Standard
  9
$DIMCLRD
 70
     0
  9
$DIMCLRE
 70
     0
  9
$DIMCLRT
 70
     0
  9
$DIMTFAC
 40
1.0
  9
$DIMGAP
 40
0.09
  9
$DIMJUST
 70
     0
  9
$DIMSD1
 70
     0
  9
$DIMSD2
 70
     0
  9
$DIMTOLJ
 70
     1
  9
$DIMTZIN
 70
     0
  9
$DIMALTZ
 70
     0
  9
$DIMALTTZ
 70
     0
  9
$DIMUPT
 70
     0
  9
$DIMDEC
 70
     4
  9
$DIMTDEC
 70
     4
  9
$DIMALTU
 70
     2
  9
$DIMALTTD
 70
     2
  9
$DIMTXSTY
  7
Standard
  9
$DIMAUNIT
 70
     0
  9
$DIMADEC
 70
     0
  9
$DIMALTRND
 40
0.0
  9
$DIMAZIN
 70
     0
  9
$DIMDSEP
 70
    46
  9
$DIMATFIT
 70
     3
  9
$DIMFRAC
 70
     0
  9
$DIMLDRBLK
  1

  9
$DIMLUNIT
 70
     2
  9
$DIMLWD
 70
    -2
  9
$DIMLWE
 70
    -2
  9
$DIMTMOVE
 70
     0
  9
$LUNITS
 70
     2
  9
$LUPREC
 70
     4
  9
$SKETCHINC
 40
0.1
  9
$FILLETRAD
 40
0.0
  9
$AUNITS
 70
     0
  9
$AUPREC
 70
     0
  9
$MENU
  1
.
  9
$ELEVATION
 40
0.0
  9
$PELEVATION
 40
0.0
  9
$THICKNESS
 40
0.0
  9
$LIMCHECK
 70
     0
  9
$CHAMFERA
 40
0.0
  9
$CHAMFERB
 40
0.0
  9
$CHAMFERC
 40
0.0
  9
$CHAMFERD
 40
0.0
  9
$SKPOLY
 70
     0
  9
$TDCREATE
 40
2455740.449958970
  9
$TDUCREATE
 40
2455740.741625636
  9
$TDUPDATE
 40
2455740.468492431
  9
$TDUUPDATE
 40
2455740.760159097
  9
$TDINDWG
 40
0.0051386806
  9
$TDUSRTIMER
 40
0.0051386806
  9
$USRTIMER
 70
     1
  9
$ANGBASE
 50
0.0
  9
$ANGDIR
 70
     0
  9
$PDMODE
 70
     0
  9
$PDSIZE
 40
0.0
  9
$PLINEWID
 40
0.0
  9
$SPLFRAME
 70
     0
  9
$SPLINETYPE
 70
     6
  9
$SPLINESEGS
 70
     8
  9
$HANDSEED
  5
35D
  9
$SURFTAB1
 70
     6
  9
$SURFTAB2
 70
     6
  9
$SURFTYPE
 70
     6
  9
$SURFU
 70
     6
  9
$SURFV
 70
     6
  9
$UCSBASE
  2

  9
$UCSNAME
  2

  9
$UCSORG
 10
0.0
 20
0.0
 30
0.0
  9
$UCSXDIR
 10
1.0
 20
0.0
 30
0.0
  9
$UCSYDIR
 10
0.0
 20
1.0
 30
0.0
  9
$UCSORTHOREF
  2

  9
$UCSORTHOVIEW
 70
     0
  9
$UCSORGTOP
 10
0.0
 20
0.0
 30
0.0
  9
$UCSORGBOTTOM
 10
0.0
 20
0.0
 30
0.0
  9
$UCSORGLEFT
 10
0.0
 20
0.0
 30
0.0
  9
$UCSORGRIGHT
 10
0.0
 20
0.0
 30
0.0
  9
$UCSORGFRONT
 10
0.0
 20
0.0
 30
0.0
  9
$UCSORGBACK
 10
0.0
 20
0.0
 30
0.0
  9
$PUCSBASE
  2

  9
$PUCSNAME
  2

  9
$PUCSORG
 10
0.0
 20
0.0
 30
0.0
  9
$PUCSXDIR
 10
1.0
 20
0.0
 30
0.0
  9
$PUCSYDIR
 10
0.0
 20
1.0
 30
0.0
  9
$PUCSORTHOREF
  2

  9
$PUCSORTHOVIEW
 70
     0
  9
$PUCSORGTOP
 10
0.0
 20
0.0
 30
0.0
  9
$PUCSORGBOTTOM
 10
0.0
 20
0.0
 30
0.0
  9
$PUCSORGLEFT
 10
0.0
 20
0.0
 30
0.0
  9
$PUCSORGRIGHT
 10
0.0
 20
0.0
 30
0.0
  9
$PUCSORGFRONT
 10
0.0
 20
0.0
 30
0.0
  9
$PUCSORGBACK
 10
0.0
 20
0.0
 30
0.0
  9
$USERI1
 70
     0
  9
$USERI2
 70
     0
  9
$USERI3
 70
     0
  9
$USERI4
 70
     0
  9
$USERI5
 70
     0
  9
$USERR1
 40
0.0
  9
$USERR2
 40
0.0
  9
$USERR3
 40
0.0
  9
$USERR4
 40
0.0
  9
$USERR5
 40
0.0
  9
$WORLDVIEW
 70
     1
  9
$SHADEDGE
 70
     3
  9
$SHADEDIF
 70
    70
  9
$TILEMODE
 70
     1
  9
$MAXACTVP
 70
    64
  9
$PINSBASE
 10
0.0
 20
0.0
 30
0.0
  9
$PLIMCHECK
 70
     0
  9
$PEXTMIN
 10
0.0
 20
0.0
 30
0.0
  9
$PEXTMAX
 10
22.0
 20
17.0
 30
0.0
  9
$PLIMMIN
 10
0.0
 20
0.0
  9
$PLIMMAX
 10
22.0
 20
17.0
  9
$UNITMODE
 70
     0
  9
$VISRETAIN
 70
     1
  9
$PLINEGEN
 70
     0
  9
$PSLTSCALE
 70
     1
  9
$TREEDEPTH
 70
  3020
  9
$CMLSTYLE
  2
Standard
  9
$CMLJUST
 70
     0
  9
$CMLSCALE
 40
1.0
  9
$PROXYGRAPHICS
 70
     1
  9
$MEASUREMENT
 70
     0
  9
$CELWEIGHT
370
    -1
  9
$ENDCAPS
280
     0
  9
$JOINSTYLE
280
     0
  9
$LWDISPLAY
290
     0
  9
$INSUNITS
 70
     1
  9
$HYPERLINKBASE
  1

  9
$STYLESHEET
  1

  9
$XEDIT
290
     1
  9
$CEPSNTYPE
380
     0
  9
$PSTYLEMODE
290
     1
  9
$FINGERPRINTGUID
  2
{DAA92C9D-33E8-424E-BEDA-4891B5E2B8FA}
  9
$VERSIONGUID
  2
{8D88C1DF-8858-4F21-A596-76398296065D}
  9
$EXTNAMES
290
     1
  9
$PSVPSCALE
 40
0.0
  9
$OLESTARTUP
290
     0
  0
ENDSEC
  0
SECTION
  2
CLASSES
  0
CLASS
  1
ACDBDICTIONARYWDFLT
  2
AcDbDictionaryWithDefault
  3
ObjectDBX Classes
 90
        0
280
     0
281
     0
  0
CLASS
  1
MATERIAL
  2
AcDbMaterial
  3
ObjectDBX Classes
 90
     1153
280
     0
281
     0
  0
CLASS
  1
VISUALSTYLE
  2
AcDbVisualStyle
  3
ObjectDBX Classes
 90
     4095
280
     0
281
     0
  0
CLASS
  1
SCALE
  2
AcDbScale
  3
ObjectDBX Classes
 90
     1153
280
     0
281
     0
  0
CLASS
  1
TABLESTYLE
  2
AcDbTableStyle
  3
ObjectDBX Classes
 90
     4095
280
     0
281
     0
  0
CLASS
  1
MLEADERSTYLE
  2
AcDbMLeaderStyle
  3
ACDB_MLEADERSTYLE_CLASS
 90
     4095
280
     0
281
     0
  0
CLASS
  1
DICTIONARYVAR
  2
AcDbDictionaryVar
  3
ObjectDBX Classes
 90
        0
280
     0
281
     0
  0
CLASS
  1
CELLSTYLEMAP
  2
AcDbCellStyleMap
  3
ObjectDBX Classes
 90
     1152
280
     0
281
     0
  0
CLASS
  1
ACDBPLACEHOLDER
  2
AcDbPlaceHolder
  3
ObjectDBX Classes
 90
        0
280
     0
281
     0
  0
CLASS
  1
LAYOUT
  2
AcDbLayout
  3
ObjectDBX Classes
 90
        0
280
     0
281
     0
  0
CLASS
  1
AEC_REFEDIT_STATUS_TRACKER
  2
AecDbRefEditStatusTracker
  3
AecArchBase60|Product Desc: Autodesk Architectural Desktop 2007 |Company: Autodesk,Inc. |WEB Address: www.autodesk.com
 90
      129
280
     0
281
     0
  0
CLASS
  1
NPOCOLLECTION
  2
AcDbImpNonPersistentObjectsCollection
  3
ObjectDBX Classes
 90
     1153
280
     0
281
     0
  0
CLASS
  1
SORTENTSTABLE
  2
AcDbSortentsTable
  3
ObjectDBX Classes
 90
        0
280
     0
281
     0
  0
ENDSEC
  0
SECTION
  2
TABLES
  0
TABLE
  2
VPORT
  5
8
102
{ACAD_XDICTIONARY
360
2B8
102
}
330
0
100
AcDbSymbolTable
 70
     1
  0
VPORT
  5
57
330
8
100
AcDbSymbolTableRecord
100
AcDbViewportTableRecord
  2
*Active
 70
     0
 10
0.0
 20
0.0
 11
1.0
 21
1.0
 12
14.80945109965393
 22
7.260526161650679
 13
0.0
 23
0.0
 14
1.0
 24
1.0
 15
0.0
 25
0.0
 16
0.0
 26
0.0
 36
1.0
 17
0.0
 27
0.0
 37
0.0
 40
22.9510609972767
 41
2.054123711340205
 42
50.0
 43
0.0
 44
0.0
 50
0.0
 51
0.0
 71
     0
 72
   100
 73
     1
 74
     1
 75
     0
 76
     0
 77
     0
 78
     0
281
     0
 65
     1
110
0.0
120
0.0
130
0.0
111
1.0
121
0.0
131
0.0
112
0.0
122
1.0
132
0.0
 79
     0
146
0.0
  0
ENDTAB
  0
TABLE
  2
LTYPE
  5
5
330
0
100
AcDbSymbolTable
 70
    59
  0
LTYPE
  5
5B
330
5
100
AcDbSymbolTableRecord
100
AcDbLinetypeTableRecord
  2
ByBlock
 70
     0
  3

 72
    65
 73
     0
 40
0.0
  0
LTYPE
  5
5C
330
5
100
AcDbSymbolTableRecord
100
AcDbLinetypeTableRecord
  2
ByLayer
 70
     0
  3

 72
    65
 73
     0
 40
0.0
  0
LTYPE
  5
5D
330
5
100
AcDbSymbolTableRecord
100
AcDbLinetypeTableRecord
  2
Continuous
 70
     0
  3
Solid line
 72
    65
 73
     0
 40
0.0
  0
LTYPE
  5
7A
330
5
100
AcDbSymbolTableRecord
100
AcDbLinetypeTableRecord
  2
BY_STANDARD
 70
     0
  3
By Standard ____________    ____    ____   _
 72
    65
 73
     6
 40
1.240299999999999
 49
0.6614
 74
     0
 49
-0.0827
 74
     0
 49
0.1654
 74
     0
 49
-0.0827
 74
     0
 49
0.1654
 74
     0
 49
-0.0827
 74
     0
  0
LTYPE
  5
7B
330
5
100
AcDbSymbolTableRecord
100
AcDbLinetypeTableRecord
  2
CHAIN
 70
     0
  3
Chain ____ _ ____ _ ____ _ ____ _ ____ _ ____
 72
    65
 73
     4
 40
0.7087
 49
0.4724000000000001
 74
     0
 49
-0.0591
 74
     0
 49
0.1181
 74
     0
 49
-0.0591
 74
     0
  0
LTYPE
  5
7C
330
5
100
AcDbSymbolTableRecord
100
AcDbLinetypeTableRecord
  2
DASH_DOT
 70
     0
  3
Dash dot __ . __ . __ . __ . __ . __ . __ . __
 72
    65
 73
     4
 40
0.37
 49
0.24
 74
     0
 49
-0.06
 74
     0
 49
0.01
 74
     0
 49
-0.06
 74
     0
  0
LTYPE
  5
7D
330
5
100
AcDbSymbolTableRecord
100
AcDbLinetypeTableRecord
  2
DOUBLE_DASH_DOT
 70
     0
  3
Double-Dash Dot __ __ . __ __ . __ __ . __ _
 72
    65
 73
     6
 40
0.4398
 49
0.24
 74
     0
 49
-0.06
 74
     0
 49
0.0098
 74
     0
 49
-0.06
 74
     0
 49
0.01
 74
     0
 49
-0.06
 74
     0
  0
LTYPE
  5
7E
330
5
100
AcDbSymbolTableRecord
100
AcDbLinetypeTableRecord
  2
DASH_TRIPLE_DOT
 70
     0
  3
Dash Triple-Dot _ . . . _ . . . _ . . . _
 72
    65
 73
     8
 40
0.51
 49
0.24
 74
     0
 49
-0.06
 74
     0
 49
0.01
 74
     0
 49
-0.06
 74
     0
 49
0.01
 74
     0
 49
-0.06
 74
     0
 49
0.01
 74
     0
 49
-0.06
 74
     0
  0
LTYPE
  5
7F
330
5
100
AcDbSymbolTableRecord
100
AcDbLinetypeTableRecord
  2
DASHED
 70
     0
  3
Dashed __ __ __ __ __ __ __ __ __ __ __ __ __ _
 72
    65
 73
     2
 40
0.2067
 49
0.1654
 74
     0
 49
-0.0413
 74
     0
  0
LTYPE
  5
80
330
5
100
AcDbSymbolTableRecord
100
AcDbLinetypeTableRecord
  2
DASH_DOUBLE_DOT
 70
     0
  3
Dash Double-Dot __ . . __ . . __ . . __ . .
 72
    65
 73
     6
 40
0.4398
 49
0.24
 74
     0
 49
-0.06
 74
     0
 49
0.0098
 74
     0
 49
-0.06
 74
     0
 49
0.01
 74
     0
 49
-0.06
 74
     0
  0
LTYPE
  5
81
330
5
100
AcDbSymbolTableRecord
100
AcDbLinetypeTableRecord
  2
DASHED_SPACE
 70
     0
  3
Dashed Space __ __ __ __ __ __ __ __ __ __ __ _
 72
    65
 73
     2
 40
0.2067
 49
0.1654
 74
     0
 49
-0.0413
 74
     0
  0
LTYPE
  5
82
330
5
100
AcDbSymbolTableRecord
100
AcDbLinetypeTableRecord
  2
DOTTED
 70
     0
  3
Dotted . . . . . . . . . . . . . . . . . . . . 
 72
    65
 73
     2
 40
0.0482
 49
0.0069
 74
     0
 49
-0.0413
 74
     0
  0
LTYPE
  5
83
330
5
100
AcDbSymbolTableRecord
100
AcDbLinetypeTableRecord
  2
DOUBLE_DASH_CHAIN
 70
     0
  3
Double-Dash Chain ______  __  __  ______  __  _
 72
    65
 73
     6
 40
1.240299999999999
 49
0.6614
 74
     0
 49
-0.0827
 74
     0
 49
0.1654
 74
     0
 49
-0.0827
 74
     0
 49
0.1654
 74
     0
 49
-0.0827
 74
     0
  0
LTYPE
  5
85
330
5
100
AcDbSymbolTableRecord
100
AcDbLinetypeTableRecord
  2
DOUBLE_DASH_DOUBLE_DOT
 70
     0
  3
Double-Dash Double-dot _ _ . . _ _ . . _
 72
    65
 73
     8
 40
0.7400000000000001
 49
0.24
 74
     0
 49
-0.06
 74
     0
 49
0.24
 74
     0
 49
-0.06
 74
     0
 49
0.01
 74
     0
 49
-0.06
 74
     0
 49
0.01
 74
     0
 49
-0.06
 74
     0
  0
LTYPE
  5
86
330
5
100
AcDbSymbolTableRecord
100
AcDbLinetypeTableRecord
  2
DOUBLE_DASH_TRIPLE_DOT
 70
     0
  3
Double Dash Triple Dot __ __ . . . __ __ . .
 72
    65
 73
    10
 40
0.8100000000000001
 49
0.24
 74
     0
 49
-0.06
 74
     0
 49
0.24
 74
     0
 49
-0.06
 74
     0
 49
0.01
 74
     0
 49
-0.06
 74
     0
 49
0.01
 74
     0
 49
-0.06
 74
     0
 49
0.01
 74
     0
 49
-0.06
 74
     0
  0
LTYPE
  5
87
330
5
100
AcDbSymbolTableRecord
100
AcDbLinetypeTableRecord
  2
LONG_DASH_DOTTED
 70
     0
  3
Long Dash Dotted ____ . ____ . ____ . ____ . _
 72
    65
 73
     4
 40
0.3543
 49
0.2362
 74
     0
 49
-0.0295
 74
     0
 49
0.0591
 74
     0
 49
-0.0295
 74
     0
  0
LTYPE
  5
88
330
5
100
AcDbSymbolTableRecord
100
AcDbLinetypeTableRecord
  2
LONG_DASH_DOUBLE_DOT
 70
     0
  3
Long Dash Double Dot ________  .  .  ________  
 72
    65
 73
     6
 40
0.6799999999999999
 49
0.48
 74
     0
 49
-0.06
 74
     0
 49
0.01
 74
     0
 49
-0.06
 74
     0
 49
0.01
 74
     0
 49
-0.06
 74
     0
  0
LTYPE
  5
89
330
5
100
AcDbSymbolTableRecord
100
AcDbLinetypeTableRecord
  2
LONG_DASH_TRIPLE_DOT
 70
     0
  3
Long Dash Triple Dot ____ ... ____ ... ____
 72
    65
 73
     8
 40
0.3689
 49
0.2362
 74
     0
 49
-0.0295
 74
     0
 49
0.0049
 74
     0
 49
-0.0295
 74
     0
 49
0.0049
 74
     0
 49
-0.0295
 74
     0
 49
0.0049
 74
     0
 49
-0.0295
 74
     0
  0
LTYPE
  5
8A
330
5
100
AcDbSymbolTableRecord
100
AcDbLinetypeTableRecord
  2
BORDER
 70
     0
  3
Border __ __ . __ __ . __ __ . __ __ . __ __ .
 72
    65
 73
     6
 40
1.75
 49
0.5
 74
     0
 49
-0.25
 74
     0
 49
0.5
 74
     0
 49
-0.25
 74
     0
 49
0.0
 74
     0
 49
-0.25
 74
     0
  0
LTYPE
  5
8B
330
5
100
AcDbSymbolTableRecord
100
AcDbLinetypeTableRecord
  2
BORDER2
 70
     0
  3
Border (.5x) __.__.__.__.__.__.__.__.__.__.__.
 72
    65
 73
     6
 40
0.875
 49
0.25
 74
     0
 49
-0.125
 74
     0
 49
0.25
 74
     0
 49
-0.125
 74
     0
 49
0.0
 74
     0
 49
-0.125
 74
     0
  0
LTYPE
  5
8C
330
5
100
AcDbSymbolTableRecord
100
AcDbLinetypeTableRecord
  2
BORDERX2
 70
     0
  3
Border (2x) ____  ____  .  ____  ____  .  ___
 72
    65
 73
     6
 40
3.5
 49
1.0
 74
     0
 49
-0.5
 74
     0
 49
1.0
 74
     0
 49
-0.5
 74
     0
 49
0.0
 74
     0
 49
-0.5
 74
     0
  0
LTYPE
  5
8D
330
5
100
AcDbSymbolTableRecord
100
AcDbLinetypeTableRecord
  2
CENTER
 70
     0
  3
Center ____ _ ____ _ ____ _ ____ _ ____ _ ____
 72
    65
 73
     4
 40
2.0
 49
1.25
 74
     0
 49
-0.25
 74
     0
 49
0.25
 74
     0
 49
-0.25
 74
     0
  0
LTYPE
  5
8E
330
5
100
AcDbSymbolTableRecord
100
AcDbLinetypeTableRecord
  2
CENTER2
 70
     0
  3
Center (.5x) ___ _ ___ _ ___ _ ___ _ ___ _ ___
 72
    65
 73
     4
 40
1.125
 49
0.75
 74
     0
 49
-0.125
 74
     0
 49
0.125
 74
     0
 49
-0.125
 74
     0
  0
LTYPE
  5
8F
330
5
100
AcDbSymbolTableRecord
100
AcDbLinetypeTableRecord
  2
CENTERX2
 70
     0
  3
Center (2x) ________  __  ________  __  _____
 72
    65
 73
     4
 40
4.0
 49
2.5
 74
     0
 49
-0.5
 74
     0
 49
0.5
 74
     0
 49
-0.5
 74
     0
  0
LTYPE
  5
90
330
5
100
AcDbSymbolTableRecord
100
AcDbLinetypeTableRecord
  2
DASHDOT2
 70
     0
  3
Dash dot (.5x) _._._._._._._._._._._._._._._.
 72
    65
 73
     4
 40
0.5
 49
0.25
 74
     0
 49
-0.125
 74
     0
 49
0.0
 74
     0
 49
-0.125
 74
     0
  0
LTYPE
  5
91
330
5
100
AcDbSymbolTableRecord
100
AcDbLinetypeTableRecord
  2
DASHDOTX2
 70
     0
  3
Dash dot (2x) ____  .  ____  .  ____  .  ___
 72
    65
 73
     4
 40
2.0
 49
1.0
 74
     0
 49
-0.5
 74
     0
 49
0.0
 74
     0
 49
-0.5
 74
     0
  0
LTYPE
  5
93
330
5
100
AcDbSymbolTableRecord
100
AcDbLinetypeTableRecord
  2
DASHED2
 70
     0
  3
Dashed (.5x) _ _ _ _ _ _ _ _ _ _ _ _ _ _ _ _ _
 72
    65
 73
     2
 40
0.375
 49
0.25
 74
     0
 49
-0.125
 74
     0
  0
LTYPE
  5
94
330
5
100
AcDbSymbolTableRecord
100
AcDbLinetypeTableRecord
  2
DASHEDX2
 70
     0
  3
Dashed (2x) ____  ____  ____  ____  ____  ___
 72
    65
 73
     2
 40
1.5
 49
1.0
 74
     0
 49
-0.5
 74
     0
  0
LTYPE
  5
95
330
5
100
AcDbSymbolTableRecord
100
AcDbLinetypeTableRecord
  2
DIVIDE
 70
     0
  3
Divide ____ . . ____ . . ____ . . ____ . . ____
 72
    65
 73
     6
 40
1.25
 49
0.5
 74
     0
 49
-0.25
 74
     0
 49
0.0
 74
     0
 49
-0.25
 74
     0
 49
0.0
 74
     0
 49
-0.25
 74
     0
  0
LTYPE
  5
96
330
5
100
AcDbSymbolTableRecord
100
AcDbLinetypeTableRecord
  2
DIVIDE2
 70
     0
  3
Divide (.5x) __..__..__..__..__..__..__..__.._
 72
    65
 73
     6
 40
0.625
 49
0.25
 74
     0
 49
-0.125
 74
     0
 49
0.0
 74
     0
 49
-0.125
 74
     0
 49
0.0
 74
     0
 49
-0.125
 74
     0
  0
LTYPE
  5
97
330
5
100
AcDbSymbolTableRecord
100
AcDbLinetypeTableRecord
  2
DIVIDEX2
 70
     0
  3
Divide (2x) ________  .  .  ________  .  .  _
 72
    65
 73
     6
 40
2.5
 49
1.0
 74
     0
 49
-0.5
 74
     0
 49
0.0
 74
     0
 49
-0.5
 74
     0
 49
0.0
 74
     0
 49
-0.5
 74
     0
  0
LTYPE
  5
98
330
5
100
AcDbSymbolTableRecord
100
AcDbLinetypeTableRecord
  2
DOT
 70
     0
  3
Dot . . . . . . . . . . . . . . . . . . . . . .
 72
    65
 73
     2
 40
0.25
 49
0.0
 74
     0
 49
-0.25
 74
     0
  0
LTYPE
  5
99
330
5
100
AcDbSymbolTableRecord
100
AcDbLinetypeTableRecord
  2
DOT2
 70
     0
  3
Dot (.5x) .....................................
 72
    65
 73
     2
 40
0.125
 49
0.0
 74
     0
 49
-0.125
 74
     0
  0
LTYPE
  5
9A
330
5
100
AcDbSymbolTableRecord
100
AcDbLinetypeTableRecord
  2
DOTX2
 70
     0
  3
Dot (2x) .  .  .  .  .  .  .  .  .  .  .  .  . 
 72
    65
 73
     2
 40
0.5
 49
0.0
 74
     0
 49
-0.5
 74
     0
  0
LTYPE
  5
9B
330
5
100
AcDbSymbolTableRecord
100
AcDbLinetypeTableRecord
  2
HIDDEN
 70
     0
  3
Hidden __ __ __ __ __ __ __ __ __ __ __ __ __ _
 72
    65
 73
     2
 40
0.375
 49
0.25
 74
     0
 49
-0.125
 74
     0
  0
LTYPE
  5
9C
330
5
100
AcDbSymbolTableRecord
100
AcDbLinetypeTableRecord
  2
HIDDEN2
 70
     0
  3
Hidden (.5x) _ _ _ _ _ _ _ _ _ _ _ _ _ _ _ _ _
 72
    65
 73
     2
 40
0.1875
 49
0.125
 74
     0
 49
-0.0625
 74
     0
  0
LTYPE
  5
9D
330
5
100
AcDbSymbolTableRecord
100
AcDbLinetypeTableRecord
  2
HIDDENX2
 70
     0
  3
Hidden (2x) ____ ____ ____ ____ ____ ____ ____
 72
    65
 73
     2
 40
0.75
 49
0.5
 74
     0
 49
-0.25
 74
     0
  0
LTYPE
  5
9E
330
5
100
AcDbSymbolTableRecord
100
AcDbLinetypeTableRecord
  2
PHANTOM
 70
     0
  3
Phantom ______  __  __  ______  __  __  ______
 72
    65
 73
     6
 40
2.5
 49
1.25
 74
     0
 49
-0.25
 74
     0
 49
0.25
 74
     0
 49
-0.25
 74
     0
 49
0.25
 74
     0
 49
-0.25
 74
     0
  0
LTYPE
  5
9F
330
5
100
AcDbSymbolTableRecord
100
AcDbLinetypeTableRecord
  2
PHANTOM2
 70
     0
  3
Phantom (.5x) ___ _ _ ___ _ _ ___ _ _ ___ _ _
 72
    65
 73
     6
 40
1.25
 49
0.625
 74
     0
 49
-0.125
 74
     0
 49
0.125
 74
     0
 49
-0.125
 74
     0
 49
0.125
 74
     0
 49
-0.125
 74
     0
  0
LTYPE
  5
A0
330
5
100
AcDbSymbolTableRecord
100
AcDbLinetypeTableRecord
  2
PHANTOMX2
 70
     0
  3
Phantom (2x) ____________    ____    ____   _
 72
    65
 73
     6
 40
5.0
 49
2.5
 74
     0
 49
-0.5
 74
     0
 49
0.5
 74
     0
 49
-0.5
 74
     0
 49
0.5
 74
     0
 49
-0.5
 74
     0
  0
LTYPE
  5
A1
330
5
100
AcDbSymbolTableRecord
100
AcDbLinetypeTableRecord
  2
ACAD_ISO02W100
 70
     0
  3
ISO dash __ __ __ __ __ __ __ __ __ __ __ __ __
 72
    65
 73
     2
 40
0.59
 49
0.47
 74
     0
 49
-0.12
 74
     0
  0
LTYPE
  5
A2
330
5
100
AcDbSymbolTableRecord
100
AcDbLinetypeTableRecord
  2
ACAD_ISO03W100
 70
     0
  3
ISO dash space __    __    __    __    __    __
 72
    65
 73
     2
 40
1.179999999999999
 49
0.47
 74
     0
 49
-0.71
 74
     0
  0
LTYPE
  5
A3
330
5
100
AcDbSymbolTableRecord
100
AcDbLinetypeTableRecord
  2
ACAD_ISO04W100
 70
     0
  3
ISO long-dash dot ____ . ____ . ____ . ____ . _
 72
    65
 73
     4
 40
1.179999999999999
 49
0.9399999999999998
 74
     0
 49
-0.12
 74
     0
 49
0.0
 74
     0
 49
-0.12
 74
     0
  0
LTYPE
  5
A4
330
5
100
AcDbSymbolTableRecord
100
AcDbLinetypeTableRecord
  2
ACAD_ISO05W100
 70
     0
  3
ISO long-dash double-dot ____ .. ____ .. ____ .
 72
    65
 73
     6
 40
1.299999999999999
 49
0.9399999999999998
 74
     0
 49
-0.12
 74
     0
 49
0.0
 74
     0
 49
-0.12
 74
     0
 49
0.0
 74
     0
 49
-0.12
 74
     0
  0
LTYPE
  5
A5
330
5
100
AcDbSymbolTableRecord
100
AcDbLinetypeTableRecord
  2
ACAD_ISO06W100
 70
     0
  3
ISO long-dash triple-dot ____ ... ____ ... ____
 72
    65
 73
     8
 40
1.419999999999999
 49
0.9399999999999998
 74
     0
 49
-0.12
 74
     0
 49
0.0
 74
     0
 49
-0.12
 74
     0
 49
0.0
 74
     0
 49
-0.12
 74
     0
 49
0.0
 74
     0
 49
-0.12
 74
     0
  0
LTYPE
  5
A6
330
5
100
AcDbSymbolTableRecord
100
AcDbLinetypeTableRecord
  2
ACAD_ISO07W100
 70
     0
  3
ISO dot . . . . . . . . . . . . . . . . . . . .
 72
    65
 73
     2
 40
0.12
 49
0.0
 74
     0
 49
-0.12
 74
     0
  0
LTYPE
  5
A7
330
5
100
AcDbSymbolTableRecord
100
AcDbLinetypeTableRecord
  2
ACAD_ISO08W100
 70
     0
  3
ISO long-dash short-dash ____ __ ____ __ ____ _
 72
    65
 73
     4
 40
0.95
 49
0.47
 74
     0
 49
-0.12
 74
     0
 49
0.24
 74
     0
 49
-0.12
 74
     0
  0
LTYPE
  5
A8
330
5
100
AcDbSymbolTableRecord
100
AcDbLinetypeTableRecord
  2
ACAD_ISO09W100
 70
     0
  3
ISO long-dash double-short-dash ____ __ __ ____
 72
    65
 73
     6
 40
1.31
 49
0.47
 74
     0
 49
-0.12
 74
     0
 49
0.24
 74
     0
 49
-0.12
 74
     0
 49
0.24
 74
     0
 49
-0.12
 74
     0
  0
LTYPE
  5
A9
330
5
100
AcDbSymbolTableRecord
100
AcDbLinetypeTableRecord
  2
ACAD_ISO10W100
 70
     0
  3
ISO dash dot __ . __ . __ . __ . __ . __ . __ .
 72
    65
 73
     4
 40
0.71
 49
0.47
 74
     0
 49
-0.12
 74
     0
 49
0.0
 74
     0
 49
-0.12
 74
     0
  0
LTYPE
  5
AA
330
5
100
AcDbSymbolTableRecord
100
AcDbLinetypeTableRecord
  2
ACAD_ISO11W100
 70
     0
  3
ISO double-dash dot __ __ . __ __ . __ __ . __ 
 72
    65
 73
     6
 40
1.299999999999999
 49
0.47
 74
     0
 49
-0.12
 74
     0
 49
0.47
 74
     0
 49
-0.12
 74
     0
 49
0.0
 74
     0
 49
-0.12
 74
     0
  0
LTYPE
  5
AB
330
5
100
AcDbSymbolTableRecord
100
AcDbLinetypeTableRecord
  2
ACAD_ISO12W100
 70
     0
  3
ISO dash double-dot __ . . __ . . __ . . __ . .
 72
    65
 73
     6
 40
0.8299999999999998
 49
0.47
 74
     0
 49
-0.12
 74
     0
 49
0.0
 74
     0
 49
-0.12
 74
     0
 49
0.0
 74
     0
 49
-0.12
 74
     0
  0
LTYPE
  5
AC
330
5
100
AcDbSymbolTableRecord
100
AcDbLinetypeTableRecord
  2
ACAD_ISO13W100
 70
     0
  3
ISO double-dash double-dot __ __ . . __ __ . . 
 72
    65
 73
     8
 40
1.419999999999999
 49
0.47
 74
     0
 49
-0.12
 74
     0
 49
0.47
 74
     0
 49
-0.12
 74
     0
 49
0.0
 74
     0
 49
-0.12
 74
     0
 49
0.0
 74
     0
 49
-0.12
 74
     0
  0
LTYPE
  5
AD
330
5
100
AcDbSymbolTableRecord
100
AcDbLinetypeTableRecord
  2
ACAD_ISO14W100
 70
     0
  3
ISO dash triple-dot __ . . . __ . . . __ . . . 
 72
    65
 73
     8
 40
0.95
 49
0.47
 74
     0
 49
-0.12
 74
     0
 49
0.0
 74
     0
 49
-0.12
 74
     0
 49
0.0
 74
     0
 49
-0.12
 74
     0
 49
0.0
 74
     0
 49
-0.12
 74
     0
  0
LTYPE
  5
AE
330
5
100
AcDbSymbolTableRecord
100
AcDbLinetypeTableRecord
  2
ACAD_ISO15W100
 70
     0
  3
ISO double-dash triple-dot __ __ . . . __ __ . 
 72
    65
 73
    10
 40
1.539999999999999
 49
0.47
 74
     0
 49
-0.12
 74
     0
 49
0.47
 74
     0
 49
-0.12
 74
     0
 49
0.0
 74
     0
 49
-0.12
 74
     0
 49
0.0
 74
     0
 49
-0.12
 74
     0
 49
0.0
 74
     0
 49
-0.12
 74
     0
  0
LTYPE
  5
B2
330
5
100
AcDbSymbolTableRecord
100
AcDbLinetypeTableRecord
  2
FENCELINE1
 70
     0
  3
Fenceline circle ----0-----0----0-----0----0---
 72
    65
 73
     4
 40
1.45
 49
0.25
 74
     0
 49
-0.1
 74
     4
 75
   133
340
B1
 46
0.1
 50
0.0
 44
-0.1
 45
0.0
 49
-0.1
 74
     0
 49
1.0
 74
     0
  0
LTYPE
  5
B3
330
5
100
AcDbSymbolTableRecord
100
AcDbLinetypeTableRecord
  2
FENCELINE2
 70
     0
  3
Fenceline square ----[]-----[]----[]-----[]----
 72
    65
 73
     4
 40
1.45
 49
0.25
 74
     0
 49
-0.1
 74
     4
 75
   132
340
B1
 46
0.1
 50
0.0
 44
-0.1
 45
0.0
 49
-0.1
 74
     0
 49
1.0
 74
     0
  0
LTYPE
  5
B4
330
5
100
AcDbSymbolTableRecord
100
AcDbLinetypeTableRecord
  2
TRACKS
 70
     0
  3
Tracks -|-|-|-|-|-|-|-|-|-|-|-|-|-|-|-|-|-|-|-|
 72
    65
 73
     2
 40
0.3
 49
0.15
 74
     4
 75
   130
340
B1
 46
0.25
 50
0.0
 44
0.0
 45
0.0
 49
0.15
 74
     0
  0
LTYPE
  5
B5
330
5
100
AcDbSymbolTableRecord
100
AcDbLinetypeTableRecord
  2
BATTING
 70
     0
  3
Batting SSSSSSSSSSSSSSSSSSSSSSSSSSSSSSSSSSSSSSS
 72
    65
 73
     4
 40
0.4001000000000001
 49
0.0001
 74
     0
 49
-0.1
 74
     4
 75
   134
340
B1
 46
0.1
 50
0.0
 44
-0.1
 45
0.0
 49
-0.2
 74
     4
 75
   134
340
B1
 46
0.1
 50
180.0
 44
0.1
 45
0.0
 49
-0.1
 74
     0
  0
LTYPE
  5
B6
330
5
100
AcDbSymbolTableRecord
100
AcDbLinetypeTableRecord
  2
HOT_WATER_SUPPLY
 70
     0
  3
Hot water supply ---- HW ---- HW ---- HW ----
 72
    65
 73
     3
 40
0.9
 49
0.5
 74
     0
 49
-0.2
 74
     2
 75
     0
340
55
 46
0.1
 50
0.0
 44
-0.1
 45
-0.05
  9
HW
 49
-0.2
 74
     0
  0
LTYPE
  5
B7
330
5
100
AcDbSymbolTableRecord
100
AcDbLinetypeTableRecord
  2
GAS_LINE
 70
     0
  3
Gas line ----GAS----GAS----GAS----GAS----GAS---
 72
    65
 73
     3
 40
0.95
 49
0.5
 74
     0
 49
-0.2
 74
     2
 75
     0
340
55
 46
0.1
 50
0.0
 44
-0.1
 45
-0.05
  9
GAS
 49
-0.25
 74
     0
  0
LTYPE
  5
B8
330
5
100
AcDbSymbolTableRecord
100
AcDbLinetypeTableRecord
  2
ZIGZAG
 70
     0
  3
Zig zag /\/\/\/\/\/\/\/\/\/\/\/\/\/\/\/\/\/\/\/
 72
    65
 73
     4
 40
0.8001000000000001
 49
0.0001
 74
     0
 49
-0.2
 74
     4
 75
   131
340
B1
 46
0.2
 50
0.0
 44
-0.2
 45
0.0
 49
-0.4
 74
     4
 75
   131
340
B1
 46
0.2
 50
180.0
 44
0.2
 45
0.0
 49
-0.2
 74
     0
  0
ENDTAB
  0
TABLE
  2
LAYER
  5
2
330
0
100
AcDbSymbolTable
 70
     6
  0
LAYER
  5
54
330
2
100
AcDbSymbolTableRecord
100
AcDbLayerTableRecord
  2
0
 70
     0
 62
     7
  6
Continuous
370
    -3
390
F
  0
LAYER
  5
BC
330
2
100
AcDbSymbolTableRecord
100
AcDbLayerTableRecord
  2
Border (ANSI)
 70
     0
 62
     7
  6
Continuous
370
    25
390
F
  0
LAYER
  5
C4
330
2
100
AcDbSymbolTableRecord
100
AcDbLayerTableRecord
  2
Hidden (ANSI)
 70
     0
 62
  -211
  6
DASHED
370
    13
390
F
  0
LAYER
  5
C5
330
2
100
AcDbSymbolTableRecord
100
AcDbLayerTableRecord
  2
Hidden Narrow (ANSI)
 70
     0
 62
  -211
  6
DASHED
370
    18
390
F
  0
LAYER
  5
CE
330
2
100
AcDbSymbolTableRecord
100
AcDbLayerTableRecord
  2
Visible (ANSI)
 70
     0
 62
     7
  6
Continuous
370
    18
390
F
  0
LAYER
  5
CF
330
2
100
AcDbSymbolTableRecord
100
AcDbLayerTableRecord
  2
Visible Narrow (ANSI)
 70
     0
 62
     7
  6
Continuous
370
     9
390
F
  0
ENDTAB
  0
TABLE
  2
STYLE
  5
3
330
0
100
AcDbSymbolTable
 70
     5
  0
STYLE
  5
55
330
3
100
AcDbSymbolTableRecord
100
AcDbTextStyleTableRecord
  2
Standard
 70
     0
 40
0.0
 41
0.899999976158142
 50
0.0
 71
     0
 42
0.2
  3
txt_____.ttf
  4

1001
_APP0
1000
txt
1071
      256
1001
ACAD
1000
Txt
1071
        2
  0
STYLE
  5
5A
330
3
100
AcDbSymbolTableRecord
100
AcDbTextStyleTableRecord
  2
Annotative
 70
     0
 40
0.0
 41
1.0
 50
0.0
 71
     0
 42
0.2
  3
txt
  4

1001
AcadAnnotative
1000
AnnotativeData
1002
{
1070
     1
1070
     1
1002
}
  0
STYLE
  5
B1
330
3
100
AcDbSymbolTableRecord
100
AcDbTextStyleTableRecord
  2

 70
     1
 40
0.0
 41
1.0
 50
0.0
 71
     0
 42
0.2
  3
ltypeshp.shx
  4

  0
STYLE
  5
D3
330
3
100
AcDbSymbolTableRecord
100
AcDbTextStyleTableRecord
  2
Label Text (ANSI)
 70
     0
 40
0.0
 41
0.899999976158142
 50
0.0
 71
     0
 42
0.2
  3
txt_IV25.ttf
  4

1001
ACAD
1000
Txt_IV25
1071
      256
  0
STYLE
  5
D4
330
3
100
AcDbSymbolTableRecord
100
AcDbTextStyleTableRecord
  2
Note Text (ANSI)
 70
     0
 40
0.0
 41
0.899999976158142
 50
0.0
 71
     0
 42
0.2
  3
txt_IV25.ttf
  4

1001
ACAD
1000
Txt_IV25
1071
      256
  0
ENDTAB
  0
TABLE
  2
VIEW
  5
6
330
0
100
AcDbSymbolTable
 70
     0
  0
ENDTAB
  0
TABLE
  2
UCS
  5
7
330
0
100
AcDbSymbolTable
 70
     0
  0
ENDTAB
  0
TABLE
  2
APPID
  5
9
330
0
100
AcDbSymbolTable
 70
     4
  0
APPID
  5
56
330
9
100
AcDbSymbolTableRecord
100
AcDbRegAppTableRecord
  2
ACAD
 70
     0
  0
APPID
  5
5E
330
9
100
AcDbSymbolTableRecord
100
AcDbRegAppTableRecord
  2
AcadAnnotative
 70
     0
  0
APPID
  5
B0
330
9
100
AcDbSymbolTableRecord
100
AcDbRegAppTableRecord
  2
_APP0
 70
     0
  0
APPID
  5
2EE
330
9
100
AcDbSymbolTableRecord
100
AcDbRegAppTableRecord
  2
ACAD_MLEADERVER
 70
     0
  0
ENDTAB
  0
TABLE
  2
DIMSTYLE
  5
A
330
0
100
AcDbSymbolTable
 70
    21
100
AcDbDimStyleTable
 71
     0
  0
DIMSTYLE
105
58
330
A
100
AcDbSymbolTableRecord
100
AcDbDimStyleTableRecord
  2
Standard
 70
     0
340
55
  0
DIMSTYLE
105
59
330
A
100
AcDbSymbolTableRecord
100
AcDbDimStyleTableRecord
  2
Annotative
 70
     0
340
55
1001
AcadAnnotative
1000
AnnotativeData
1002
{
1070
     1
1070
     1
1002
}
  0
DIMSTYLE
105
D5
330
A
100
AcDbSymbolTableRecord
100
AcDbDimStyleTableRecord
  2
Architectural (ANSI)
 70
     0
 40
2.0
 41
0.0984251946210861
 43
0.2362204724409449
 44
0.125
 45
0.00000001
 46
0.3937007874015748
 78
     3
 79
     3
140
0.1000000014901161
146
1.200000047683715
147
0.031496062992126
171
     1
176
   256
177
   256
178
     5
272
     2
274
     1
276
     2
277
     4
284
    12
285
     4
286
    12
340
D4
371
    -1
372
    -1
  0
DIMSTYLE
105
D6
330
A
100
AcDbSymbolTableRecord
100
AcDbDimStyleTableRecord
  2
Architectural (ANSI)$7
 70
     0
 40
2.0
 41
0.0984251946210861
 43
0.2362204724409449
 44
0.125
 45
0.00000001
 46
0.3937007874015748
 78
     3
 79
     3
140
0.1000000014901161
146
1.200000047683715
147
0.031496062992126
171
     1
176
     5
177
   256
178
     5
272
     2
274
     1
276
     2
277
     4
284
    12
285
     4
286
    12
340
D4
371
    -1
372
    -1
  0
DIMSTYLE
105
D7
330
A
100
AcDbSymbolTableRecord
100
AcDbDimStyleTableRecord
  2
Default - Fraction (ANSI)
 70
     0
 40
2.0
 41
0.0984251946210861
 43
0.2362204724409449
 44
0.125
 45
0.00000001
 46
0.3937007874015748
 79
     3
140
0.1000000014901161
146
1.200000047683715
147
0.031496062992126
171
     1
176
   256
177
   256
178
     5
272
     2
274
     1
276
     2
277
     5
284
    12
285
     4
286
    12
340
D4
371
    -1
372
    -1
  0
DIMSTYLE
105
D8
330
A
100
AcDbSymbolTableRecord
100
AcDbDimStyleTableRecord
  2
Default - Fraction (ANSI)$7
 70
     0
 40
2.0
 41
0.0984251946210861
 43
0.2362204724409449
 44
0.125
 45
0.00000001
 46
0.3937007874015748
 79
     3
140
0.1000000014901161
146
1.200000047683715
147
0.031496062992126
171
     1
176
     5
177
   256
178
     5
272
     2
274
     1
276
     2
277
     5
284
    12
285
     4
286
    12
340
D4
371
    -1
372
    -1
  0
DIMSTYLE
105
D9
330
A
100
AcDbSymbolTableRecord
100
AcDbDimStyleTableRecord
  2
Default - mm (ANSI)
 70
     0
 40
2.0
 41
0.0984251946210861
 42
0.063
 43
0.2362204724409449
 44
0.125
 45
0.00000001
 46
0.3937007874015748
 73
     0
 78
     4
 79
     1
140
0.1000000014901161
143
1.0
144
25.4
146
1.200000047683715
147
0.031496062992126
171
     1
176
   256
177
   256
178
     5
179
     1
271
     2
272
     2
274
     1
284
     4
285
     4
340
D4
371
    -1
372
    -1
  0
DIMSTYLE
105
DA
330
A
100
AcDbSymbolTableRecord
100
AcDbDimStyleTableRecord
  2
Default - mm (ANSI)$7
 70
     0
 40
2.0
 41
0.0984251946210861
 42
0.063
 43
0.2362204724409449
 44
0.125
 45
0.00000001
 46
0.3937007874015748
 73
     0
 78
     4
 79
     1
140
0.1000000014901161
143
1.0
144
25.4
146
1.200000047683715
147
0.031496062992126
171
     1
176
     5
177
   256
178
     5
179
     1
271
     2
272
     2
274
     1
284
     4
285
     4
340
D4
371
    -1
372
    -1
  0
DIMSTYLE
105
DB
330
A
100
AcDbSymbolTableRecord
100
AcDbDimStyleTableRecord
  2
Default - mm [in] (ANSI)
 70
     0
  4
 in
 40
2.0
 41
0.0984251946210861
 42
0.063
 43
0.25
 44
0.125
 45
0.00000001
 46
0.3937007874015748
 73
     0
 78
     4
 79
     1
140
0.1000000014901161
143
0.03937
144
25.4
146
1.200000047683715
147
0.031496062992126
170
     1
171
     3
176
   256
177
   256
178
     5
179
     1
271
     2
272
     2
274
     3
284
     4
285
     4
286
     4
340
D4
371
    -1
372
    -1
  0
DIMSTYLE
105
DC
330
A
100
AcDbSymbolTableRecord
100
AcDbDimStyleTableRecord
  2
Default - mm [in] (ANSI)$7
 70
     0
  4
 in
 40
2.0
 41
0.0984251946210861
 42
0.063
 43
0.25
 44
0.125
 45
0.00000001
 46
0.3937007874015748
 73
     0
 78
     4
 79
     1
140
0.1000000014901161
143
0.03937
144
25.4
146
1.200000047683715
147
0.031496062992126
170
     1
171
     3
176
     5
177
   256
178
     5
179
     1
271
     2
272
     2
274
     3
284
     4
285
     4
286
     4
340
D4
371
    -1
372
    -1
  0
DIMSTYLE
105
DD
330
A
100
AcDbSymbolTableRecord
100
AcDbDimStyleTableRecord
  2
Default (ANSI)
 70
     0
 40
2.0
 41
0.0984251946210861
 43
0.2362204724409449
 44
0.125
 45
0.00000001
 46
0.3937007874015748
 78
     4
 79
     1
140
0.1000000014901161
146
1.200000047683715
147
0.031496062992126
171
     1
176
   256
177
   256
178
     5
271
     2
272
     2
274
     1
284
     4
285
     4
340
D4
371
    -1
372
    -1
  0
DIMSTYLE
105
DE
330
A
100
AcDbSymbolTableRecord
100
AcDbDimStyleTableRecord
  2
Default (ANSI)$7
 70
     0
 40
2.0
 41
0.0984251946210861
 43
0.2362204724409449
 44
0.125
 45
0.00000001
 46
0.3937007874015748
 78
     4
 79
     1
140
0.1000000014901161
146
1.200000047683715
147
0.031496062992126
171
     1
176
     5
177
   256
178
     5
271
     2
272
     2
274
     1
284
     4
285
     4
340
D4
371
    -1
372
    -1
  0
DIMSTYLE
105
DF
330
A
100
AcDbSymbolTableRecord
100
AcDbDimStyleTableRecord
  2
SST-STANDARD DIMENSIONS
 70
     0
 40
2.0
 41
0.0984251946210861
 43
0.2362204724409449
 44
0.062
 45
0.00000001
 46
0.3937007874015748
 78
     2
 79
     2
140
0.1000000014901161
147
0.031496062992126
171
     1
176
     5
177
     5
178
     5
179
     1
272
     5
274
     1
276
     2
277
     5
284
    12
285
     4
286
    12
340
D4
371
     9
372
     9
  0
DIMSTYLE
105
E0
330
A
100
AcDbSymbolTableRecord
100
AcDbDimStyleTableRecord
  2
SST-STANDARD DIMENSIONS$7
 70
     0
 40
2.0
 41
0.0984251946210861
 43
0.2362204724409449
 44
0.062
 45
0.00000001
 46
0.3937007874015748
 78
     2
 79
     2
140
0.1000000014901161
147
0.031496062992126
171
     1
176
     5
177
     5
178
     5
179
     1
272
     5
274
     1
276
     2
277
     5
284
    12
285
     4
286
    12
340
D4
371
    -1
372
     9
  0
DIMSTYLE
105
E1
330
A
100
AcDbSymbolTableRecord
100
AcDbDimStyleTableRecord
  2
SST-STANDARD DIMENSIONS-FRACTION
 70
     0
 40
2.0
 41
0.0984251946210861
 43
0.2362204724409449
 44
0.062
 45
0.00000001
 46
0.3937007874015748
 78
     1
140
0.1000000014901161
147
0.031496062992126
171
     1
176
     5
177
     5
178
     5
179
     1
271
     5
272
     3
274
     1
276
     2
277
     5
286
    12
340
D4
371
     9
372
     9
  0
DIMSTYLE
105
E2
330
A
100
AcDbSymbolTableRecord
100
AcDbDimStyleTableRecord
  2
SST-STANDARD DIMENSIONS-FRACTION$7
 70
     0
 40
2.0
 41
0.0984251946210861
 43
0.2362204724409449
 44
0.062
 45
0.00000001
 46
0.3937007874015748
 78
     1
140
0.1000000014901161
147
0.031496062992126
171
     1
176
     5
177
     5
178
     5
179
     1
271
     5
272
     3
274
     1
276
     2
277
     5
286
    12
340
D4
371
    -1
372
     9
  0
DIMSTYLE
105
E3
330
A
100
AcDbSymbolTableRecord
100
AcDbDimStyleTableRecord
  2
SST-STANDARD DIMENSIONS - DECIMAL
 70
     0
 40
2.0
 41
0.0984251946210861
 43
0.2362204724409449
 44
0.062
 45
0.00000001
 46
0.3937007874015748
140
0.1000000014901161
147
0.031496062992126
171
     1
176
     5
177
     5
178
     5
179
     1
271
     3
272
     3
274
     1
286
    12
340
D4
371
     9
372
     9
  0
DIMSTYLE
105
E4
330
A
100
AcDbSymbolTableRecord
100
AcDbDimStyleTableRecord
  2
SST-STANDARD DIMENSIONS - DECIMAL$7
 70
     0
 40
2.0
 41
0.0984251946210861
 43
0.2362204724409449
 44
0.062
 45
0.00000001
 46
0.3937007874015748
140
0.1000000014901161
147
0.031496062992126
171
     1
176
     5
177
     5
178
     5
179
     1
271
     3
272
     3
274
     1
286
    12
340
D4
371
    -1
372
     9
  0
DIMSTYLE
105
E5
330
A
100
AcDbSymbolTableRecord
100
AcDbDimStyleTableRecord
  2
Alternate (ANSI)
 70
     0
 40
2.0
 41
0.0979999974370003
340
55
342
E6
  0
DIMSTYLE
105
F7
330
A
100
AcDbSymbolTableRecord
100
AcDbDimStyleTableRecord
  2
Datum (ANSI)
 70
     0
 40
2.0
 41
0.0979999974370003
340
55
342
E6
  0
DIMSTYLE
105
106
330
A
100
AcDbSymbolTableRecord
100
AcDbDimStyleTableRecord
  2
Large (ANSI)
 70
     0
 40
2.0
 41
0.1959999948740005
340
55
342
E6
  0
ENDTAB
  0
TABLE
  2
BLOCK_RECORD
  5
1
330
0
100
AcDbSymbolTable
 70
     5
  0
BLOCK_RECORD
  5
6C
102
{ACAD_XDICTIONARY
360
30E
102
}
330
1
100
AcDbSymbolTableRecord
100
AcDbBlockTableRecord
  2
*Model_Space
340
6F
  0
BLOCK_RECORD
  5
68
330
1
100
AcDbSymbolTableRecord
100
AcDbBlockTableRecord
  2
*Paper_Space
340
6B
  0
BLOCK_RECORD
  5
70
330
1
100
AcDbSymbolTableRecord
100
AcDbBlockTableRecord
  2
*Paper_Space0
340
73
  0
BLOCK_RECORD
  5
E6
330
1
100
AcDbSymbolTableRecord
100
AcDbBlockTableRecord
  2
_Closed
340
0
  0
BLOCK_RECORD
  5
ED
330
1
100
AcDbSymbolTableRecord
100
AcDbBlockTableRecord
  2
DatumFilled45
340
0
  0
BLOCK_RECORD
  5
F8
330
1
100
AcDbSymbolTableRecord
100
AcDbBlockTableRecord
  2
Filled-1
340
0
  0
BLOCK_RECORD
  5
107
330
1
100
AcDbSymbolTableRecord
100
AcDbBlockTableRecord
  2
Borders SST-ALAND
340
0
102
{BLKREFS
331
10E
102
}
  0
ENDTAB
  0
ENDSEC
  0
SECTION
  2
BLOCKS
  0
BLOCK
  5
6D
330
6C
100
AcDbEntity
  8
0
100
AcDbBlockBegin
  2
*Model_Space
 70
     0
 10
0.0
 20
0.0
 30
0.0
  3
*Model_Space
  1

  0
ENDBLK
  5
6E
330
6C
100
AcDbEntity
  8
0
100
AcDbBlockEnd
  0
BLOCK
  5
69
330
68
100
AcDbEntity
 67
     1
  8
0
100
AcDbBlockBegin
  2
*Paper_Space
 70
     0
 10
0.0
 20
0.0
 30
0.0
  3
*Paper_Space
  1

  0
ENDBLK
  5
6A
330
68
100
AcDbEntity
 67
     1
  8
0
100
AcDbBlockEnd
  0
BLOCK
  5
71
330
70
100
AcDbEntity
 67
     1
  8
0
100
AcDbBlockBegin
  2
*Paper_Space0
 70
     0
 10
0.0
 20
0.0
 30
0.0
  3
*Paper_Space0
  1

  0
ENDBLK
  5
72
330
70
100
AcDbEntity
 67
     1
  8
0
100
AcDbBlockEnd
  0
BLOCK
  5
EB
330
E6
100
AcDbEntity
  8
0
100
AcDbBlockBegin
  2
_Closed
 70
     0
 10
0.0
 20
0.0
 30
0.0
  3
_Closed
  1

  0
LINE
  5
E7
330
E6
100
AcDbEntity
  8
0
  6
ByBlock
 62
     0
370
    -2
100
AcDbLine
 10
-1.0
 20
0.1666666666666666
 30
0.0
 11
0.0
 21
0.0
 31
0.0
  0
LINE
  5
E8
330
E6
100
AcDbEntity
  8
0
  6
ByBlock
 62
     0
370
    -2
100
AcDbLine
 10
0.0
 20
0.0
 30
0.0
 11
-1.0
 21
-0.1666666666666666
 31
0.0
  0
LINE
  5
E9
330
E6
100
AcDbEntity
  8
0
  6
ByBlock
 62
     0
370
    -2
100
AcDbLine
 10
-1.0
 20
0.1666666666666666
 30
0.0
 11
-1.0
 21
-0.1666666666666666
 31
0.0
  0
LINE
  5
EA
330
E6
100
AcDbEntity
  8
0
  6
ByBlock
 62
     0
370
    -2
100
AcDbLine
 10
0.0
 20
0.0
 30
0.0
 11
-1.0
 21
0.0
 31
0.0
  0
ENDBLK
  5
EC
330
E6
100
AcDbEntity
  8
0
100
AcDbBlockEnd
  0
BLOCK
  5
EE
330
ED
100
AcDbEntity
  8
0
100
AcDbBlockBegin
  2
DatumFilled45
 70
     0
 10
0.0
 20
0.0
 30
0.0
  3
DatumFilled45
  1

  0
POLYLINE
  5
F0
330
ED
100
AcDbEntity
  8
0
 62
     0
100
AcDb2dPolyline
 66
     1
 10
0.0
 20
0.0
 30
0.0
 70
   128
  0
VERTEX
  5
F1
330
F0
100
AcDbEntity
  8
0
 62
     0
100
AcDbVertex
100
AcDb2dVertex
 10
0.0
 20
0.9999999999999998
 30
0.0
  0
VERTEX
  5
F2
330
F0
100
AcDbEntity
  8
0
 62
     0
100
AcDbVertex
100
AcDb2dVertex
 10
0.0
 20
-0.9999999999999998
 30
0.0
  0
VERTEX
  5
F4
330
F0
100
AcDbEntity
  8
0
 62
     0
100
AcDbVertex
100
AcDb2dVertex
 10
-0.9999999999999998
 20
0.0
 30
0.0
  0
VERTEX
  5
F5
330
F0
100
AcDbEntity
  8
0
 62
     0
100
AcDbVertex
100
AcDb2dVertex
 10
0.0
 20
0.9999999999999998
 30
0.0
  0
SEQEND
  5
F3
330
F0
100
AcDbEntity
  8
0
 62
     0
  0
SOLID
  5
F6
330
ED
100
AcDbEntity
  8
0
 62
     0
100
AcDbTrace
 10
0.0
 20
0.9999999999999998
 30
0.0
 11
0.0
 21
-0.9999999999999998
 31
0.0
 12
-0.9999999999999998
 22
0.0
 32
0.0
 13
0.0
 23
0.9999999999999998
 33
0.0
  0
ENDBLK
  5
EF
330
ED
100
AcDbEntity
  8
0
100
AcDbBlockEnd
  0
BLOCK
  5
F9
330
F8
100
AcDbEntity
  8
0
100
AcDbBlockBegin
  2
Filled-1
 70
     0
 10
0.0
 20
0.0
 30
0.0
  3
Filled-1
  1

  0
LINE
  5
FB
330
F8
100
AcDbEntity
  8
0
 62
     0
100
AcDbLine
 10
-0.9999999999999998
 20
0.0
 30
0.0
 11
0.0
 21
0.0
 31
0.0
  0
POLYLINE
  5
FC
330
F8
100
AcDbEntity
  8
0
 62
     0
100
AcDb2dPolyline
 66
     1
 10
0.0
 20
0.0
 30
0.0
 70
   128
  0
VERTEX
  5
FD
330
FC
100
AcDbEntity
  8
0
 62
     0
100
AcDbVertex
100
AcDb2dVertex
 10
-0.9999999999999998
 20
-0.0994897959183674
 30
0.0
  0
VERTEX
  5
FE
330
FC
100
AcDbEntity
  8
0
 62
     0
100
AcDbVertex
100
AcDb2dVertex
 10
0.0
 20
0.0
 30
0.0
  0
VERTEX
  5
100
330
FC
100
AcDbEntity
  8
0
 62
     0
100
AcDbVertex
100
AcDb2dVertex
 10
-0.9999999999999998
 20
0.0994897959183674
 30
0.0
  0
VERTEX
  5
101
330
FC
100
AcDbEntity
  8
0
 62
     0
100
AcDbVertex
100
AcDb2dVertex
 10
-0.9999999999999998
 20
-0.0994897959183674
 30
0.0
  0
SEQEND
  5
FF
330
FC
100
AcDbEntity
  8
0
 62
     0
  0
SOLID
  5
102
330
F8
100
AcDbEntity
  8
0
 62
     0
100
AcDbTrace
 10
-0.9999999999999998
 20
-0.0994897959183674
 30
0.0
 11
0.0
 21
0.0
 31
0.0
 12
-0.9999999999999998
 22
0.0994897959183674
 32
0.0
 13
-0.9999999999999998
 23
-0.0994897959183674
 33
0.0
  0
LINE
  5
103
330
F8
100
AcDbEntity
  8
0
 62
     0
100
AcDbLine
 10
-0.9999999999999998
 20
-0.0994897959183674
 30
0.0
 11
0.0
 21
0.0
 31
0.0
  0
LINE
  5
104
330
F8
100
AcDbEntity
  8
0
 62
     0
100
AcDbLine
 10
0.0
 20
0.0
 30
0.0
 11
-0.9999999999999998
 21
0.0994897959183674
 31
0.0
  0
LINE
  5
105
330
F8
100
AcDbEntity
  8
0
 62
     0
100
AcDbLine
 10
-0.9999999999999998
 20
0.0994897959183674
 30
0.0
 11
-0.9999999999999998
 21
-0.0994897959183674
 31
0.0
  0
ENDBLK
  5
FA
330
F8
100
AcDbEntity
  8
0
100
AcDbBlockEnd
  0
BLOCK
  5
108
330
107
100
AcDbEntity
  8
0
100
AcDbBlockBegin
  2
Borders SST-ALAND
 70
     0
 10
0.0
 20
0.0
 30
0.0
  3
Borders SST-ALAND
  1

  0
LINE
  5
10A
330
107
100
AcDbEntity
  8
Border (ANSI)
100
AcDbLine
 10
10.687
 20
0.3119999999999997
 30
0.0
 11
0.3120000000000004
 21
0.312
 31
0.0
  0
LINE
  5
10B
330
107
100
AcDbEntity
  8
Border (ANSI)
100
AcDbLine
 10
0.3119999999999997
 20
0.312
 30
0.0
 11
0.3119999999999999
 21
8.187000000000001
 31
0.0
  0
LINE
  5
10C
330
107
100
AcDbEntity
  8
Border (ANSI)
100
AcDbLine
 10
0.3119999999999999
 20
8.187000000000001
 30
0.0
 11
10.687
 21
8.187000000000001
 31
0.0
  0
LINE
  5
10D
330
107
100
AcDbEntity
  8
Border (ANSI)
100
AcDbLine
 10
10.687
 20
8.187000000000001
 30
0.0
 11
10.687
 21
0.311999999999999
 31
0.0
  0
ENDBLK
  5
109
330
107
100
AcDbEntity
  8
0
100
AcDbBlockEnd
  0
ENDSEC
  0
SECTION
  2
ENTITIES
  0
INSERT
  5
10E
330
6C
100
AcDbEntity
  8
0
100
AcDbBlockReference
  2
Borders SST-ALAND
 10
0.0
 20
0.0
 30
0.0
 41
2.0
 42
2.0
 43
2.0
  0
LINE
  5
10F
330
6C
100
AcDbEntity
  8
Hidden (ANSI)
 48
0.0045096860267222
100
AcDbLine
 10
10.37359320402649
 20
9.641676370408205
 30
0.0
 11
10.36875286798997
 21
9.641676370408205
 31
0.0
  0
LINE
  5
110
330
6C
100
AcDbEntity
  8
Hidden (ANSI)
 48
0.0781926289200783
100
AcDbLine
 10
10.45580328639672
 20
9.641676370408205
 30
0.0
 11
10.37359320402649
 21
9.641676370408205
 31
0.0
  0
LINE
  5
111
330
6C
100
AcDbEntity
  8
Hidden (ANSI)
 48
0.0045096860267222
100
AcDbLine
 10
10.46064362243324
 20
9.641676370408205
 30
0.0
 11
10.45580328639672
 21
9.641676370408205
 31
0.0
  0
LINE
  5
112
330
6C
100
AcDbEntity
  8
Hidden (ANSI)
 48
0.0003761741390917
100
AcDbLine
 10
10.38660160712463
 20
9.641676370408205
 30
0.0
 11
10.38660160712463
 21
9.642176370408204
 31
0.0
  0
LINE
  5
113
330
6C
100
AcDbEntity
  8
Hidden (ANSI)
 48
0.0003761741390917
100
AcDbLine
 10
10.44279488329858
 20
9.641676370408205
 30
0.0
 11
10.44279488329858
 21
9.642176370408204
 31
0.0
  0
LINE
  5
114
330
6C
100
AcDbEntity
  8
Hidden (ANSI)
 48
0.0003761741390917
100
AcDbLine
 10
10.37359320402649
 20
9.641676370408205
 30
0.0
 11
10.37359320402649
 21
9.642176370408204
 31
0.0
  0
LINE
  5
115
330
6C
100
AcDbEntity
  8
Hidden (ANSI)
 48
0.0003761741390917
100
AcDbLine
 10
10.45580328639672
 20
9.641676370408205
 30
0.0
 11
10.45580328639672
 21
9.642176370408204
 31
0.0
  0
LINE
  5
116
330
6C
100
AcDbEntity
  8
Hidden (ANSI)
 48
0.0003761741390917
100
AcDbLine
 10
10.46064362243324
 20
9.641676370408205
 30
0.0
 11
10.46064362243324
 21
9.642176370408204
 31
0.0
  0
LINE
  5
117
330
6C
100
AcDbEntity
  8
Hidden (ANSI)
 48
0.0003761741390917
100
AcDbLine
 10
10.36875286798997
 20
9.641676370408205
 30
0.0
 11
10.36875286798997
 21
9.642176370408204
 31
0.0
  0
LINE
  5
118
330
6C
100
AcDbEntity
  8
Hidden (ANSI)
 48
0.0003761741390917
100
AcDbLine
 10
10.38471085086037
 20
9.641676370408205
 30
0.0
 11
10.38471085086037
 21
9.642176370408204
 31
0.0
  0
LINE
  5
119
330
6C
100
AcDbEntity
  8
Hidden (ANSI)
 48
0.0003761741390917
100
AcDbLine
 10
10.44468563956284
 20
9.641676370408205
 30
0.0
 11
10.44468563956284
 21
9.642176370408204
 31
0.0
  0
LINE
  5
11A
330
6C
100
AcDbEntity
  8
Hidden (ANSI)
 48
0.0003761741390917
100
AcDbLine
 10
11.02564253672984
 20
9.641676370408205
 30
0.0
 11
11.02564253672984
 21
9.642176370408204
 31
0.0
  0
LINE
  5
11B
330
6C
100
AcDbEntity
  8
Hidden (ANSI)
 48
0.0003761741390917
100
AcDbLine
 10
11.02382741071615
 20
9.641676370408205
 30
0.0
 11
11.02382741071615
 21
9.642176370408204
 31
0.0
  0
LINE
  5
11C
330
6C
100
AcDbEntity
  8
Hidden (ANSI)
 48
0.0003761741390917
100
AcDbLine
 10
11.0087769908526
 20
9.641676370408205
 30
0.0
 11
11.0087769908526
 21
9.642176370408204
 31
0.0
  0
LINE
  5
11D
330
6C
100
AcDbEntity
  8
Hidden (ANSI)
 48
0.0003761741390917
100
AcDbLine
 10
11.04023917508997
 20
9.641676370408205
 30
0.0
 11
11.04023917508997
 21
9.642176370408204
 31
0.0
  0
LINE
  5
11E
330
6C
100
AcDbEntity
  8
Hidden (ANSI)
 48
0.0003761741390917
100
AcDbLine
 10
11.02760892324468
 20
9.641676370408205
 30
0.0
 11
11.02760892324468
 21
9.642176370408204
 31
0.0
  0
LINE
  5
11F
330
6C
100
AcDbEntity
  8
Hidden (ANSI)
 48
0.0003761741390917
100
AcDbLine
 10
11.03343245253862
 20
9.641676370408205
 30
0.0
 11
11.03343245253862
 21
9.642176370408204
 31
0.0
  0
LINE
  5
120
330
6C
100
AcDbEntity
  8
Hidden (ANSI)
 48
0.0003761741390917
100
AcDbLine
 10
11.02405430146786
 20
9.641676370408205
 30
0.0
 11
11.02405430146786
 21
9.642176370408204
 31
0.0
  0
LINE
  5
121
330
6C
100
AcDbEntity
  8
Hidden (ANSI)
 48
0.0010230224579573
100
AcDbLine
 10
11.07162572907677
 20
9.641676370408205
 30
0.0
 11
11.07071816606992
 21
9.641676370408205
 31
0.0
  0
LINE
  5
122
330
6C
100
AcDbEntity
  8
Hidden (ANSI)
 48
0.0003761741390917
100
AcDbLine
 10
11.00779379759519
 20
9.641676370408205
 30
0.0
 11
11.00779379759519
 21
9.642176370408204
 31
0.0
  0
LINE
  5
123
330
6C
100
AcDbEntity
  8
Hidden (ANSI)
 48
0.0003761741390917
100
AcDbLine
 10
11.01270976388227
 20
9.641676370408205
 30
0.0
 11
11.01270976388227
 21
9.642176370408204
 31
0.0
  0
LINE
  5
124
330
6C
100
AcDbEntity
  8
Hidden (ANSI)
 48
0.0003761741390917
100
AcDbLine
 10
11.05476018319953
 20
9.641676370408205
 30
0.0
 11
11.05476018319953
 21
9.642176370408204
 31
0.0
  0
LINE
  5
125
330
6C
100
AcDbEntity
  8
Hidden (ANSI)
 48
0.0003761741390917
100
AcDbLine
 10
11.07162572907677
 20
9.641676370408205
 30
0.0
 11
11.07162572907677
 21
9.642176370408204
 31
0.0
  0
LINE
  5
126
330
6C
100
AcDbEntity
  8
Hidden (ANSI)
 48
0.0003761741390917
100
AcDbLine
 10
11.05286942693526
 20
9.641676370408205
 30
0.0
 11
11.05286942693526
 21
9.642176370408204
 31
0.0
  0
LINE
  5
127
330
6C
100
AcDbEntity
  8
Hidden (ANSI)
 48
0.0003761741390917
100
AcDbLine
 10
11.06489463677598
 20
9.641676370408205
 30
0.0
 11
11.06489463677598
 21
9.642176370408204
 31
0.0
  0
LINE
  5
128
330
6C
100
AcDbEntity
  8
Hidden (ANSI)
 48
0.0003761741390917
100
AcDbLine
 10
10.97988623513463
 20
9.641676370408205
 30
0.0
 11
10.97988623513463
 21
9.642176370408204
 31
0.0
  0
LINE
  5
129
330
6C
100
AcDbEntity
  8
Hidden (ANSI)
 48
0.0003761741390917
100
AcDbLine
 10
10.98926438620539
 20
9.641676370408205
 30
0.0
 11
10.98926438620539
 21
9.642176370408204
 31
0.0
  0
LINE
  5
12A
330
6C
100
AcDbEntity
  8
Hidden (ANSI)
 48
0.0003761741390917
100
AcDbLine
 10
11.06028119149118
 20
9.641676370408205
 30
0.0
 11
11.06028119149118
 21
9.642176370408204
 31
0.0
  0
LINE
  5
12B
330
6C
100
AcDbEntity
  8
Hidden (ANSI)
 48
0.0003761741390917
100
AcDbLine
 10
10.9972055625153
 20
9.641676370408205
 30
0.0
 11
10.9972055625153
 21
9.642176370408204
 31
0.0
  0
LINE
  5
12C
330
6C
100
AcDbEntity
  8
Hidden (ANSI)
 48
0.0003761741390917
100
AcDbLine
 10
10.99667615076131
 20
9.641676370408205
 30
0.0
 11
10.99667615076131
 21
9.642176370408204
 31
0.0
  0
LINE
  5
12D
330
6C
100
AcDbEntity
  8
Hidden (ANSI)
 48
0.0003761741390917
100
AcDbLine
 10
11.0093064026066
 20
9.641676370408205
 30
0.0
 11
11.0093064026066
 21
9.642176370408204
 31
0.0
  0
LINE
  5
12E
330
6C
100
AcDbEntity
  8
Hidden (ANSI)
 48
0.0003761741390917
100
AcDbLine
 10
11.02723077199183
 20
9.641676370408205
 30
0.0
 11
11.02723077199183
 21
9.642176370408204
 31
0.0
  0
LINE
  5
12F
330
6C
100
AcDbEntity
  8
Hidden (ANSI)
 48
0.0003761741390917
100
AcDbLine
 10
11.02231480570474
 20
9.641676370408205
 30
0.0
 11
11.02231480570474
 21
9.642176370408204
 31
0.0
  0
LINE
  5
130
330
6C
100
AcDbEntity
  8
Hidden (ANSI)
 48
0.0003761741390917
100
AcDbLine
 10
10.99478539449704
 20
9.641676370408205
 30
0.0
 11
10.99478539449704
 21
9.642176370408204
 31
0.0
  0
LINE
  5
131
330
6C
100
AcDbEntity
  8
Hidden (ANSI)
 48
0.0003761741390917
100
AcDbLine
 10
11.01127278912143
 20
9.641676370408205
 30
0.0
 11
11.01127278912143
 21
9.642176370408204
 31
0.0
  0
LINE
  5
132
330
6C
100
AcDbEntity
  8
Hidden (ANSI)
 48
0.0003761741390917
100
AcDbLine
 10
11.03691144406486
 20
9.641676370408205
 30
0.0
 11
11.03691144406486
 21
9.642176370408204
 31
0.0
  0
LINE
  5
133
330
6C
100
AcDbEntity
  8
Hidden (ANSI)
 48
0.0003761741390917
100
AcDbLine
 10
11.04167614985081
 20
9.641676370408205
 30
0.0
 11
11.04167614985081
 21
9.642176370408204
 31
0.0
  0
LINE
  5
134
330
6C
100
AcDbEntity
  8
Hidden (ANSI)
 48
0.0003761741390917
100
AcDbLine
 10
11.024734973723
 20
9.641676370408205
 30
0.0
 11
11.024734973723
 21
9.642176370408204
 31
0.0
  0
LINE
  5
135
330
6C
100
AcDbEntity
  8
Hidden (ANSI)
 48
0.0003761741390917
100
AcDbLine
 10
10.97973497463349
 20
9.641676370408205
 30
0.0
 11
10.97973497463349
 21
9.642176370408204
 31
0.0
  0
LINE
  5
136
330
6C
100
AcDbEntity
  8
Hidden (ANSI)
 48
0.0003761741390917
100
AcDbLine
 10
11.0697349728125
 20
9.641676370408205
 30
0.0
 11
11.0697349728125
 21
9.642176370408204
 31
0.0
  0
LINE
  5
137
330
6C
100
AcDbEntity
  8
Hidden (ANSI)
 48
0.0003761741390917
100
AcDbLine
 10
10.99160892397308
 20
9.641676370408205
 30
0.0
 11
10.99160892397308
 21
9.642176370408204
 31
0.0
  0
LINE
  5
138
330
6C
100
AcDbEntity
  8
Hidden (ANSI)
 48
0.0003761741390917
100
AcDbLine
 10
11.04477699012421
 20
9.641676370408205
 30
0.0
 11
11.04477699012421
 21
9.642176370408204
 31
0.0
  0
LINE
  5
139
330
6C
100
AcDbEntity
  8
Hidden (ANSI)
 48
0.0003761741390917
100
AcDbLine
 10
11.03381060379147
 20
9.641676370408205
 30
0.0
 11
11.03381060379147
 21
9.642176370408204
 31
0.0
  0
LINE
  5
13A
330
6C
100
AcDbEntity
  8
Hidden (ANSI)
 48
0.0003761741390917
100
AcDbLine
 10
11.20182931952947
 20
9.641676370408205
 30
0.0
 11
11.20182931952947
 21
9.642176370408204
 31
0.0
  0
LINE
  5
13B
330
6C
100
AcDbEntity
  8
Hidden (ANSI)
 48
0.0003761741390917
100
AcDbLine
 10
11.18534192490508
 20
9.641676370408205
 30
0.0
 11
11.18534192490508
 21
9.642176370408204
 31
0.0
  0
LINE
  5
13C
330
6C
100
AcDbEntity
  8
Hidden (ANSI)
 48
0.0003761741390917
100
AcDbLine
 10
11.18556881565679
 20
9.641676370408205
 30
0.0
 11
11.18556881565679
 21
9.642176370408204
 31
0.0
  0
LINE
  5
13D
330
6C
100
AcDbEntity
  8
Hidden (ANSI)
 48
0.0003761741390917
100
AcDbLine
 10
11.18904780718303
 20
9.641676370408205
 30
0.0
 11
11.18904780718303
 21
9.642176370408204
 31
0.0
  0
LINE
  5
13E
330
6C
100
AcDbEntity
  8
Hidden (ANSI)
 48
0.0003761741390917
100
AcDbLine
 10
11.18723268116934
 20
9.641676370408205
 30
0.0
 11
11.18723268116934
 21
9.642176370408204
 31
0.0
  0
LINE
  5
13F
330
6C
100
AcDbEntity
  8
Hidden (ANSI)
 48
0.0003761741390917
100
AcDbLine
 10
11.19986293301463
 20
9.641676370408205
 30
0.0
 11
11.19986293301463
 21
9.642176370408204
 31
0.0
  0
LINE
  5
140
330
6C
100
AcDbEntity
  8
Hidden (ANSI)
 48
0.0003761741390917
100
AcDbLine
 10
11.230795705498
 20
9.641676370408205
 30
0.0
 11
11.230795705498
 21
9.642176370408204
 31
0.0
  0
LINE
  5
141
330
6C
100
AcDbEntity
  8
Hidden (ANSI)
 48
0.0003761741390917
100
AcDbLine
 10
11.22890494923374
 20
9.641676370408205
 30
0.0
 11
11.22890494923374
 21
9.642176370408204
 31
0.0
  0
LINE
  5
142
330
6C
100
AcDbEntity
  8
Hidden (ANSI)
 48
0.0003761741390917
100
AcDbLine
 10
11.24342595734329
 20
9.641676370408205
 30
0.0
 11
11.24342595734329
 21
9.642176370408204
 31
0.0
  0
LINE
  5
143
330
6C
100
AcDbEntity
  8
Hidden (ANSI)
 48
0.0003761741390917
100
AcDbLine
 10
11.24531671360756
 20
9.641676370408205
 30
0.0
 11
11.24531671360756
 21
9.642176370408204
 31
0.0
  0
LINE
  5
144
330
6C
100
AcDbEntity
  8
Hidden (ANSI)
 48
0.0207791924476624
100
AcDbLine
 10
10.99576858775446
 20
9.641676370408205
 30
0.0
 11
10.97882741162665
 21
9.641676370408205
 31
0.0
  0
LINE
  5
145
330
6C
100
AcDbEntity
  8
Hidden (ANSI)
 48
0.0681226775050163
100
AcDbLine
 10
11.05105430092157
 20
9.641676370408205
 30
0.0
 11
10.99576858775446
 21
9.641676370408205
 31
0.0
  0
LINE
  5
146
330
6C
100
AcDbEntity
  8
Hidden (ANSI)
 48
0.0041975043714046
100
AcDbLine
 10
11.05453329244781
 20
9.641676370408205
 30
0.0
 11
11.05105430092157
 21
9.641676370408205
 31
0.0
  0
LINE
  5
147
330
6C
100
AcDbEntity
  8
Hidden (ANSI)
 48
0.0199486967176199
100
AcDbLine
 10
11.07071816606992
 20
9.641676370408205
 30
0.0
 11
11.05453329244781
 21
9.641676370408205
 31
0.0
  0
LINE
  5
148
330
6C
100
AcDbEntity
  8
Hidden (ANSI)
 48
0.0003761741390917
100
AcDbLine
 10
10.97882741162665
 20
9.641676370408205
 30
0.0
 11
10.97882741162665
 21
9.642176370408204
 31
0.0
  0
LINE
  5
149
330
6C
100
AcDbEntity
  8
Hidden (ANSI)
 48
0.0003761741390917
100
AcDbLine
 10
10.99576858775446
 20
9.641676370408205
 30
0.0
 11
10.99576858775446
 21
9.642176370408204
 31
0.0
  0
LINE
  5
14A
330
6C
100
AcDbEntity
  8
Hidden (ANSI)
 48
0.0003761741390917
100
AcDbLine
 10
11.05377698994211
 20
9.641676370408205
 30
0.0
 11
11.05377698994211
 21
9.642176370408204
 31
0.0
  0
LINE
  5
14B
330
6C
100
AcDbEntity
  8
Hidden (ANSI)
 48
0.0003761741390917
100
AcDbLine
 10
11.0658778300334
 20
9.641676370408205
 30
0.0
 11
11.0658778300334
 21
9.642176370408204
 31
0.0
  0
LINE
  5
14C
330
6C
100
AcDbEntity
  8
Hidden (ANSI)
 48
0.0003761741390917
100
AcDbLine
 10
11.05105430092157
 20
9.641676370408205
 30
0.0
 11
11.05105430092157
 21
9.642176370408204
 31
0.0
  0
LINE
  5
14D
330
6C
100
AcDbEntity
  8
Hidden (ANSI)
 48
0.0003761741390917
100
AcDbLine
 10
11.05453329244781
 20
9.641676370408205
 30
0.0
 11
11.05453329244781
 21
9.642176370408204
 31
0.0
  0
LINE
  5
14E
330
6C
100
AcDbEntity
  8
Hidden (ANSI)
 48
0.0003761741390917
100
AcDbLine
 10
11.07071816606992
 20
9.641676370408205
 30
0.0
 11
11.07071816606992
 21
9.642176370408204
 31
0.0
  0
LINE
  5
14F
330
6C
100
AcDbEntity
  8
Hidden (ANSI)
 48
0.0003761741390917
100
AcDbLine
 10
10.99501228524875
 20
9.641676370408205
 30
0.0
 11
10.99501228524875
 21
9.642176370408204
 31
0.0
  0
LINE
  5
150
330
6C
100
AcDbEntity
  8
Hidden (ANSI)
 48
0.0003761741390917
100
AcDbLine
 10
10.998491276775
 20
9.641676370408205
 30
0.0
 11
10.998491276775
 21
9.642176370408204
 31
0.0
  0
LINE
  5
151
330
6C
100
AcDbEntity
  8
Hidden (ANSI)
 48
0.0003761741390917
100
AcDbLine
 10
10.98366774766317
 20
9.641676370408205
 30
0.0
 11
10.98366774766317
 21
9.642176370408204
 31
0.0
  0
LINE
  5
152
330
6C
100
AcDbEntity
  8
Hidden (ANSI)
 48
0.0003761741390917
100
AcDbLine
 10
10.96511194193646
 20
9.641676370408205
 30
0.0
 11
10.96511194193646
 21
9.642176370408204
 31
0.0
  0
LINE
  5
153
330
6C
100
AcDbEntity
  8
Hidden (ANSI)
 48
0.0003761741390917
100
AcDbLine
 10
10.96350479911184
 20
9.641676370408205
 30
0.0
 11
10.96350479911184
 21
9.642176370408204
 31
0.0
  0
LINE
  5
154
330
6C
100
AcDbEntity
  8
Hidden (ANSI)
 48
0.0003761741390917
100
AcDbLine
 10
10.96128954819141
 20
9.641676370408205
 30
0.0
 11
10.96128954819141
 21
9.642176370408204
 31
0.0
  0
LINE
  5
155
330
6C
100
AcDbEntity
  8
Hidden (ANSI)
 48
0.0003761741390917
100
AcDbLine
 10
10.95724997298357
 20
9.641676370408205
 30
0.0
 11
10.95724997298357
 21
9.642176370408204
 31
0.0
  0
LINE
  5
156
330
6C
100
AcDbEntity
  8
Hidden (ANSI)
 48
0.0003761741390917
100
AcDbLine
 10
10.9533407066534
 20
9.641676370408205
 30
0.0
 11
10.9533407066534
 21
9.642176370408204
 31
0.0
  0
LINE
  5
157
330
6C
100
AcDbEntity
  8
Hidden (ANSI)
 48
0.0003761741390917
100
AcDbLine
 10
10.96024707717003
 20
9.641676370408205
 30
0.0
 11
10.96024707717003
 21
9.642176370408204
 31
0.0
  0
LINE
  5
158
330
6C
100
AcDbEntity
  8
Hidden (ANSI)
 48
0.0003761741390917
100
AcDbLine
 10
10.95034360246693
 20
9.641676370408205
 30
0.0
 11
10.95034360246693
 21
9.642176370408204
 31
0.0
  0
LINE
  5
159
330
6C
100
AcDbEntity
  8
Hidden (ANSI)
 48
0.0003761741390917
100
AcDbLine
 10
10.95903086097842
 20
9.641676370408205
 30
0.0
 11
10.95903086097842
 21
9.642176370408204
 31
0.0
  0
LINE
  5
15A
330
6C
100
AcDbEntity
  8
Hidden (ANSI)
 48
0.0003761741390917
100
AcDbLine
 10
10.95820557141983
 20
9.641676370408205
 30
0.0
 11
10.95820557141983
 21
9.642176370408204
 31
0.0
  0
LINE
  5
15B
330
6C
100
AcDbEntity
  8
Hidden (ANSI)
 48
0.0003761741390917
100
AcDbLine
 10
10.95603375679196
 20
9.641676370408205
 30
0.0
 11
10.95603375679196
 21
9.642176370408204
 31
0.0
  0
LINE
  5
15C
330
6C
100
AcDbEntity
  8
Hidden (ANSI)
 48
0.0003761741390917
100
AcDbLine
 10
10.96532912339925
 20
9.641676370408205
 30
0.0
 11
10.96532912339925
 21
9.642176370408204
 31
0.0
  0
LINE
  5
15D
330
6C
100
AcDbEntity
  8
Hidden (ANSI)
 48
0.0003761741390917
100
AcDbLine
 10
10.98231271378921
 20
9.641676370408205
 30
0.0
 11
10.98231271378921
 21
9.642176370408204
 31
0.0
  0
LINE
  5
15E
330
6C
100
AcDbEntity
  8
Hidden (ANSI)
 48
0.0003761741390917
100
AcDbLine
 10
10.94521811994516
 20
9.641676370408205
 30
0.0
 11
10.94521811994516
 21
9.642176370408204
 31
0.0
  0
LINE
  5
15F
330
6C
100
AcDbEntity
  8
Hidden (ANSI)
 48
0.0003761741390917
100
AcDbLine
 10
10.94712931681768
 20
9.641676370408205
 30
0.0
 11
10.94712931681768
 21
9.642176370408204
 31
0.0
  0
LINE
  5
160
330
6C
100
AcDbEntity
  8
Hidden (ANSI)
 48
0.0003761741390917
100
AcDbLine
 10
10.94934456773811
 20
9.641676370408205
 30
0.0
 11
10.94934456773811
 21
9.642176370408204
 31
0.0
  0
LINE
  5
161
330
6C
100
AcDbEntity
  8
Hidden (ANSI)
 48
0.0003761741390917
100
AcDbLine
 10
10.95460035913756
 20
9.641676370408205
 30
0.0
 11
10.95460035913756
 21
9.642176370408204
 31
0.0
  0
LINE
  5
162
330
6C
100
AcDbEntity
  8
Hidden (ANSI)
 48
0.0003761741390917
100
AcDbLine
 10
10.95238510821713
 20
9.641676370408205
 30
0.0
 11
10.95238510821713
 21
9.642176370408204
 31
0.0
  0
LINE
  5
163
330
6C
100
AcDbEntity
  8
Hidden (ANSI)
 48
0.0003761741390917
100
AcDbLine
 10
10.95151638236598
 20
9.641676370408205
 30
0.0
 11
10.95151638236598
 21
9.642176370408204
 31
0.0
  0
LINE
  5
164
330
6C
100
AcDbEntity
  8
Hidden (ANSI)
 48
0.0003761741390917
100
AcDbLine
 10
10.64992933847757
 20
9.641676370408205
 30
0.0
 11
10.64992933847757
 21
9.642176370408204
 31
0.0
  0
LINE
  5
165
330
6C
100
AcDbEntity
  8
Hidden (ANSI)
 48
0.0003761741390917
100
AcDbLine
 10
10.64645034695132
 20
9.641676370408205
 30
0.0
 11
10.64645034695132
 21
9.642176370408204
 31
0.0
  0
LINE
  5
166
330
6C
100
AcDbEntity
  8
Hidden (ANSI)
 48
0.0003761741390917
100
AcDbLine
 10
10.61892093574362
 20
9.641676370408205
 30
0.0
 11
10.61892093574362
 21
9.642176370408204
 31
0.0
  0
LINE
  5
167
330
6C
100
AcDbEntity
  8
Hidden (ANSI)
 48
0.0003761741390917
100
AcDbLine
 10
10.61544194421738
 20
9.641676370408205
 30
0.0
 11
10.61544194421738
 21
9.642176370408204
 31
0.0
  0
LINE
  5
168
330
6C
100
AcDbEntity
  8
Hidden (ANSI)
 48
0.0003761741390917
100
AcDbLine
 10
10.6292822800718
 20
9.641676370408205
 30
0.0
 11
10.6292822800718
 21
9.642176370408204
 31
0.0
  0
LINE
  5
169
330
6C
100
AcDbEntity
  8
Hidden (ANSI)
 48
0.0003761741390917
100
AcDbLine
 10
10.5567528697746
 20
9.641676370408205
 30
0.0
 11
10.5567528697746
 21
9.642176370408204
 31
0.0
  0
LINE
  5
16A
330
6C
100
AcDbEntity
  8
Hidden (ANSI)
 48
0.0003761741390917
100
AcDbLine
 10
10.61914782649534
 20
9.641676370408205
 30
0.0
 11
10.61914782649534
 21
9.642176370408204
 31
0.0
  0
LINE
  5
16B
330
6C
100
AcDbEntity
  8
Hidden (ANSI)
 48
0.0003761741390917
100
AcDbLine
 10
10.57558480216667
 20
9.641676370408205
 30
0.0
 11
10.57558480216667
 21
9.642176370408204
 31
0.0
  0
LINE
  5
16C
330
6C
100
AcDbEntity
  8
Hidden (ANSI)
 48
0.0003761741390917
100
AcDbLine
 10
10.56355959232595
 20
9.641676370408205
 30
0.0
 11
10.56355959232595
 21
9.642176370408204
 31
0.0
  0
LINE
  5
16D
330
6C
100
AcDbEntity
  8
Hidden (ANSI)
 48
0.0003761741390917
100
AcDbLine
 10
10.58821505401196
 20
9.641676370408205
 30
0.0
 11
10.58821505401196
 21
9.642176370408204
 31
0.0
  0
LINE
  5
16E
330
6C
100
AcDbEntity
  8
Hidden (ANSI)
 48
0.0003761741390917
100
AcDbLine
 10
10.60031589410326
 20
9.641676370408205
 30
0.0
 11
10.60031589410326
 21
9.642176370408204
 31
0.0
  0
LINE
  5
16F
330
6C
100
AcDbEntity
  8
Hidden (ANSI)
 48
0.000272521720035
100
AcDbLine
 10
10.64992933847757
 20
9.641676370408205
 30
0.0
 11
10.64962681747529
 21
9.641676370408205
 31
0.0
  0
LINE
  5
170
330
6C
100
AcDbEntity
  8
Hidden (ANSI)
 48
0.0003761741390917
100
AcDbLine
 10
10.63608900262315
 20
9.641676370408205
 30
0.0
 11
10.63608900262315
 21
9.642176370408204
 31
0.0
  0
LINE
  5
171
330
6C
100
AcDbEntity
  8
Hidden (ANSI)
 48
0.0003761741390917
100
AcDbLine
 10
10.61725707023107
 20
9.641676370408205
 30
0.0
 11
10.61725707023107
 21
9.642176370408204
 31
0.0
  0
LINE
  5
172
330
6C
100
AcDbEntity
  8
Hidden (ANSI)
 48
0.0003761741390917
100
AcDbLine
 10
10.5901814405268
 20
9.641676370408205
 30
0.0
 11
10.5901814405268
 21
9.642176370408204
 31
0.0
  0
LINE
  5
173
330
6C
100
AcDbEntity
  8
Hidden (ANSI)
 48
0.0003761741390917
100
AcDbLine
 10
10.57369404590241
 20
9.641676370408205
 30
0.0
 11
10.57369404590241
 21
9.642176370408204
 31
0.0
  0
LINE
  5
174
330
6C
100
AcDbEntity
  8
Hidden (ANSI)
 48
0.0022353776730597
100
AcDbLine
 10
10.55864362603886
 20
9.641676370408205
 30
0.0
 11
10.5567528697746
 21
9.641676370408205
 31
0.0
  0
LINE
  5
175
330
6C
100
AcDbEntity
  8
Hidden (ANSI)
 48
0.0003761741390917
100
AcDbLine
 10
10.60704698640404
 20
9.641676370408205
 30
0.0
 11
10.60704698640404
 21
9.642176370408204
 31
0.0
  0
LINE
  5
176
330
6C
100
AcDbEntity
  8
Hidden (ANSI)
 48
0.0003761741390917
100
AcDbLine
 10
10.59600496982074
 20
9.641676370408205
 30
0.0
 11
10.59600496982074
 21
9.642176370408204
 31
0.0
  0
LINE
  5
177
330
6C
100
AcDbEntity
  8
Hidden (ANSI)
 48
0.0003761741390917
100
AcDbLine
 10
10.6395679941494
 20
9.641676370408205
 30
0.0
 11
10.6395679941494
 21
9.642176370408204
 31
0.0
  0
LINE
  5
178
330
6C
100
AcDbEntity
  8
Hidden (ANSI)
 48
0.0003761741390917
100
AcDbLine
 10
10.55788732353316
 20
9.641676370408205
 30
0.0
 11
10.55788732353316
 21
9.642176370408204
 31
0.0
  0
LINE
  5
179
330
6C
100
AcDbEntity
  8
Hidden (ANSI)
 48
0.0003761741390917
100
AcDbLine
 10
10.61143354093714
 20
9.641676370408205
 30
0.0
 11
10.61143354093714
 21
9.642176370408204
 31
0.0
  0
LINE
  5
17A
330
6C
100
AcDbEntity
  8
Hidden (ANSI)
 48
0.0003761741390917
100
AcDbLine
 10
10.64864362421787
 20
9.641676370408205
 30
0.0
 11
10.64864362421787
 21
9.642176370408204
 31
0.0
  0
LINE
  5
17B
330
6C
100
AcDbEntity
  8
Hidden (ANSI)
 48
0.0003761741390917
100
AcDbLine
 10
10.55955118904571
 20
9.641676370408205
 30
0.0
 11
10.55955118904571
 21
9.642176370408204
 31
0.0
  0
LINE
  5
17C
330
6C
100
AcDbEntity
  8
Hidden (ANSI)
 48
0.0077508711256087
100
AcDbLine
 10
11.07986942638896
 20
9.641676370408205
 30
0.0
 11
11.07162572907677
 21
9.641676370408205
 31
0.0
  0
LINE
  5
17D
330
6C
100
AcDbEntity
  8
Hidden (ANSI)
 48
0.004309518262744
100
AcDbLine
 10
11.08349967841635
 20
9.641676370408205
 30
0.0
 11
11.07986942638896
 21
9.641676370408205
 31
0.0
  0
LINE
  5
17E
330
6C
100
AcDbEntity
  8
Hidden (ANSI)
 48
0.0200041253119707
100
AcDbLine
 10
11.09976018228903
 20
9.641676370408205
 30
0.0
 11
11.08349967841635
 21
9.641676370408205
 31
0.0
  0
LINE
  5
17F
330
6C
100
AcDbEntity
  8
Hidden (ANSI)
 48
0.0003761741390917
100
AcDbLine
 10
11.08168455240265
 20
9.641676370408205
 30
0.0
 11
11.08168455240265
 21
9.642176370408204
 31
0.0
  0
LINE
  5
180
330
6C
100
AcDbEntity
  8
Hidden (ANSI)
 48
0.0003761741390917
100
AcDbLine
 10
11.09484421600194
 20
9.641676370408205
 30
0.0
 11
11.09484421600194
 21
9.642176370408204
 31
0.0
  0
LINE
  5
181
330
6C
100
AcDbEntity
  8
Hidden (ANSI)
 48
0.0003761741390917
100
AcDbLine
 10
11.07986942638896
 20
9.641676370408205
 30
0.0
 11
11.07986942638896
 21
9.642176370408204
 31
0.0
  0
LINE
  5
182
330
6C
100
AcDbEntity
  8
Hidden (ANSI)
 48
0.0003761741390917
100
AcDbLine
 10
11.08349967841635
 20
9.641676370408205
 30
0.0
 11
11.08349967841635
 21
9.642176370408204
 31
0.0
  0
LINE
  5
183
330
6C
100
AcDbEntity
  8
Hidden (ANSI)
 48
0.0003761741390917
100
AcDbLine
 10
11.09976018228903
 20
9.641676370408205
 30
0.0
 11
11.09976018228903
 21
9.642176370408204
 31
0.0
  0
LINE
  5
184
330
6C
100
AcDbEntity
  8
Hidden (ANSI)
 48
0.0003761741390917
100
AcDbLine
 10
11.08372656916806
 20
9.641676370408205
 30
0.0
 11
11.08372656916806
 21
9.642176370408204
 31
0.0
  0
LINE
  5
185
330
6C
100
AcDbEntity
  8
Hidden (ANSI)
 48
0.0856113433837891
100
AcDbLine
 10
11.26029150322054
 20
9.641676370408205
 30
0.0
 11
11.17029150504153
 21
9.641676370408205
 31
0.0
  0
LINE
  5
186
330
6C
100
AcDbEntity
  8
Hidden (ANSI)
 48
0.0003761741390917
100
AcDbLine
 10
11.17029150504153
 20
9.641676370408205
 30
0.0
 11
11.17029150504153
 21
9.642176370408204
 31
0.0
  0
LINE
  5
187
330
6C
100
AcDbEntity
  8
Hidden (ANSI)
 48
0.0003761741390917
100
AcDbLine
 10
11.26029150322054
 20
9.641676370408205
 30
0.0
 11
11.26029150322054
 21
9.642176370408204
 31
0.0
  0
LINE
  5
188
330
6C
100
AcDbEntity
  8
Hidden (ANSI)
 48
0.0003761741390917
100
AcDbLine
 10
11.21778730239986
 20
9.641676370408205
 30
0.0
 11
11.21778730239986
 21
9.642176370408204
 31
0.0
  0
LINE
  5
189
330
6C
100
AcDbEntity
  8
Hidden (ANSI)
 48
0.0003761741390917
100
AcDbLine
 10
11.21287133611277
 20
9.641676370408205
 30
0.0
 11
11.21287133611277
 21
9.642176370408204
 31
0.0
  0
LINE
  5
18A
330
6C
100
AcDbEntity
  8
Hidden (ANSI)
 48
0.0003761741390917
100
AcDbLine
 10
10.63419824635889
 20
9.641676370408205
 30
0.0
 11
10.63419824635889
 21
9.642176370408204
 31
0.0
  0
LINE
  5
18B
330
6C
100
AcDbEntity
  8
Hidden (ANSI)
 48
0.0003761741390917
100
AcDbLine
 10
10.61672765847708
 20
9.641676370408205
 30
0.0
 11
10.61672765847708
 21
9.642176370408204
 31
0.0
  0
LINE
  5
18C
330
6C
100
AcDbEntity
  8
Hidden (ANSI)
 48
0.0008363424567506
100
AcDbLine
 10
11.26127469647795
 20
9.641676370408205
 30
0.0
 11
11.26029150322054
 21
9.641676370408205
 31
0.0
  0
LINE
  5
18D
330
6C
100
AcDbEntity
  8
Hidden (ANSI)
 48
0.0007643160643056
100
AcDbLine
 10
11.17029150504153
 20
9.641676370408205
 30
0.0
 11
11.16938394203468
 21
9.641676370408205
 31
0.0
  0
LINE
  5
18E
330
6C
100
AcDbEntity
  8
Hidden (ANSI)
 48
0.0003761741390917
100
AcDbLine
 10
11.1742242780712
 20
9.641676370408205
 30
0.0
 11
11.1742242780712
 21
9.642176370408204
 31
0.0
  0
LINE
  5
18F
330
6C
100
AcDbEntity
  8
Hidden (ANSI)
 48
0.0003761741390917
100
AcDbLine
 10
11.16938394203468
 20
9.641676370408205
 30
0.0
 11
11.16938394203468
 21
9.642176370408204
 31
0.0
  0
LINE
  5
190
330
6C
100
AcDbEntity
  8
Hidden (ANSI)
 48
0.0003761741390917
100
AcDbLine
 10
11.26127469647795
 20
9.641676370408205
 30
0.0
 11
11.26127469647795
 21
9.642176370408204
 31
0.0
  0
LINE
  5
191
330
6C
100
AcDbEntity
  8
Hidden (ANSI)
 48
0.0003761741390917
100
AcDbLine
 10
11.25643436044144
 20
9.641676370408205
 30
0.0
 11
11.25643436044144
 21
9.642176370408204
 31
0.0
  0
LINE
  5
192
330
6C
100
AcDbEntity
  8
Hidden (ANSI)
 48
0.0003761741390917
100
AcDbLine
 10
10.60515623013978
 20
9.641676370408205
 30
0.0
 11
10.60515623013978
 21
9.642176370408204
 31
0.0
  0
LINE
  5
193
330
6C
100
AcDbEntity
  8
Hidden (ANSI)
 48
0.0003761741390917
100
AcDbLine
 10
10.75582009524495
 20
9.641676370408205
 30
0.0
 11
10.75582009524495
 21
9.642176370408204
 31
0.0
  0
LINE
  5
194
330
6C
100
AcDbEntity
  8
Hidden (ANSI)
 48
0.0003761741390917
100
AcDbLine
 10
10.73161841506236
 20
9.641676370408205
 30
0.0
 11
10.73161841506236
 21
9.642176370408204
 31
0.0
  0
LINE
  5
195
330
6C
100
AcDbEntity
  8
Hidden (ANSI)
 48
0.0003761741390917
100
AcDbLine
 10
10.72670244877528
 20
9.641676370408205
 30
0.0
 11
10.72670244877528
 21
9.642176370408204
 31
0.0
  0
LINE
  5
196
330
6C
100
AcDbEntity
  8
Hidden (ANSI)
 48
0.0003761741390917
100
AcDbLine
 10
10.78962681725001
 20
9.641676370408205
 30
0.0
 11
10.78962681725001
 21
9.642176370408204
 31
0.0
  0
LINE
  5
197
330
6C
100
AcDbEntity
  8
Hidden (ANSI)
 48
0.0045096860267222
100
AcDbLine
 10
10.78962681725001
 20
9.641676370408205
 30
0.0
 11
10.78478648121349
 21
9.641676370408205
 31
0.0
  0
LINE
  5
198
330
6C
100
AcDbEntity
  8
Hidden (ANSI)
 48
0.0003761741390917
100
AcDbLine
 10
10.78478648121349
 20
9.641676370408205
 30
0.0
 11
10.78478648121349
 21
9.642176370408204
 31
0.0
  0
LINE
  5
199
330
6C
100
AcDbEntity
  8
Hidden (ANSI)
 48
0.0148398671299219
100
AcDbLine
 10
10.78478648121349
 20
9.641676370408205
 30
0.0
 11
10.7726856411222
 21
9.641676370408205
 31
0.0
  0
LINE
  5
19A
330
6C
100
AcDbEntity
  8
Hidden (ANSI)
 48
0.0003761741390917
100
AcDbLine
 10
10.7726856411222
 20
9.641676370408205
 30
0.0
 11
10.7726856411222
 21
9.642176370408204
 31
0.0
  0
LINE
  5
19B
330
6C
100
AcDbEntity
  8
Hidden (ANSI)
 48
0.0148398671299219
100
AcDbLine
 10
10.7726856411222
 20
9.641676370408205
 30
0.0
 11
10.7605848010309
 21
9.641676370408205
 31
0.0
  0
LINE
  5
19C
330
6C
100
AcDbEntity
  8
Hidden (ANSI)
 48
0.0003761741390917
100
AcDbLine
 10
10.7605848010309
 20
9.641676370408205
 30
0.0
 11
10.7605848010309
 21
9.642176370408204
 31
0.0
  0
LINE
  5
19D
330
6C
100
AcDbEntity
  8
Hidden (ANSI)
 48
0.0207791924476624
100
AcDbLine
 10
10.7605848010309
 20
9.641676370408205
 30
0.0
 11
10.74364362490309
 21
9.641676370408205
 31
0.0
  0
LINE
  5
19E
330
6C
100
AcDbEntity
  8
Hidden (ANSI)
 48
0.0003761741390917
100
AcDbLine
 10
10.74364362490309
 20
9.641676370408205
 30
0.0
 11
10.74364362490309
 21
9.642176370408204
 31
0.0
  0
LINE
  5
19F
330
6C
100
AcDbEntity
  8
Hidden (ANSI)
 48
0.0207791924476624
100
AcDbLine
 10
10.74364362490309
 20
9.641676370408205
 30
0.0
 11
10.72670244877528
 21
9.641676370408205
 31
0.0
  0
LINE
  5
1A0
330
6C
100
AcDbEntity
  8
Hidden (ANSI)
 48
0.0003761741390917
100
AcDbLine
 10
11.17724948809402
 20
9.641676370408205
 30
0.0
 11
11.17724948809402
 21
9.642176370408204
 31
0.0
  0
LINE
  5
1A1
330
6C
100
AcDbEntity
  8
Hidden (ANSI)
 48
0.0003761741390917
100
AcDbLine
 10
11.2274679744729
 20
9.641676370408205
 30
0.0
 11
11.2274679744729
 21
9.642176370408204
 31
0.0
  0
LINE
  5
1A2
330
6C
100
AcDbEntity
  8
Hidden (ANSI)
 48
0.0003761741390917
100
AcDbLine
 10
11.22928310048659
 20
9.641676370408205
 30
0.0
 11
11.22928310048659
 21
9.642176370408204
 31
0.0
  0
LINE
  5
1A3
330
6C
100
AcDbEntity
  8
Hidden (ANSI)
 48
0.0003761741390917
100
AcDbLine
 10
11.23223268025884
 20
9.641676370408205
 30
0.0
 11
11.23223268025884
 21
9.642176370408204
 31
0.0
  0
LINE
  5
1A4
330
6C
100
AcDbEntity
  8
Hidden (ANSI)
 48
0.0003761741390917
100
AcDbLine
 10
10.79053438025686
 20
9.641676370408205
 30
0.0
 11
10.79053438025686
 21
9.642176370408204
 31
0.0
  0
LINE
  5
1A5
330
6C
100
AcDbEntity
  8
Hidden (ANSI)
 48
0.0003761741390917
100
AcDbLine
 10
10.7734419436279
 20
9.641676370408205
 30
0.0
 11
10.7734419436279
 21
9.642176370408204
 31
0.0
  0
LINE
  5
1A6
330
6C
100
AcDbEntity
  8
Hidden (ANSI)
 48
0.0003761741390917
100
AcDbLine
 10
10.76996295210166
 20
9.641676370408205
 30
0.0
 11
10.76996295210166
 21
9.642176370408204
 31
0.0
  0
LINE
  5
1A7
330
6C
100
AcDbEntity
  8
Hidden (ANSI)
 48
0.0003761741390917
100
AcDbLine
 10
10.78380328795607
 20
9.641676370408205
 30
0.0
 11
10.78380328795607
 21
9.642176370408204
 31
0.0
  0
LINE
  5
1A8
330
6C
100
AcDbEntity
  8
Hidden (ANSI)
 48
0.0003761741390917
100
AcDbLine
 10
10.77177807811535
 20
9.641676370408205
 30
0.0
 11
10.77177807811535
 21
9.642176370408204
 31
0.0
  0
LINE
  5
1A9
330
6C
100
AcDbEntity
  8
Hidden (ANSI)
 48
0.0010230224579573
100
AcDbLine
 10
10.79053438025686
 20
9.641676370408205
 30
0.0
 11
10.78962681725001
 21
9.641676370408205
 31
0.0
  0
LINE
  5
1AA
330
6C
100
AcDbEntity
  8
Hidden (ANSI)
 48
0.0003761741390917
100
AcDbLine
 10
10.77366883437961
 20
9.641676370408205
 30
0.0
 11
10.77366883437961
 21
9.642176370408204
 31
0.0
  0
LINE
  5
1AB
330
6C
100
AcDbEntity
  8
Hidden (ANSI)
 48
0.0266217719763518
100
AcDbLine
 10
10.72670244877528
 20
9.641676370408205
 30
0.0
 11
10.69864362581359
 21
9.641676370408205
 31
0.0
  0
LINE
  5
1AC
330
6C
100
AcDbEntity
  8
Hidden (ANSI)
 48
0.0003761741390917
100
AcDbLine
 10
10.69864362581359
 20
9.641676370408205
 30
0.0
 11
10.69864362581359
 21
9.642176370408204
 31
0.0
  0
LINE
  5
1AD
330
6C
100
AcDbEntity
  8
Hidden (ANSI)
 48
0.0003761741390917
100
AcDbLine
 10
11.18632511816249
 20
9.641676370408205
 30
0.0
 11
11.18632511816249
 21
9.642176370408204
 31
0.0
  0
LINE
  5
1AE
330
6C
100
AcDbEntity
  8
Hidden (ANSI)
 48
0.0003761741390917
100
AcDbLine
 10
11.24433352035014
 20
9.641676370408205
 30
0.0
 11
11.24433352035014
 21
9.642176370408204
 31
0.0
  0
LINE
  5
1AF
330
6C
100
AcDbEntity
  8
Hidden (ANSI)
 48
0.0003761741390917
100
AcDbLine
 10
11.2416108313296
 20
9.641676370408205
 30
0.0
 11
11.2416108313296
 21
9.642176370408204
 31
0.0
  0
LINE
  5
1B0
330
6C
100
AcDbEntity
  8
Hidden (ANSI)
 48
0.0003761741390917
100
AcDbLine
 10
11.24508982285585
 20
9.641676370408205
 30
0.0
 11
11.24508982285585
 21
9.642176370408204
 31
0.0
  0
LINE
  5
1B1
330
6C
100
AcDbEntity
  8
Hidden (ANSI)
 48
0.0003761741390917
100
AcDbLine
 10
10.74651757442477
 20
9.641676370408205
 30
0.0
 11
10.74651757442477
 21
9.642176370408204
 31
0.0
  0
LINE
  5
1B2
330
6C
100
AcDbEntity
  8
Hidden (ANSI)
 48
0.0003761741390917
100
AcDbLine
 10
10.74296295264796
 20
9.641676370408205
 30
0.0
 11
10.74296295264796
 21
9.642176370408204
 31
0.0
  0
LINE
  5
1B3
330
6C
100
AcDbEntity
  8
Hidden (ANSI)
 48
0.0003761741390917
100
AcDbLine
 10
10.75234110371871
 20
9.641676370408205
 30
0.0
 11
10.75234110371871
 21
9.642176370408204
 31
0.0
  0
LINE
  5
1B4
330
6C
100
AcDbEntity
  8
Hidden (ANSI)
 48
0.0003761741390917
100
AcDbLine
 10
10.72768564203269
 20
9.641676370408205
 30
0.0
 11
10.72768564203269
 21
9.642176370408204
 31
0.0
  0
LINE
  5
1B5
330
6C
100
AcDbEntity
  8
Hidden (ANSI)
 48
0.0003761741390917
100
AcDbLine
 10
10.75914782627006
 20
9.641676370408205
 30
0.0
 11
10.75914782627006
 21
9.642176370408204
 31
0.0
  0
LINE
  5
1B6
330
6C
100
AcDbEntity
  8
Hidden (ANSI)
 48
0.0003761741390917
100
AcDbLine
 10
10.78864362399259
 20
9.641676370408205
 30
0.0
 11
10.78864362399259
 21
9.642176370408204
 31
0.0
  0
LINE
  5
1B7
330
6C
100
AcDbEntity
  8
Hidden (ANSI)
 48
0.0003761741390917
100
AcDbLine
 10
10.74455118790994
 20
9.641676370408205
 30
0.0
 11
10.74455118790994
 21
9.642176370408204
 31
0.0
  0
LINE
  5
1B8
330
6C
100
AcDbEntity
  8
Hidden (ANSI)
 48
0.0003761741390917
100
AcDbLine
 10
10.74273606189624
 20
9.641676370408205
 30
0.0
 11
10.74273606189624
 21
9.642176370408204
 31
0.0
  0
SPLINE
  5
1B9
330
6C
100
AcDbEntity
  8
Hidden (ANSI)
 48
0.048848457634449
100
AcDbSpline
210
0.0
220
0.0
230
1.0
 70
    24
 71
     3
 72
    14
 73
    10
 74
     0
 42
0.0000000001
 43
0.0000000001
 40
-0.1378957268157133
 40
-0.1378957268157133
 40
-0.1378957268157133
 40
-0.1378957268157133
 40
-0.0984530895646689
 40
-0.0984530895646689
 40
-0.0651975043732594
 40
-0.0651975043732594
 40
-0.0347962342179426
 40
-0.0347962342179426
 40
0.0
 40
0.0
 40
0.0
 40
0.0
 10
10.9641563435002
 20
9.641676370408205
 30
0.0
 10
10.95952465404826
 20
9.641676370408205
 30
0.0
 10
10.95498360278222
 20
9.641676370408205
 30
0.0
 10
10.94711919015372
 20
9.641676370408205
 30
0.0
 10
10.9437791859746
 20
9.641676370408205
 30
0.0
 10
10.93793183758789
 20
9.641676370408205
 30
0.0
 10
10.93573712585284
 20
9.641676370408205
 30
0.0
 10
10.93247827904391
 20
9.641676370408205
 30
0.0
 10
10.93175286925235
 20
9.641676370408205
 30
0.0
 10
10.93175286925235
 20
9.641676370408205
 30
0.0
  0
SPLINE
  5
1BA
330
6C
100
AcDbEntity
  8
Hidden (ANSI)
 48
0.0143018215894699
100
AcDbSpline
210
0.0
220
0.0
230
1.0
 70
    24
 71
     3
 72
    10
 73
     6
 74
     0
 42
0.0000000001
 43
0.0000000001
 40
-0.0387163167354462
 40
-0.0387163167354462
 40
-0.0387163167354462
 40
-0.0387163167354462
 40
-0.0346256006316818
 40
-0.0346256006316818
 40
0.0
 40
0.0
 40
0.0
 40
0.0
 10
10.97882741153862
 20
9.641676370408205
 30
0.0
 10
10.97834681678218
 20
9.641676370408205
 30
0.0
 10
10.97785836131792
 20
9.641676370408205
 30
0.0
 10
10.97316008777688
 20
9.641676370408205
 30
0.0
 10
10.96870038557785
 20
9.641676370408205
 30
0.0
 10
10.9641563435002
 20
9.641676370408205
 30
0.0
  0
LINE
  5
1BB
330
6C
100
AcDbEntity
  8
Hidden (ANSI)
 48
0.0003761741390917
100
AcDbLine
 10
10.93683491548157
 20
9.641676370408205
 30
0.0
 11
10.93683491548157
 21
9.642176370408204
 31
0.0
  0
LINE
  5
1BC
330
6C
100
AcDbEntity
  8
Hidden (ANSI)
 48
0.0003761741390917
100
AcDbLine
 10
10.93175286925235
 20
9.641676370408205
 30
0.0
 11
10.93175286925235
 21
9.642176370408204
 31
0.0
  0
LINE
  5
1BD
330
6C
100
AcDbEntity
  8
Hidden Narrow (ANSI)
 48
0.0003761741390917
100
AcDbLine
 10
10.9641563435002
 20
9.641676370408205
 30
0.0
 11
10.9641563435002
 21
9.642176370408204
 31
0.0
  0
LINE
  5
1BE
330
6C
100
AcDbEntity
  8
Hidden (ANSI)
 48
0.0003761741390917
100
AcDbLine
 10
10.99152120781138
 20
9.641676370408205
 30
0.0
 11
10.99152120781138
 21
9.642176370408204
 31
0.0
  0
LINE
  5
1BF
330
6C
100
AcDbEntity
  8
Hidden (ANSI)
 48
0.0003761741390917
100
AcDbLine
 10
10.9966032540406
 20
9.641676370408205
 30
0.0
 11
10.9966032540406
 21
9.642176370408204
 31
0.0
  0
LINE
  5
1C0
330
6C
100
AcDbEntity
  8
Hidden (ANSI)
 48
0.0713501274585724
100
AcDbLine
 10
10.63366883460489
 20
9.641676370408205
 30
0.0
 11
10.55864362603886
 21
9.641676370408205
 31
0.0
  0
LINE
  5
1C1
330
6C
100
AcDbEntity
  8
Hidden (ANSI)
 48
0.0195985119789839
100
AcDbLine
 10
10.64962681747529
 20
9.641676370408205
 30
0.0
 11
10.63366883460489
 21
9.641676370408205
 31
0.0
  0
LINE
  5
1C2
330
6C
100
AcDbEntity
  8
Hidden (ANSI)
 48
0.0003761741390917
100
AcDbLine
 10
10.64478648143877
 20
9.641676370408205
 30
0.0
 11
10.64478648143877
 21
9.642176370408204
 31
0.0
  0
LINE
  5
1C3
330
6C
100
AcDbEntity
  8
Hidden (ANSI)
 48
0.0003761741390917
100
AcDbLine
 10
10.63177807834063
 20
9.641676370408205
 30
0.0
 11
10.63177807834063
 21
9.642176370408204
 31
0.0
  0
LINE
  5
1C4
330
6C
100
AcDbEntity
  8
Hidden (ANSI)
 48
0.0003761741390917
100
AcDbLine
 10
10.55864362603886
 20
9.641676370408205
 30
0.0
 11
10.55864362603886
 21
9.642176370408204
 31
0.0
  0
LINE
  5
1C5
330
6C
100
AcDbEntity
  8
Hidden (ANSI)
 48
0.0003761741390917
100
AcDbLine
 10
10.63366883460489
 20
9.641676370408205
 30
0.0
 11
10.63366883460489
 21
9.642176370408204
 31
0.0
  0
LINE
  5
1C6
330
6C
100
AcDbEntity
  8
Hidden (ANSI)
 48
0.0003761741390917
100
AcDbLine
 10
10.64962681747529
 20
9.641676370408205
 30
0.0
 11
10.64962681747529
 21
9.642176370408204
 31
0.0
  0
LINE
  5
1C7
330
6C
100
AcDbEntity
  8
Hidden (ANSI)
 48
0.0003761741390917
100
AcDbLine
 10
10.58670244900055
 20
9.641676370408205
 30
0.0
 11
10.58670244900055
 21
9.642176370408204
 31
0.0
  0
LINE
  5
1C8
330
6C
100
AcDbEntity
  8
Hidden (ANSI)
 48
0.0003761741390917
100
AcDbLine
 10
10.60364362512837
 20
9.641676370408205
 30
0.0
 11
10.60364362512837
 21
9.642176370408204
 31
0.0
  0
LINE
  5
1C9
330
6C
100
AcDbEntity
  8
Hidden (ANSI)
 48
0.0003761741390917
100
AcDbLine
 10
10.62058480125618
 20
9.641676370408205
 30
0.0
 11
10.62058480125618
 21
9.642176370408204
 31
0.0
  0
LINE
  5
1CA
330
6C
100
AcDbEntity
  8
Hidden (ANSI)
 48
0.0003761741390917
100
AcDbLine
 10
10.63268564134747
 20
9.641676370408205
 30
0.0
 11
10.63268564134747
 21
9.642176370408204
 31
0.0
  0
LINE
  5
1CB
330
6C
100
AcDbEntity
  8
Hidden (ANSI)
 48
0.0003761741390917
100
AcDbLine
 10
10.59161841528764
 20
9.641676370408205
 30
0.0
 11
10.59161841528764
 21
9.642176370408204
 31
0.0
  0
LINE
  5
1CC
330
6C
100
AcDbEntity
  8
Hidden (ANSI)
 48
0.0003761741390917
100
AcDbLine
 10
10.61582009547023
 20
9.641676370408205
 30
0.0
 11
10.61582009547023
 21
9.642176370408204
 31
0.0
  0
LINE
  5
1CD
330
6C
100
AcDbEntity
  8
Hidden (ANSI)
 48
0.0003761741390917
100
AcDbLine
 10
10.71611421369539
 20
9.641676370408205
 30
0.0
 11
10.71611421369539
 21
9.642176370408204
 31
0.0
  0
LINE
  5
1CE
330
6C
100
AcDbEntity
  8
Hidden (ANSI)
 48
0.0003761741390917
100
AcDbLine
 10
10.60455118813521
 20
9.641676370408205
 30
0.0
 11
10.60455118813521
 21
9.642176370408204
 31
0.0
  0
LINE
  5
1CF
330
6C
100
AcDbEntity
  8
Hidden (ANSI)
 48
0.0003761741390917
100
AcDbLine
 10
10.60273606212152
 20
9.641676370408205
 30
0.0
 11
10.60273606212152
 21
9.642176370408204
 31
0.0
  0
LINE
  5
1D0
330
6C
100
AcDbEntity
  8
Hidden (ANSI)
 48
0.0003761741390917
100
AcDbLine
 10
10.58768564225797
 20
9.641676370408205
 30
0.0
 11
10.58768564225797
 21
9.642176370408204
 31
0.0
  0
LINE
  5
1D1
330
6C
100
AcDbEntity
  8
Hidden (ANSI)
 48
0.0003761741390917
100
AcDbLine
 10
10.60651757465005
 20
9.641676370408205
 30
0.0
 11
10.60651757465005
 21
9.642176370408204
 31
0.0
  0
LINE
  5
1D2
330
6C
100
AcDbEntity
  8
Hidden (ANSI)
 48
0.0003761741390917
100
AcDbLine
 10
10.61234110394398
 20
9.641676370408205
 30
0.0
 11
10.61234110394398
 21
9.642176370408204
 31
0.0
  0
LINE
  5
1D3
330
6C
100
AcDbEntity
  8
Hidden (ANSI)
 48
0.0003761741390917
100
AcDbLine
 10
10.60296295287323
 20
9.641676370408205
 30
0.0
 11
10.60296295287323
 21
9.642176370408204
 31
0.0
  0
LINE
  5
1D4
330
6C
100
AcDbEntity
  8
Hidden (ANSI)
 48
0.0003761741390917
100
AcDbLine
 10
10.74031589387798
 20
9.641676370408205
 30
0.0
 11
10.74031589387798
 21
9.642176370408204
 31
0.0
  0
LINE
  5
1D5
330
6C
100
AcDbEntity
  8
Hidden (ANSI)
 48
0.0003761741390917
100
AcDbLine
 10
10.72579488576843
 20
9.641676370408205
 30
0.0
 11
10.72579488576843
 21
9.642176370408204
 31
0.0
  0
LINE
  5
1D6
330
6C
100
AcDbEntity
  8
Hidden (ANSI)
 48
0.0003761741390917
100
AcDbLine
 10
10.73782009560915
 20
9.641676370408205
 30
0.0
 11
10.73782009560915
 21
9.642176370408204
 31
0.0
  0
LINE
  5
1D7
330
6C
100
AcDbEntity
  8
Hidden (ANSI)
 48
0.0003761741390917
100
AcDbLine
 10
10.75967723802405
 20
9.641676370408205
 30
0.0
 11
10.75967723802405
 21
9.642176370408204
 31
0.0
  0
LINE
  5
1D8
330
6C
100
AcDbEntity
  8
Hidden (ANSI)
 48
0.0003761741390917
100
AcDbLine
 10
10.73260160831978
 20
9.641676370408205
 30
0.0
 11
10.73260160831978
 21
9.642176370408204
 31
0.0
  0
LINE
  5
1D9
330
6C
100
AcDbEntity
  8
Hidden (ANSI)
 48
0.0003761741390917
100
AcDbLine
 10
10.70008060057443
 20
9.641676370408205
 30
0.0
 11
10.70008060057443
 21
9.642176370408204
 31
0.0
  0
LINE
  5
1DA
330
6C
100
AcDbEntity
  8
Hidden (ANSI)
 48
0.0003761741390917
100
AcDbLine
 10
10.69773606280674
 20
9.641676370408205
 30
0.0
 11
10.69773606280674
 21
9.642176370408204
 31
0.0
  0
LINE
  5
1DB
330
6C
100
AcDbEntity
  8
Hidden (ANSI)
 48
0.0003761741390917
100
AcDbLine
 10
10.78720664923175
 20
9.641676370408205
 30
0.0
 11
10.78720664923175
 21
9.642176370408204
 31
0.0
  0
LINE
  5
1DC
330
6C
100
AcDbEntity
  8
Hidden (ANSI)
 48
0.0008865423151292
100
AcDbLine
 10
10.69864362581359
 20
9.641676370408205
 30
0.0
 11
10.69773606280674
 21
9.641676370408205
 31
0.0
  0
LINE
  5
1DD
330
6C
100
AcDbEntity
  8
Hidden (ANSI)
 48
0.0003761741390917
100
AcDbLine
 10
10.57611421392067
 20
9.641676370408205
 30
0.0
 11
10.57611421392067
 21
9.642176370408204
 31
0.0
  0
LINE
  5
1DE
330
6C
100
AcDbEntity
  8
Hidden (ANSI)
 48
0.0083270817995071
100
AcDbLine
 10
10.65877807779433
 20
9.641676370408205
 30
0.0
 11
10.64992933847757
 21
9.641676370408205
 31
0.0
  0
LINE
  5
1DF
330
6C
100
AcDbEntity
  8
Hidden (ANSI)
 48
0.004309518262744
100
AcDbLine
 10
10.66240832982172
 20
9.641676370408205
 30
0.0
 11
10.65877807779433
 21
9.641676370408205
 31
0.0
  0
LINE
  5
1E0
330
6C
100
AcDbEntity
  8
Hidden (ANSI)
 48
0.0200041253119707
100
AcDbLine
 10
10.6786688336944
 20
9.641676370408205
 30
0.0
 11
10.66240832982172
 21
9.641676370408205
 31
0.0
  0
LINE
  5
1E1
330
6C
100
AcDbEntity
  8
Hidden (ANSI)
 48
0.0003761741390917
100
AcDbLine
 10
10.66059320380802
 20
9.641676370408205
 30
0.0
 11
10.66059320380802
 21
9.642176370408204
 31
0.0
  0
LINE
  5
1E2
330
6C
100
AcDbEntity
  8
Hidden (ANSI)
 48
0.0003761741390917
100
AcDbLine
 10
10.67375286740731
 20
9.641676370408205
 30
0.0
 11
10.67375286740731
 21
9.642176370408204
 31
0.0
  0
LINE
  5
1E3
330
6C
100
AcDbEntity
  8
Hidden (ANSI)
 48
0.0003761741390917
100
AcDbLine
 10
10.65877807779433
 20
9.641676370408205
 30
0.0
 11
10.65877807779433
 21
9.642176370408204
 31
0.0
  0
LINE
  5
1E4
330
6C
100
AcDbEntity
  8
Hidden (ANSI)
 48
0.0003761741390917
100
AcDbLine
 10
10.66240832982172
 20
9.641676370408205
 30
0.0
 11
10.66240832982172
 21
9.642176370408204
 31
0.0
  0
LINE
  5
1E5
330
6C
100
AcDbEntity
  8
Hidden (ANSI)
 48
0.0003761741390917
100
AcDbLine
 10
10.6786688336944
 20
9.641676370408205
 30
0.0
 11
10.6786688336944
 21
9.642176370408204
 31
0.0
  0
LINE
  5
1E6
330
6C
100
AcDbEntity
  8
Hidden (ANSI)
 48
0.0003761741390917
100
AcDbLine
 10
10.66263522057343
 20
9.641676370408205
 30
0.0
 11
10.66263522057343
 21
9.642176370408204
 31
0.0
  0
LINE
  5
1E7
330
6C
100
AcDbEntity
  8
Hidden (ANSI)
 48
0.0003761741390917
100
AcDbLine
 10
10.71739992795509
 20
9.641676370408205
 30
0.0
 11
10.71739992795509
 21
9.642176370408204
 31
0.0
  0
LINE
  5
1E8
330
6C
100
AcDbEntity
  8
Hidden (ANSI)
 48
0.0003761741390917
100
AcDbLine
 10
10.71392093642884
 20
9.641676370408205
 30
0.0
 11
10.71392093642884
 21
9.642176370408204
 31
0.0
  0
LINE
  5
1E9
330
6C
100
AcDbEntity
  8
Hidden (ANSI)
 48
0.0003761741390917
100
AcDbLine
 10
10.71369404567713
 20
9.641676370408205
 30
0.0
 11
10.71369404567713
 21
9.642176370408204
 31
0.0
  0
LINE
  5
1EA
330
6C
100
AcDbEntity
  8
Hidden (ANSI)
 48
0.0003761741390917
100
AcDbLine
 10
10.74122345688483
 20
9.641676370408205
 30
0.0
 11
10.74122345688483
 21
9.642176370408204
 31
0.0
  0
LINE
  5
1EB
330
6C
100
AcDbEntity
  8
Hidden (ANSI)
 48
0.0003761741390917
100
AcDbLine
 10
10.74613942317192
 20
9.641676370408205
 30
0.0
 11
10.74613942317192
 21
9.642176370408204
 31
0.0
  0
LINE
  5
1EC
330
6C
100
AcDbEntity
  8
Hidden (ANSI)
 48
0.0003761741390917
100
AcDbLine
 10
10.70257639884325
 20
9.641676370408205
 30
0.0
 11
10.70257639884325
 21
9.642176370408204
 31
0.0
  0
LINE
  5
1ED
330
6C
100
AcDbEntity
  8
Hidden (ANSI)
 48
0.0003761741390917
100
AcDbLine
 10
10.7155848019414
 20
9.641676370408205
 30
0.0
 11
10.7155848019414
 21
9.642176370408204
 31
0.0
  0
LINE
  5
1EE
330
6C
100
AcDbEntity
  8
Hidden (ANSI)
 48
0.0077508711256087
100
AcDbLine
 10
10.79877807756905
 20
9.641676370408205
 30
0.0
 11
10.79053438025686
 21
9.641676370408205
 31
0.0
  0
LINE
  5
1EF
330
6C
100
AcDbEntity
  8
Hidden (ANSI)
 48
0.004309518262744
100
AcDbLine
 10
10.80240832959644
 20
9.641676370408205
 30
0.0
 11
10.79877807756905
 21
9.641676370408205
 31
0.0
  0
LINE
  5
1F0
330
6C
100
AcDbEntity
  8
Hidden (ANSI)
 48
0.0200041253119707
100
AcDbLine
 10
10.81866883346912
 20
9.641676370408205
 30
0.0
 11
10.80240832959644
 21
9.641676370408205
 31
0.0
  0
LINE
  5
1F1
330
6C
100
AcDbEntity
  8
Hidden (ANSI)
 48
0.0003761741390917
100
AcDbLine
 10
10.80059320358275
 20
9.641676370408205
 30
0.0
 11
10.80059320358275
 21
9.642176370408204
 31
0.0
  0
LINE
  5
1F2
330
6C
100
AcDbEntity
  8
Hidden (ANSI)
 48
0.0003761741390917
100
AcDbLine
 10
10.81375286718203
 20
9.641676370408205
 30
0.0
 11
10.81375286718203
 21
9.642176370408204
 31
0.0
  0
LINE
  5
1F3
330
6C
100
AcDbEntity
  8
Hidden (ANSI)
 48
0.0003761741390917
100
AcDbLine
 10
10.79877807756905
 20
9.641676370408205
 30
0.0
 11
10.79877807756905
 21
9.642176370408204
 31
0.0
  0
LINE
  5
1F4
330
6C
100
AcDbEntity
  8
Hidden (ANSI)
 48
0.0003761741390917
100
AcDbLine
 10
10.80240832959644
 20
9.641676370408205
 30
0.0
 11
10.80240832959644
 21
9.642176370408204
 31
0.0
  0
LINE
  5
1F5
330
6C
100
AcDbEntity
  8
Hidden (ANSI)
 48
0.0003761741390917
100
AcDbLine
 10
10.81866883346912
 20
9.641676370408205
 30
0.0
 11
10.81866883346912
 21
9.642176370408204
 31
0.0
  0
LINE
  5
1F6
330
6C
100
AcDbEntity
  8
Hidden (ANSI)
 48
0.0003761741390917
100
AcDbLine
 10
10.80263522034815
 20
9.641676370408205
 30
0.0
 11
10.80263522034815
 21
9.642176370408204
 31
0.0
  0
LINE
  5
1F7
330
6C
100
AcDbEntity
  8
Hidden (ANSI)
 48
0.0003761741390917
100
AcDbLine
 10
10.46056799218267
 20
9.641676370408205
 30
0.0
 11
10.46056799218267
 21
9.642176370408204
 31
0.0
  0
LINE
  5
1F8
330
6C
100
AcDbEntity
  8
Hidden (ANSI)
 48
0.0003761741390917
100
AcDbLine
 10
10.45829908466555
 20
9.641676370408205
 30
0.0
 11
10.45829908466555
 21
9.642176370408204
 31
0.0
  0
LINE
  5
1F9
330
6C
100
AcDbEntity
  8
Hidden (ANSI)
 48
0.0003761741390917
100
AcDbLine
 10
10.37109740575766
 20
9.641676370408205
 30
0.0
 11
10.37109740575766
 21
9.642176370408204
 31
0.0
  0
LINE
  5
1FA
330
6C
100
AcDbEntity
  8
Hidden (ANSI)
 48
0.0003761741390917
100
AcDbLine
 10
10.41034950580379
 20
9.641676370408205
 30
0.0
 11
10.41034950580379
 21
9.642176370408204
 31
0.0
  0
LINE
  5
1FB
330
6C
100
AcDbEntity
  8
Hidden (ANSI)
 48
0.0003761741390917
100
AcDbLine
 10
10.41904698461942
 20
9.641676370408205
 30
0.0
 11
10.41904698461942
 21
9.642176370408204
 31
0.0
  0
LINE
  5
1FC
330
6C
100
AcDbEntity
  8
Hidden (ANSI)
 48
0.0003761741390917
100
AcDbLine
 10
10.45822345441498
 20
9.641676370408205
 30
0.0
 11
10.45822345441498
 21
9.642176370408204
 31
0.0
  0
LINE
  5
1FD
330
6C
100
AcDbEntity
  8
Hidden (ANSI)
 48
0.0003761741390917
100
AcDbLine
 10
10.41466043008632
 20
9.641676370408205
 30
0.0
 11
10.41466043008632
 21
9.642176370408204
 31
0.0
  0
LINE
  5
1FE
330
6C
100
AcDbEntity
  8
Hidden (ANSI)
 48
0.0003761741390917
100
AcDbLine
 10
10.37117303600823
 20
9.641676370408205
 30
0.0
 11
10.37117303600823
 21
9.642176370408204
 31
0.0
  0
LINE
  5
1FF
330
6C
100
AcDbEntity
  8
Hidden (ANSI)
 48
0.0003761741390917
100
AcDbLine
 10
10.77124866636136
 20
9.641676370408205
 30
0.0
 11
10.77124866636136
 21
9.642176370408204
 31
0.0
  0
LINE
  5
200
330
6C
100
AcDbEntity
  8
Visible (ANSI)
100
AcDbLine
 10
10.30675286806884
 20
9.642176370408206
 30
0.0
 11
10.32719731251329
 21
9.642176370408206
 31
0.0
  0
LINE
  5
201
330
6C
100
AcDbEntity
  8
Visible (ANSI)
100
AcDbLine
 10
11.4113084236244
 20
9.642176370408206
 30
0.0
 11
11.43175286806884
 21
9.642176370408206
 31
0.0
  0
LINE
  5
202
330
6C
100
AcDbEntity
  8
Visible (ANSI)
100
AcDbLine
 10
11.43175286806884
 20
9.585176370408206
 30
0.0
 11
11.43175286806884
 21
9.642176370408206
 31
0.0
  0
LINE
  5
203
330
6C
100
AcDbEntity
  8
Visible (ANSI)
100
AcDbLine
 10
11.43175286806884
 20
9.585176370408206
 30
0.0
 11
11.4113084236244
 21
9.585176370408206
 31
0.0
  0
LINE
  5
204
330
6C
100
AcDbEntity
  8
Visible (ANSI)
100
AcDbLine
 10
10.32719731251329
 20
9.585176370408206
 30
0.0
 11
10.30675286806884
 21
9.585176370408206
 31
0.0
  0
LINE
  5
205
330
6C
100
AcDbEntity
  8
Visible (ANSI)
100
AcDbLine
 10
10.30675286806884
 20
9.642176370408206
 30
0.0
 11
10.30675286806884
 21
9.585176370408206
 31
0.0
  0
ELLIPSE
  5
206
330
6C
100
AcDbEntity
  8
Visible (ANSI)
100
AcDbEllipse
 10
10.93175286806885
 20
10.58828503294546
 30
0.0
 11
0.4999999999999912
 21
0.0000000000000539
 31
0.0
210
0.0
220
0.0
230
1.0
 40
0.9510565162951438
 41
6.075958949543613
 42
6.283185307179804
  0
ELLIPSE
  5
207
330
6C
100
AcDbEntity
  8
Visible (ANSI)
100
AcDbEllipse
 10
10.80675286806886
 20
10.58828503294559
 30
0.0
 11
-0.5000000000000111
 21
-0.0000000000006979
 31
0.0
210
0.0
220
0.0
230
1.0
 40
0.9510565162951694
 41
0.0
 42
0.2072263576348652
  0
LINE
  5
208
330
6C
100
AcDbEntity
  8
Visible Narrow (ANSI)
100
AcDbLine
 10
11.41130842362439
 20
9.642176370408206
 30
0.0
 11
11.41130842362439
 21
9.585176370408206
 31
0.0
  0
LINE
  5
209
330
6C
100
AcDbEntity
  8
Visible Narrow (ANSI)
100
AcDbLine
 10
10.32719731251329
 20
9.585176370408206
 30
0.0
 11
10.32719731251329
 21
9.642176370408206
 31
0.0
  0
ELLIPSE
  5
20A
330
6C
100
AcDbEntity
  8
Hidden (ANSI)
 48
0.0985758379101753
100
AcDbEllipse
 10
10.80675286806886
 20
10.60589900162496
 30
0.0
 11
-0.5000000000000137
 21
-0.0000000000000675
 31
0.0
210
0.0
220
0.0
230
1.0
 40
0.9510565162951692
 41
0.0000000000002693
 42
0.2072263576364422
  0
ELLIPSE
  5
20B
330
6C
100
AcDbEntity
  8
Hidden (ANSI)
 48
0.0985758379101753
100
AcDbEllipse
 10
10.93175286806887
 20
10.60589900162483
 30
0.0
 11
0.4999999999999759
 21
0.0000000000005363
 31
0.0
210
0.0
220
0.0
230
1.0
 40
0.9510565162951444
 41
6.075958949542382
 42
6.28318530717857
  0
LINE
  5
20C
330
6C
100
AcDbEntity
  8
Hidden Narrow (ANSI)
 48
0.0238328035920859
100
AcDbLine
 10
10.317450195492
 20
10.49821249996512
 30
0.0
 11
10.317450195492
 21
10.49044680882621
 31
0.0
  0
LINE
  5
20D
330
6C
100
AcDbEntity
  8
Hidden Narrow (ANSI)
 48
0.0302510503679514
100
AcDbLine
 10
10.317450195492
 20
10.50806077750559
 30
0.0
 11
10.317450195492
 21
10.49821249996512
 31
0.0
  0
LINE
  5
20E
330
6C
100
AcDbEntity
  8
Hidden Narrow (ANSI)
 48
0.0302510503679514
100
AcDbLine
 10
11.42105554064569
 20
10.49821249996552
 30
0.0
 11
11.42105554064569
 21
10.50806077750559
 31
0.0
  0
LINE
  5
20F
330
6C
100
AcDbEntity
  8
Hidden Narrow (ANSI)
 48
0.0238328035920859
100
AcDbLine
 10
11.42105554064569
 20
10.49044680882621
 30
0.0
 11
11.42105554064569
 21
10.49821249996552
 31
0.0
  0
LINE
  5
210
330
6C
100
AcDbEntity
  8
Visible (ANSI)
100
AcDbLine
 10
10.32719731251329
 20
9.642176370408206
 30
0.0
 11
10.35275286806886
 21
9.642176370408206
 31
0.0
  0
LINE
  5
211
330
6C
100
AcDbEntity
  8
Visible (ANSI)
100
AcDbLine
 10
11.38575286806883
 20
9.642176370408206
 30
0.0
 11
11.4113084236244
 21
9.642176370408206
 31
0.0
  0
LINE
  5
212
330
6C
100
AcDbEntity
  8
Visible (ANSI)
100
AcDbLine
 10
11.41130842362439
 20
9.585176370408206
 30
0.0
 11
11.38575286806883
 21
9.585176370408206
 31
0.0
  0
LINE
  5
213
330
6C
100
AcDbEntity
  8
Visible (ANSI)
100
AcDbLine
 10
10.35275286806886
 20
9.585176370408206
 30
0.0
 11
10.32719731251329
 21
9.585176370408206
 31
0.0
  0
LINE
  5
214
330
6C
100
AcDbEntity
  8
Visible (ANSI)
100
AcDbLine
 10
11.38575286806885
 20
9.854681315445514
 30
0.0
 11
11.38575286806885
 21
10.28367408000491
 31
0.0
  0
LINE
  5
215
330
6C
100
AcDbEntity
  8
Visible (ANSI)
100
AcDbLine
 10
10.35275286806884
 20
10.28367408000491
 30
0.0
 11
10.35275286806884
 21
9.854681315445514
 31
0.0
  0
LINE
  5
216
330
6C
100
AcDbEntity
  8
Hidden (ANSI)
 48
0.1764699965715408
100
AcDbLine
 10
10.35275286806884
 20
9.642176370408206
 30
0.0
 11
10.53815771558243
 21
9.642176370408206
 31
0.0
  0
LINE
  5
217
330
6C
100
AcDbEntity
  8
Hidden (ANSI)
 48
0.1764699965715408
100
AcDbLine
 10
11.20034802055525
 20
9.642176370408206
 30
0.0
 11
11.38575286806885
 21
9.642176370408206
 31
0.0
  0
LINE
  5
218
330
6C
100
AcDbEntity
  8
Hidden Narrow (ANSI)
 48
0.1764699965715408
100
AcDbLine
 10
10.53815771558243
 20
9.848723193039258
 30
0.0
 11
10.35275286806884
 21
9.848723193039258
 31
0.0
  0
LINE
  5
219
330
6C
100
AcDbEntity
  8
Hidden Narrow (ANSI)
 48
0.1764699965715408
100
AcDbLine
 10
11.38575286806885
 20
9.848723193039258
 30
0.0
 11
11.20034802055525
 21
9.848723193039258
 31
0.0
  0
LINE
  5
21A
330
6C
100
AcDbEntity
  8
Visible (ANSI)
100
AcDbLine
 10
11.38575286806885
 20
9.585176370408206
 30
0.0
 11
11.19683186617464
 21
9.585176370408206
 31
0.0
  0
LINE
  5
21B
330
6C
100
AcDbEntity
  8
Visible (ANSI)
100
AcDbLine
 10
10.54167386996304
 20
9.585176370408206
 30
0.0
 11
10.35275286806884
 21
9.585176370408206
 31
0.0
  0
LINE
  5
21D
330
6C
100
AcDbEntity
  8
Visible (ANSI)
100
AcDbLine
 10
11.38575286806884
 20
9.854681315445514
 30
0.0
 11
11.38575286806884
 21
9.585176370408206
 31
0.0
  0
LINE
  5
21F
330
6C
100
AcDbEntity
  8
Visible (ANSI)
100
AcDbLine
 10
10.35275286806884
 20
9.585176370408206
 30
0.0
 11
10.35275286806885
 21
9.854681315445514
 31
0.0
  0
LINE
  5
220
330
6C
100
AcDbEntity
  8
Hidden (ANSI)
 48
1.258062481880187
100
AcDbLine
 10
11.20034802055525
 20
9.642176370408206
 30
0.0
 11
10.53815771558243
 21
9.642176370408206
 31
0.0
  0
LINE
  5
221
330
6C
100
AcDbEntity
  8
Hidden Narrow (ANSI)
 48
0.8447699546813964
100
AcDbLine
 10
10.64692747658322
 20
9.578772953851045
 30
0.0
 11
11.09157825955446
 21
9.578772953851045
 31
0.0
  0
ARC
  5
222
330
6C
100
AcDbEntity
  8
Hidden (ANSI)
 48
0.1255531907081604
100
AcDbCircle
 10
11.20034802055525
 20
9.517176370408206
 30
0.0
 40
0.1250000000000011
100
AcDbArc
 50
90.0
 51
150.4770155424432
  0
LINE
  5
223
330
6C
100
AcDbEntity
  8
Hidden Narrow (ANSI)
 48
0.3994624316692352
100
AcDbLine
 10
11.09157825955446
 20
9.855350654737897
 30
0.0
 11
11.09157825955446
 21
9.578772953851045
 31
0.0
  0
ELLIPSE
  5
224
330
6C
100
AcDbEntity
  8
Hidden Narrow (ANSI)
 48
0.1255531907081604
100
AcDbEllipse
 10
11.20034802055525
 20
9.861789250947714
 30
0.0
 11
0.1249999999999975
 21
0.0000000000000012
 31
0.0
210
0.0
220
0.0
230
1.0
 40
0.1045284632676511
 41
3.65686593737505
 42
4.712388980377616
  0
LINE
  5
225
330
6C
100
AcDbEntity
  8
Hidden Narrow (ANSI)
 48
0.2982912063598633
100
AcDbLine
 10
11.20034802055525
 20
9.642176370408206
 30
0.0
 11
11.20034802055525
 21
9.848723193039258
 31
0.0
  0
ELLIPSE
  5
226
330
6C
100
AcDbEntity
  8
Hidden Narrow (ANSI)
 48
0.1255531907081604
100
AcDbEllipse
 10
11.20034802055525
 20
10.22598736495719
 30
0.0
 11
0.1250000000000045
 21
0.0000000000000012
 31
0.0
210
0.0
220
0.0
230
1.0
 40
0.1045284632676538
 41
3.656865937375131
 42
4.712388980377639
  0
LINE
  5
227
330
6C
100
AcDbEntity
  8
Hidden Narrow (ANSI)
 48
0.3486539721488953
100
AcDbLine
 10
11.20034802055525
 20
10.21292130704874
 30
0.0
 11
11.20034802055525
 21
9.848723193039258
 31
0.0
  0
LINE
  5
228
330
6C
100
AcDbEntity
  8
Hidden Narrow (ANSI)
 48
0.3486539721488953
100
AcDbLine
 10
11.09157825955446
 20
9.855350654737897
 30
0.0
 11
11.09157825955446
 21
10.21954876874738
 31
0.0
  0
ELLIPSE
  5
229
330
6C
100
AcDbEntity
  8
Hidden Narrow (ANSI)
 48
0.1255531907081604
100
AcDbEllipse
 10
11.19387460878229
 20
10.29078201550712
 30
0.0
 11
0.1225298577181776
 21
0.0247271908546658
 31
0.0
210
0.0
220
0.0
230
1.0
 40
0.1024847734713978
 41
3.636186901514436
 42
4.691709944517411
  0
ELLIPSE
  5
22A
330
6C
100
AcDbEntity
  8
Hidden Narrow (ANSI)
 48
0.0623545348644257
100
AcDbEllipse
 10
10.86925286806884
 20
10.21292130705982
 30
0.0
 11
0.331095152486413
 21
0.0000000000021057
 31
0.0
210
0.0
220
0.0
230
1.0
 40
0.9945218953682793
 41
0.0
 42
0.1980684697510009
  0
ELLIPSE
  5
22B
330
6C
100
AcDbEntity
  8
Hidden Narrow (ANSI)
 48
0.0418372750282288
100
AcDbEllipse
 10
10.86925286806884
 20
10.21954876875847
 30
0.0
 11
0.2223253914856157
 21
-0.0000000000110901
 31
0.0
210
0.0
220
0.0
230
1.0
 40
0.99452189536828
 41
0.0000000000012657
 42
0.198068469808785
  0
ELLIPSE
  5
22C
330
6C
100
AcDbEntity
  8
Hidden Narrow (ANSI)
 48
0.1528152674436569
100
AcDbEllipse
 10
11.05953966275416
 20
10.46943365185318
 30
0.0
 11
0.0627947097520633
 21
0.1080824889940703
 31
0.0
210
0.0
220
0.0
230
1.0
 40
0.1610940184522608
 41
1.300315709043255
 42
2.584848014474129
  0
SPLINE
  5
22D
330
6C
100
AcDbEntity
  8
Hidden Narrow (ANSI)
 48
0.2623125314712524
100
AcDbSpline
210
0.0
220
0.0
230
1.0
 70
     8
 71
     3
 72
    12
 73
     8
 74
     0
 42
0.0000000001
 43
0.0000000001
 40
-0.5856974351447204
 40
-0.5856974351447204
 40
-0.5856974351447204
 40
-0.5856974351447204
 40
-0.4571204279967925
 40
-0.4571204279967925
 40
-0.1866766118677866
 40
-0.1866766118677866
 40
0.0
 40
0.0
 40
0.0
 40
0.0
 10
11.05953966275416
 20
10.50806077575783
 30
0.0
 10
11.07403755990277
 20
10.49720041673652
 30
0.0
 10
11.08785743810156
 20
10.48491207958481
 30
0.0
 10
11.12784085212627
 20
10.44262014243066
 30
0.0
 10
11.15159778955994
 20
10.40678393234672
 30
0.0
 10
11.18028186583798
 20
10.33895460127545
 30
0.0
 10
11.18905394415034
 20
10.30851558877084
 30
0.0
 10
11.19387460878229
 20
10.27771595759866
 30
0.0
  0
SPLINE
  5
22E
330
6C
100
AcDbEntity
  8
Hidden Narrow (ANSI)
 48
0.1481563895940781
100
AcDbSpline
210
0.0
220
0.0
230
1.0
 70
     8
 71
     3
 72
    12
 73
     8
 74
     0
 42
0.0000000001
 43
0.0000000001
 40
0.0
 40
0.0
 40
0.0
 40
0.0
 40
0.1866766118677866
 40
0.1866766118677866
 40
0.4571204279967925
 40
0.4571204279967925
 40
0.5856974351447202
 40
0.5856974351447202
 40
0.5856974351447202
 40
0.5856974351447202
 10
11.08723146137314
 20
10.26305739743829
 30
0.0
 10
11.0839944579212
 20
10.27909761707871
 30
0.0
 10
11.07810413989543
 20
10.29495002918981
 30
0.0
 10
11.05884321613974
 20
10.33027504208894
 30
0.0
 10
11.04289079166062
 20
10.34893827469758
 30
0.0
 10
11.01604253336019
 20
10.37096360211721
 30
0.0
 10
11.00676320480656
 20
10.37736298025198
 30
0.0
 10
10.997027575144
 20
10.38301927151561
 30
0.0
  0
ELLIPSE
  5
22F
330
6C
100
AcDbEntity
  8
Hidden Narrow (ANSI)
 48
0.1528152674436569
100
AcDbEllipse
 10
10.67896607571667
 20
10.46943365320871
 30
0.0
 11
-0.0627947088068027
 21
0.1080824895432566
 31
0.0
210
0.0
220
0.0
230
1.0
 40
0.1610940187185057
 41
3.698337294114287
 42
4.982869595269189
  0
ELLIPSE
  5
230
330
6C
100
AcDbEntity
  8
Hidden Narrow (ANSI)
 48
0.3811627030372619
100
AcDbEllipse
 10
10.86925286806884
 20
10.21181403397263
 30
0.0
 11
0.3650157411782286
 21
-0.0000000000000391
 31
0.0
210
0.0
220
0.0
230
1.0
 40
0.9510565162951552
 41
1.022409591374916
 42
2.119183054724846
  0
ELLIPSE
  5
231
330
6C
100
AcDbEntity
  8
Hidden Narrow (ANSI)
 48
0.2559121549129486
100
AcDbEllipse
 10
10.86925286806884
 20
10.18409406093393
 30
0.0
 11
-0.2451025541945793
 21
-0.0000000000000218
 31
0.0
210
0.0
220
0.0
230
1.0
 40
0.9510565162951584
 41
4.164002244964519
 42
5.260775708314447
  0
SPLINE
  5
232
330
6C
100
AcDbEntity
  8
Hidden Narrow (ANSI)
 48
0.1481598317623138
100
AcDbSpline
210
0.0
220
0.0
230
1.0
 70
     8
 71
     3
 72
    12
 73
     8
 74
     0
 42
0.0000000001
 43
0.0000000001
 40
1.595285585102586
 40
1.595285585102586
 40
1.595285585102586
 40
1.595285585102586
 40
1.772267829645985
 40
1.772267829645985
 40
2.008724944320062
 40
2.008724944320062
 40
2.181161782998157
 40
2.181161782998157
 40
2.181161782998157
 40
2.181161782998157
 10
10.74147816256036
 20
10.38301927242583
 30
0.0
 10
10.72804755836495
 20
10.37521624269258
 30
0.0
 10
10.71546424639996
 20
10.3659782855865
 30
0.0
 10
10.68913954653595
 20
10.34137501766662
 30
0.0
 10
10.67604280178051
 20
10.32450823247595
 30
0.0
 10
10.65950814601245
 20
10.29252405277106
 30
0.0
 10
10.65426435818451
 20
10.27787406214428
 30
0.0
 10
10.65127427476454
 20
10.26305739743829
 30
0.0
  0
ELLIPSE
  5
233
330
6C
100
AcDbEntity
  8
Hidden Narrow (ANSI)
 48
0.1255531907081604
100
AcDbEllipse
 10
10.54463112735539
 20
10.29078201550712
 30
0.0
 11
-0.1225298577181775
 21
0.0247271908546657
 31
0.0
210
0.0
220
0.0
230
1.0
 40
0.1024847734713989
 41
1.591475362662208
 42
2.646998405665227
  0
SPLINE
  5
234
330
6C
100
AcDbEntity
  8
Hidden Narrow (ANSI)
 48
0.2623179256916046
100
AcDbSpline
210
0.0
220
0.0
230
1.0
 70
     8
 71
     3
 72
    12
 73
     8
 74
     0
 42
0.0000000001
 43
0.0000000001
 40
-2.181161782998157
 40
-2.181161782998157
 40
-2.181161782998157
 40
-2.181161782998157
 40
-2.008724944320062
 40
-2.008724944320062
 40
-1.772267829645985
 40
-1.772267829645985
 40
-1.595285585102587
 40
-1.595285585102587
 40
-1.595285585102587
 40
-1.595285585102587
 10
10.54463112735539
 20
10.27771595759866
 30
0.0
 10
10.5490840695914
 20
10.30616617950189
 30
0.0
 10
10.55689331134689
 20
10.33429636213627
 30
0.0
 10
10.58151732903671
 20
10.39571079163531
 30
0.0
 10
10.60102148316369
 20
10.42809755282553
 30
0.0
 10
10.64022519470285
 20
10.47533952298243
 30
0.0
 10
10.65896314263485
 20
10.49307660232603
 30
0.0
 10
10.67896607571667
 20
10.50806077750559
 30
0.0
  0
ELLIPSE
  5
235
330
6C
100
AcDbEntity
  8
Hidden Narrow (ANSI)
 48
0.1255531907081604
100
AcDbEllipse
 10
10.53815771558243
 20
10.22598736495176
 30
0.0
 11
-0.1250000000000002
 21
-0.0000000000063125
 31
0.0
210
0.0
220
0.0
230
1.0
 40
0.1045284632676543
 41
1.570796326796678
 42
2.626319369799311
  0
ELLIPSE
  5
236
330
6C
100
AcDbEntity
  8
Hidden Narrow (ANSI)
 48
0.0623545348644257
100
AcDbEllipse
 10
10.86925286806883
 20
10.21292130705985
 30
0.0
 11
-0.3310951524864024
 21
-0.0000000000165484
 31
0.0
210
0.0
220
0.0
230
1.0
 40
0.9945218953682712
 41
6.085116837370989
 42
6.283185307178515
  0
ELLIPSE
  5
237
330
6C
100
AcDbEntity
  8
Hidden Narrow (ANSI)
 48
0.0418372750282288
100
AcDbEllipse
 10
10.86925286806885
 20
10.21954876875847
 30
0.0
 11
-0.2223253914856254
 21
0.0000000000016203
 31
0.0
210
0.0
220
0.0
230
1.0
 40
0.99452189536828
 41
6.085116837429512
 42
6.283185307237072
  0
ELLIPSE
  5
238
330
6C
100
AcDbEntity
  8
Hidden Narrow (ANSI)
 48
0.1255531907081604
100
AcDbEllipse
 10
10.53815771558243
 20
9.861789250947715
 30
0.0
 11
-0.1250000000000032
 21
0.0000000000000015
 31
0.0
210
0.0
220
0.0
230
1.0
 40
0.1045284632676537
 41
1.57079632680198
 42
2.626319369804495
  0
LINE
  5
239
330
6C
100
AcDbEntity
  8
Hidden Narrow (ANSI)
 48
0.3486539721488953
100
AcDbLine
 10
10.53815771558243
 20
9.848723193039258
 30
0.0
 11
10.53815771558243
 21
10.2129213070433
 31
0.0
  0
LINE
  5
23A
330
6C
100
AcDbEntity
  8
Hidden Narrow (ANSI)
 48
0.3486539721488953
100
AcDbLine
 10
10.64692747658322
 20
10.21954876874738
 30
0.0
 11
10.64692747658322
 21
9.855350654737897
 31
0.0
  0
LINE
  5
23B
330
6C
100
AcDbEntity
  8
Hidden Narrow (ANSI)
 48
0.3994624316692352
100
AcDbLine
 10
10.64692747658322
 20
9.578772953851045
 30
0.0
 11
10.64692747658322
 21
9.855350654737897
 31
0.0
  0
ARC
  5
23C
330
6C
100
AcDbEntity
  8
Hidden (ANSI)
 48
0.1255531907081604
100
AcDbCircle
 10
10.53815771558243
 20
9.517176370408206
 30
0.0
 40
0.1249999999999994
100
AcDbArc
 50
29.5229844575571
 51
90.0
  0
LINE
  5
23D
330
6C
100
AcDbEntity
  8
Hidden Narrow (ANSI)
 48
0.2982912063598633
100
AcDbLine
 10
10.53815771558243
 20
9.848723193039258
 30
0.0
 11
10.53815771558243
 21
9.642176370408206
 31
0.0
  0
LINE
  5
23E
330
6C
100
AcDbEntity
  8
Hidden (ANSI)
 48
0.0006479726289399
100
AcDbLine
 10
11.26765276661079
 20
9.642676370408207
 30
0.0
 11
11.26715276661079
 21
9.642676370408207
 31
0.0
  0
LINE
  5
23F
330
6C
100
AcDbEntity
  8
Hidden (ANSI)
 48
0.0003761741390917
100
AcDbLine
 10
11.26715276661079
 20
9.642176370408204
 30
0.0
 11
11.26715276661079
 21
9.642676370408207
 31
0.0
  0
LINE
  5
240
330
6C
100
AcDbEntity
  8
Hidden (ANSI)
 48
0.0003761741390917
100
AcDbLine
 10
11.26765276661079
 20
9.642176370408204
 30
0.0
 11
11.26765276661079
 21
9.642676370408207
 31
0.0
  0
LINE
  5
241
330
6C
100
AcDbEntity
  8
Hidden (ANSI)
 48
0.0045764991082251
100
AcDbLine
 10
11.32972914679226
 20
9.637176370408207
 30
0.0
 11
11.32527872918597
 21
9.637176370408207
 31
0.0
  0
LINE
  5
242
330
6C
100
AcDbEntity
  8
Hidden (ANSI)
 48
0.0046617416664958
100
AcDbLine
 10
11.20960792536449
 20
9.637176370408207
 30
0.0
 11
11.20507638642931
 21
9.637176370408207
 31
0.0
  0
LINE
  5
243
330
6C
100
AcDbEntity
  8
Hidden (ANSI)
 48
0.1190929859876633
100
AcDbLine
 10
11.26250152719117
 20
9.637176370408207
 30
0.0
 11
11.20960792536449
 21
9.637176370408207
 31
0.0
  0
LINE
  5
244
330
6C
100
AcDbEntity
  8
Hidden (ANSI)
 48
0.0093294288963079
100
AcDbLine
 10
11.27240276661079
 20
9.637176370408207
 30
0.0
 11
11.26250152719117
 21
9.637176370408207
 31
0.0
  0
LINE
  5
245
330
6C
100
AcDbEntity
  8
Hidden (ANSI)
 48
0.1190532371401787
100
AcDbLine
 10
11.32527872918597
 20
9.637176370408207
 30
0.0
 11
11.27240276661079
 21
9.637176370408207
 31
0.0
  0
LINE
  5
246
330
6C
100
AcDbEntity
  8
Hidden (ANSI)
 48
0.0046617416664958
100
AcDbLine
 10
11.26250152719117
 20
9.642176370408204
 30
0.0
 11
11.26250152719117
 21
9.637176370408207
 31
0.0
  0
LINE
  5
247
330
6C
100
AcDbEntity
  8
Hidden (ANSI)
 48
0.0046617416664958
100
AcDbLine
 10
11.27240276661079
 20
9.642176370408204
 30
0.0
 11
11.27240276661079
 21
9.637176370408207
 31
0.0
  0
LINE
  5
248
330
6C
100
AcDbEntity
  8
Hidden (ANSI)
 48
0.0046617416664958
100
AcDbLine
 10
11.32527872918597
 20
9.642176370408204
 30
0.0
 11
11.32527872918597
 21
9.637176370408207
 31
0.0
  0
LINE
  5
249
330
6C
100
AcDbEntity
  8
Hidden (ANSI)
 48
0.0046617416664958
100
AcDbLine
 10
11.32972914679226
 20
9.642176370408204
 30
0.0
 11
11.32972914679226
 21
9.637176370408207
 31
0.0
  0
LINE
  5
24A
330
6C
100
AcDbEntity
  8
Hidden (ANSI)
 48
0.0046617416664958
100
AcDbLine
 10
11.26740276661079
 20
9.642176370408204
 30
0.0
 11
11.26740276661079
 21
9.637176370408207
 31
0.0
  0
LINE
  5
24B
330
6C
100
AcDbEntity
  8
Hidden (ANSI)
 48
0.0046617416664958
100
AcDbLine
 10
11.20507638642931
 20
9.642176370408204
 30
0.0
 11
11.20507638642931
 21
9.637176370408207
 31
0.0
  0
LINE
  5
24C
330
6C
100
AcDbEntity
  8
Hidden (ANSI)
 48
0.0046617416664958
100
AcDbLine
 10
11.20960792536449
 20
9.642176370408204
 30
0.0
 11
11.20960792536449
 21
9.637176370408207
 31
0.0
  0
LINE
  5
24D
330
6C
100
AcDbEntity
  8
Hidden (ANSI)
 48
0.0046617416664958
100
AcDbLine
 10
11.2040235952609
 20
9.642176370408204
 30
0.0
 11
11.2040235952609
 21
9.637176370408207
 31
0.0
  0
LINE
  5
24E
330
6C
100
AcDbEntity
  8
Hidden (ANSI)
 48
0.0046617416664958
100
AcDbLine
 10
11.33052966736307
 20
9.642176370408204
 30
0.0
 11
11.33052966736307
 21
9.637176370408207
 31
0.0
  0
LINE
  5
24F
330
6C
100
AcDbEntity
  8
Hidden (ANSI)
 48
0.0046617416664958
100
AcDbLine
 10
11.20867211234602
 20
9.642176370408204
 30
0.0
 11
11.20867211234602
 21
9.637176370408207
 31
0.0
  0
LINE
  5
250
330
6C
100
AcDbEntity
  8
Hidden (ANSI)
 48
0.0065650506876409
100
AcDbLine
 10
11.33672769014324
 20
9.637176370408207
 30
0.0
 11
11.32972914679226
 21
9.637176370408207
 31
0.0
  0
LINE
  5
251
330
6C
100
AcDbEntity
  8
Hidden (ANSI)
 48
0.0023782930802554
100
AcDbLine
 10
11.20507638642931
 20
9.637176370408207
 30
0.0
 11
11.20247408956586
 21
9.637176370408207
 31
0.0
  0
LINE
  5
252
330
6C
100
AcDbEntity
  8
Hidden (ANSI)
 48
0.0046617416664958
100
AcDbLine
 10
11.20535174299951
 20
9.642176370408204
 30
0.0
 11
11.20535174299951
 21
9.637176370408207
 31
0.0
  0
LINE
  5
253
330
6C
100
AcDbEntity
  8
Hidden (ANSI)
 48
0.0046617416664958
100
AcDbLine
 10
11.20247408956586
 20
9.642176370408204
 30
0.0
 11
11.20247408956586
 21
9.637176370408207
 31
0.0
  0
LINE
  5
254
330
6C
100
AcDbEntity
  8
Hidden (ANSI)
 48
0.0046617416664958
100
AcDbLine
 10
11.33672769014324
 20
9.642176370408204
 30
0.0
 11
11.33672769014324
 21
9.637176370408207
 31
0.0
  0
LINE
  5
255
330
6C
100
AcDbEntity
  8
Hidden (ANSI)
 48
0.0046617416664958
100
AcDbLine
 10
11.33385003670959
 20
9.642176370408204
 30
0.0
 11
11.33385003670959
 21
9.637176370408207
 31
0.0
  0
LINE
  5
256
330
6C
100
AcDbEntity
  8
Hidden (ANSI)
 48
0.0046617416664958
100
AcDbLine
 10
11.27109505606048
 20
9.642176370408204
 30
0.0
 11
11.27109505606048
 21
9.637176370408207
 31
0.0
  0
LINE
  5
257
330
6C
100
AcDbEntity
  8
Hidden (ANSI)
 48
0.0046617416664958
100
AcDbLine
 10
11.26821740262683
 20
9.642176370408204
 30
0.0
 11
11.26821740262683
 21
9.637176370408207
 31
0.0
  0
LINE
  5
258
330
6C
100
AcDbEntity
  8
Hidden (ANSI)
 48
0.0046617416664958
100
AcDbLine
 10
11.21022161804106
 20
9.642176370408204
 30
0.0
 11
11.21022161804106
 21
9.637176370408207
 31
0.0
  0
LINE
  5
259
330
6C
100
AcDbEntity
  8
Hidden (ANSI)
 48
0.0046617416664958
100
AcDbLine
 10
11.29489103637716
 20
9.642176370408204
 30
0.0
 11
11.29489103637716
 21
9.637176370408207
 31
0.0
  0
LINE
  5
25A
330
6C
100
AcDbEntity
  8
Hidden (ANSI)
 48
0.0046617416664958
100
AcDbLine
 10
11.28825029768413
 20
9.642176370408204
 30
0.0
 11
11.28825029768413
 21
9.637176370408207
 31
0.0
  0
LINE
  5
25B
330
6C
100
AcDbEntity
  8
Hidden (ANSI)
 48
0.0046617416664958
100
AcDbLine
 10
11.20391291628269
 20
9.642176370408204
 30
0.0
 11
11.20391291628269
 21
9.637176370408207
 31
0.0
  0
LINE
  5
25C
330
6C
100
AcDbEntity
  8
Hidden (ANSI)
 48
0.0046617416664958
100
AcDbLine
 10
11.33539954240463
 20
9.642176370408204
 30
0.0
 11
11.33539954240463
 21
9.637176370408207
 31
0.0
  0
LINE
  5
25D
330
6C
100
AcDbEntity
  8
Hidden (ANSI)
 48
0.0046617416664958
100
AcDbLine
 10
11.29212406192174
 20
9.642176370408204
 30
0.0
 11
11.29212406192174
 21
9.637176370408207
 31
0.0
  0
LINE
  5
25E
330
6C
100
AcDbEntity
  8
Hidden (ANSI)
 48
0.0046617416664958
100
AcDbLine
 10
11.22638074886076
 20
9.642176370408204
 30
0.0
 11
11.22638074886076
 21
9.637176370408207
 31
0.0
  0
LINE
  5
25F
330
6C
100
AcDbEntity
  8
Hidden (ANSI)
 48
0.0046617416664958
100
AcDbLine
 10
11.31403849960872
 20
9.642176370408204
 30
0.0
 11
11.31403849960872
 21
9.637176370408207
 31
0.0
  0
LINE
  5
260
330
6C
100
AcDbEntity
  8
Hidden (ANSI)
 48
0.0046617416664958
100
AcDbLine
 10
11.29101727213956
 20
9.642176370408204
 30
0.0
 11
11.29101727213956
 21
9.637176370408207
 31
0.0
  0
LINE
  5
261
330
6C
100
AcDbEntity
  8
Hidden (ANSI)
 48
0.0046617416664958
100
AcDbLine
 10
11.31293170982655
 20
9.642176370408204
 30
0.0
 11
11.31293170982655
 21
9.637176370408207
 31
0.0
  0
LINE
  5
262
330
6C
100
AcDbEntity
  8
Hidden (ANSI)
 48
0.0046617416664958
100
AcDbLine
 10
11.24718839676558
 20
9.642176370408204
 30
0.0
 11
11.24718839676558
 21
9.637176370408207
 31
0.0
  0
LINE
  5
263
330
6C
100
AcDbEntity
  8
Hidden (ANSI)
 48
0.0046617416664958
100
AcDbLine
 10
11.26954555036544
 20
9.642176370408204
 30
0.0
 11
11.26954555036544
 21
9.637176370408207
 31
0.0
  0
LINE
  5
264
330
6C
100
AcDbEntity
  8
Hidden (ANSI)
 48
0.0046617416664958
100
AcDbLine
 10
11.24829518654775
 20
9.642176370408204
 30
0.0
 11
11.24829518654775
 21
9.637176370408207
 31
0.0
  0
LINE
  5
265
330
6C
100
AcDbEntity
  8
Hidden (ANSI)
 48
0.0046617416664958
100
AcDbLine
 10
11.22527395907859
 20
9.642176370408204
 30
0.0
 11
11.22527395907859
 21
9.637176370408207
 31
0.0
  0
LINE
  5
266
330
6C
100
AcDbEntity
  8
Hidden (ANSI)
 48
0.0541838519275189
100
AcDbLine
 10
11.36925286806884
 20
9.642176370408206
 30
0.0
 11
11.36925286806884
 21
9.585176370408206
 31
0.0
  0
LINE
  5
267
330
6C
100
AcDbEntity
  8
Hidden (ANSI)
 48
1.244702219963073
100
AcDbLine
 10
10.54167386996304
 20
9.585176370408206
 30
0.0
 11
11.19683186617464
 21
9.585176370408206
 31
0.0
  0
LINE
  5
268
330
6C
100
AcDbEntity
  8
Hidden Narrow (ANSI)
 48
1.038636684417724
100
AcDbLine
 10
11.14259982910506
 20
9.553224434493653
 30
0.0
 11
10.59590590703263
 21
9.553224434493653
 31
0.0
  0
ARC
  5
269
330
6C
100
AcDbEntity
  8
Visible (ANSI)
100
AcDbCircle
 10
11.19683186617464
 20
9.523176370408206
 30
0.0
 40
0.0620000000000001
100
AcDbArc
 50
90.0
 51
151.0107053342196
  0
ARC
  5
26A
330
6C
100
AcDbEntity
  8
Visible (ANSI)
100
AcDbCircle
 10
10.54167386996304
 20
9.523176370408206
 30
0.0
 40
0.0619999999999993
100
AcDbArc
 50
28.98929466578102
 51
90.0
  0
LINE
  5
26B
330
6C
100
AcDbEntity
  8
Visible Narrow (ANSI)
  6
ZIGZAG
100
AcDbLine
 10
10.59590590703263
 20
9.85802120220509
 30
0.0
 11
10.59590590703263
 21
9.553224434493653
 31
0.0
  0
LINE
  5
26D
330
6C
100
AcDbEntity
  8
Visible Narrow (ANSI)
100
AcDbLine
 10
10.54167386996304
 20
9.585176370408207
 30
0.0
 11
10.54167386996304
 21
9.854681315445514
 31
0.0
  0
LINE
  5
26F
330
6C
100
AcDbEntity
  8
Visible Narrow (ANSI)
100
AcDbLine
 10
10.54167386996304
 20
10.2188794294661
 30
0.0
 11
10.54167386996304
 21
9.854681315445514
 31
0.0
  0
LINE
  5
270
330
6C
100
AcDbEntity
  8
Visible Narrow (ANSI)
  6
ZIGZAG
100
AcDbLine
 10
10.59590590703263
 20
9.85802120220509
 30
0.0
 11
10.59590590703263
 21
10.22221931622568
 31
0.0
  0
ELLIPSE
  5
272
330
6C
100
AcDbEntity
  8
Visible Narrow (ANSI)
100
AcDbEllipse
 10
10.86925286806884
 20
10.21887942946608
 30
0.0
 11
-0.3275789981058039
 21
0.0000000000018679
 31
0.0
210
0.0
220
0.0
230
1.0
 40
0.9945218953682799
 41
6.082962105048197
 42
6.283185307185259
  0
ELLIPSE
  5
273
330
6C
100
AcDbEntity
  8
Visible Narrow (ANSI)
  6
ZIGZAG
100
AcDbEllipse
 10
10.86925286806885
 20
10.22221931622566
 30
0.0
 11
-0.2733469610362263
 21
0.0000000000000154
 31
0.0
210
0.0
220
0.0
230
1.0
 40
0.9945218953682795
 41
6.082962105042433
 42
6.283185307179484
  0
SPLINE
  5
275
330
6C
100
AcDbEntity
  8
Visible Narrow (ANSI)
100
AcDbSpline
210
0.0
220
0.0
230
1.0
 70
     8
 71
     3
 72
    14
 73
    10
 74
     0
 42
0.0000000001
 43
0.0000000001
 40
1.559845811901287
 40
1.559845811901287
 40
1.559845811901287
 40
1.559845811901287
 40
1.706449337302486
 40
1.706449337302486
 40
1.888903285924052
 40
1.888903285924052
 40
2.055570974520524
 40
2.055570974520524
 40
2.159738279893319
 40
2.159738279893319
 40
2.159738279893319
 40
2.159738279893319
 10
10.68778009885565
 20
10.4904468088262
 30
0.0
 10
10.67101823717365
 20
10.4798447873691
 30
0.0
 10
10.65511527730316
 20
10.4675765718955
 30
0.0
 10
10.6221967833214
 20
10.4365691850959
 30
0.0
 10
10.60547687629091
 20
10.41655876593115
 30
0.0
 10
10.5785731235292
 20
10.37416735735881
 30
0.0
 10
10.56788745919325
 20
10.35213223932702
 30
0.0
 10
10.55485861695453
 20
10.31400643227245
 30
0.0
 10
10.55093702416148
 20
10.29888384904849
 30
0.0
 10
10.54821817439255
 20
10.28367408000491
 30
0.0
  0
SPLINE
  5
276
330
6C
100
AcDbEntity
  8
Visible Narrow (ANSI)
  6
ZIGZAG
100
AcDbSpline
210
0.0
220
0.0
230
1.0
 70
     8
 71
     3
 72
    14
 73
    10
 74
     0
 42
0.0000000001
 43
0.0000000001
 40
-2.159738279893319
 40
-2.159738279893319
 40
-2.159738279893319
 40
-2.159738279893319
 40
-2.055570974520524
 40
-2.055570974520524
 40
-1.888903285924052
 40
-1.888903285924052
 40
-1.706449337302486
 40
-1.706449337302486
 40
-1.559845811901287
 40
-1.559845811901287
 40
-1.559845811901287
 40
-1.559845811901287
 10
10.60136677521479
 20
10.27628694851774
 30
0.0
 10
10.60363550833306
 20
10.28740490386001
 30
0.0
 10
10.60690786547012
 20
10.29845912857979
 30
0.0
 10
10.61777972982152
 20
10.32632812639338
 30
0.0
 10
10.6266963389136
 20
10.34243523870634
 30
0.0
 10
10.64914606585094
 20
10.37342228302323
 30
0.0
 10
10.66309792418747
 20
10.38804939182524
 30
0.0
 10
10.69056662744327
 20
10.41071500500652
 30
0.0
 10
10.70383686240089
 20
10.41968280078183
 30
0.0
 10
10.71782365477345
 20
10.42743256804999
 30
0.0
  0
ELLIPSE
  5
278
330
6C
100
AcDbEntity
  8
Visible Narrow (ANSI)
100
AcDbEllipse
 10
10.86925286806884
 20
10.19420006529327
 30
0.0
 11
-0.3604993674475887
 21
-0.0000000000000369
 31
0.0
210
0.0
220
0.0
230
1.0
 40
0.9510565162951506
 41
4.184868139875629
 42
5.239909820893611
  0
ELLIPSE
  5
279
330
6C
100
AcDbEntity
  8
Visible Narrow (ANSI)
  6
ZIGZAG
100
AcDbEllipse
 10
10.86925286806884
 20
10.18023067925415
 30
0.0
 11
0.3008172291785626
 21
-0.0000000000000321
 31
0.0
210
0.0
220
0.0
230
1.0
 40
0.951056516295155
 41
1.043275486286034
 42
2.098317167304019
  0
SPLINE
  5
27A
330
6C
100
AcDbEntity
  8
Visible Narrow (ANSI)
  6
ZIGZAG
100
AcDbSpline
210
0.0
220
0.0
230
1.0
 70
     8
 71
     3
 72
    12
 73
     8
 74
     0
 42
0.0000000001
 43
0.0000000001
 40
-0.5999466464950452
 40
-0.5999466464950452
 40
-0.5999466464950452
 40
-0.5999466464950452
 40
-0.4393567125665001
 40
-0.4393567125665001
 40
-0.0981015487495836
 40
-0.0981015487495836
 40
0.0
 40
0.0
 40
0.0
 40
0.0
 10
11.02068208136421
 20
10.42743256805
 30
0.0
 10
11.03600941208037
 20
10.41894003861736
 30
0.0
 10
11.05048712984461
 20
10.40897594002801
 30
0.0
 10
11.09174444559297
 20
10.37362467125599
 30
0.0
 10
11.11478884334317
 20
10.3425310934327
 30
0.0
 10
11.13197664077492
 20
10.29717068317839
 30
0.0
 10
11.13500233819079
 20
10.28675749524161
 30
0.0
 10
11.13713896092289
 20
10.27628694851774
 30
0.0
  0
SPLINE
  5
27C
330
6C
100
AcDbEntity
  8
Visible Narrow (ANSI)
100
AcDbSpline
210
0.0
220
0.0
230
1.0
 70
     8
 71
     3
 72
    12
 73
     8
 74
     0
 42
0.0000000001
 43
0.0000000001
 40
0.0
 40
0.0
 40
0.0
 40
0.0
 40
0.0981015487495836
 40
0.0981015487495836
 40
0.4393567125665001
 40
0.4393567125665001
 40
0.5999466464950465
 40
0.5999466464950465
 40
0.5999466464950465
 40
0.5999466464950465
 10
11.19028756174514
 20
10.28367408000491
 30
0.0
 10
11.18772703306298
 20
10.29799817040889
 30
0.0
 10
11.18410103727981
 20
10.31224379189684
 30
0.0
 10
11.1635031808376
 20
10.37429849012602
 30
0.0
 10
11.13588677457376
 20
10.41683564042674
 30
0.0
 10
11.08644400738092
 20
10.46519746747741
 30
0.0
 10
11.06909404245038
 20
10.47882863481773
 30
0.0
 10
11.05072563728202
 20
10.49044680882621
 30
0.0
  0
ELLIPSE
  5
27E
330
6C
100
AcDbEntity
  8
Visible Narrow (ANSI)
100
AcDbEllipse
 10
10.86925286806884
 20
10.21887942946608
 30
0.0
 11
0.3275789981058049
 21
0.0000000000000216
 31
0.0
210
0.0
220
0.0
230
1.0
 40
0.9945218953682793
 41
0.0000000000001205
 42
0.2002232021371757
  0
ELLIPSE
  5
27F
330
6C
100
AcDbEntity
  8
Visible Narrow (ANSI)
100
AcDbEllipse
 10
10.86925286806883
 20
10.22221931622566
 30
0.0
 11
0.2733469610362221
 21
0.0000000000012632
 31
0.0
210
0.0
220
0.0
230
1.0
 40
0.9945218953682799
 41
0.0
 42
0.2002232021324666
  0
LINE
  5
281
330
6C
100
AcDbEntity
  8
Visible Narrow (ANSI)
100
AcDbLine
 10
11.19683186617464
 20
9.854681315445514
 30
0.0
 11
11.19683186617464
 21
10.2188794294661
 31
0.0
  0
LINE
  5
284
330
6C
100
AcDbEntity
  8
Visible Narrow (ANSI)
100
AcDbLine
 10
11.19683186617464
 20
9.854681315445514
 30
0.0
 11
11.19683186617464
 21
9.585176370408206
 31
0.0
  0
LINE
  5
285
330
6C
100
AcDbEntity
  8
Hidden (ANSI)
 48
0.0541838519275189
100
AcDbLine
 10
10.36925286806885
 20
9.642176370408206
 30
0.0
 11
10.36925286806885
 21
9.585176370408206
 31
0.0
  0
ELLIPSE
  5
286
330
6C
100
AcDbEntity
  8
Hidden Narrow (ANSI)
 48
0.513570249080658
100
AcDbEllipse
 10
10.86925286806884
 20
9.84219016408503
 30
0.0
 11
0.2554999999999996
 21
-0.0000000000000028
 31
0.0
210
0.0
220
0.0
230
1.0
 40
0.1045284632676499
 41
0.5152732838137144
 42
2.626319369804551
  0
ELLIPSE
  5
287
330
6C
100
AcDbEntity
  8
Hidden Narrow (ANSI)
 48
0.513570249080658
100
AcDbEllipse
 10
10.86925286806884
 20
10.20638827809451
 30
0.0
 11
0.2554999999999981
 21
-0.0000000000000028
 31
0.0
210
0.0
220
0.0
230
1.0
 40
0.10452846326765
 41
0.5152732838136878
 42
2.626319369804519
  0
ARC
  5
288
330
6C
100
AcDbEntity
  8
Hidden (ANSI)
 48
0.513570249080658
100
AcDbCircle
 10
10.86925286806884
 20
9.704676370408206
 30
0.0
 40
0.2554999999999993
100
AcDbArc
 50
209.5229844575567
 51
330.4770155424436
  0
LINE
  5
289
330
6C
100
AcDbEntity
  8
Hidden Narrow (ANSI)
 48
0.3441890180110931
100
AcDbLine
 10
11.42105554064569
 20
10.50806077750559
 30
0.0
 11
11.05953966330655
 21
10.50806077642481
 31
0.0
  0
SPLINE
  5
28A
330
6C
100
AcDbEntity
  8
Hidden (ANSI)
 48
0.0400356873869896
100
AcDbSpline
210
0.0
220
0.0
230
1.0
 70
     8
 71
     3
 72
    10
 73
     6
 74
     0
 42
0.0000000001
 43
0.0000000001
 40
0.0
 40
0.0
 40
0.0
 40
0.0
 40
0.0538633932584973
 40
0.0538633932584973
 40
0.1077535183989789
 40
0.1077535183989789
 40
0.1077535183989789
 40
0.1077535183989789
 10
11.42105554064569
 20
10.50806077750559
 30
0.0
 10
11.419681161118
 20
10.50146635340543
 30
0.0
 10
11.41819474872866
 20
10.49494217391878
 30
0.0
 10
11.41495089841623
 20
10.48181850200532
 30
0.0
 10
11.41321606906562
 20
10.475306364787
 30
0.0
 10
11.4113084236244
 20
10.46864553936515
 30
0.0
  0
SPLINE
  5
28B
330
6C
100
AcDbEntity
  8
Hidden (ANSI)
 48
0.1808101683855057
100
AcDbSpline
210
0.0
220
0.0
230
1.0
 70
     8
 71
     3
 72
    10
 73
     6
 74
     0
 42
0.0000000001
 43
0.0000000001
 40
0.0
 40
0.0
 40
0.0
 40
0.0
 40
0.2442829776917912
 40
0.2442829776917912
 40
0.4883338098094154
 40
0.4883338098094154
 40
0.4883338098094154
 40
0.4883338098094154
 10
11.4113084236244
 20
10.46864553936515
 30
0.0
 10
11.40272012119163
 20
10.43864864952478
 30
0.0
 10
11.39640956518507
 20
10.40813637929779
 30
0.0
 10
11.38788094808791
 20
10.3455258247354
 30
0.0
 10
11.38575285515205
 20
10.31388405936277
 30
0.0
 10
11.38575286806885
 20
10.28237004712566
 30
0.0
  0
LINE
  5
28C
330
6C
100
AcDbEntity
  8
Hidden Narrow (ANSI)
 48
0.1826349347829819
100
AcDbLine
 10
11.19387460878229
 20
10.27771595759866
 30
0.0
 11
11.38575286806885
 21
10.27771595759866
 31
0.0
  0
LINE
  5
28D
330
6C
100
AcDbEntity
  8
Hidden Narrow (ANSI)
 48
0.1826349347829819
100
AcDbLine
 10
10.35275286806884
 20
10.27771595759866
 30
0.0
 11
10.54463112735539
 21
10.27771595759866
 31
0.0
  0
SPLINE
  5
28E
330
6C
100
AcDbEntity
  8
Hidden (ANSI)
 48
0.1808101683855057
100
AcDbSpline
210
0.0
220
0.0
230
1.0
 70
     8
 71
     3
 72
    10
 73
     6
 74
     0
 42
0.0000000001
 43
0.0000000001
 40
0.0
 40
0.0
 40
0.0
 40
0.0
 40
0.241255074805169
 40
0.241255074805169
 40
0.482739635891911
 40
0.482739635891911
 40
0.482739635891911
 40
0.482739635891911
 10
10.35275286806884
 20
10.28237004712566
 30
0.0
 10
10.35275288098564
 20
10.31388405935738
 30
0.0
 10
10.35062478805049
 20
10.34552582472463
 30
0.0
 10
10.34209617095481
 20
10.40813637928718
 30
0.0
 10
10.33578561494766
 20
10.43864864951918
 30
0.0
 10
10.32719731251329
 20
10.46864553936515
 30
0.0
  0
SPLINE
  5
28F
330
6C
100
AcDbEntity
  8
Hidden (ANSI)
 48
0.0400356873869896
100
AcDbSpline
210
0.0
220
0.0
230
1.0
 70
     8
 71
     3
 72
    10
 73
     6
 74
     0
 42
0.0000000001
 43
0.0000000001
 40
0.0
 40
0.0
 40
0.0
 40
0.0
 40
0.0542444077172297
 40
0.0542444077172297
 40
0.1084619078140166
 40
0.1084619078140166
 40
0.1084619078140166
 40
0.1084619078140166
 10
10.32719731251329
 20
10.46864553936515
 30
0.0
 10
10.32528966707177
 20
10.47530636478808
 30
0.0
 10
10.32355483772137
 20
10.48181850200569
 30
0.0
 10
10.32031098740908
 20
10.49494217391857
 30
0.0
 10
10.31882457501972
 20
10.50146635340528
 30
0.0
 10
10.317450195492
 20
10.50806077750559
 30
0.0
  0
LINE
  5
290
330
6C
100
AcDbEntity
  8
Hidden Narrow (ANSI)
 48
0.3441890478134155
100
AcDbLine
 10
10.67896607571667
 20
10.50806077750559
 30
0.0
 11
10.317450195492
 21
10.50806077750559
 31
0.0
  0
LINE
  5
291
330
6C
100
AcDbEntity
  8
Hidden Narrow (ANSI)
 48
0.0541838519275189
100
AcDbLine
 10
10.32719731251329
 20
10.45506508697663
 30
0.0
 11
10.32719731251329
 21
10.46864553936515
 31
0.0
  0
LINE
  5
292
330
6C
100
AcDbEntity
  8
Hidden Narrow (ANSI)
 48
0.0541838519275189
100
AcDbLine
 10
11.4113084236244
 20
10.45506508697663
 30
0.0
 11
11.4113084236244
 21
10.46864553936515
 31
0.0
  0
LINE
  5
294
330
6C
100
AcDbEntity
  8
Visible Narrow (ANSI)
100
AcDbLine
 10
10.34840664130223
 20
10.49044680882621
 30
0.0
 11
10.64201238838505
 21
10.49044680882621
 31
0.0
  0
LINE
  5
296
330
6C
100
AcDbEntity
  8
Visible (ANSI)
100
AcDbLine
 10
11.38575286806884
 20
10.28367408000492
 30
0.0
 11
11.38575286806885
 21
10.28785189825177
 31
0.0
  0
SPLINE
  5
297
330
6C
100
AcDbEntity
  8
Visible (ANSI)
100
AcDbSpline
210
0.0
220
0.0
230
1.0
 70
     8
 71
     3
 72
    10
 73
     6
 74
     0
 42
0.0000000001
 43
0.0000000001
 40
0.0
 40
0.0
 40
0.0
 40
0.0
 40
0.2167770922970784
 40
0.2167770922970784
 40
0.4346531343386162
 40
0.4346531343386162
 40
0.4346531343386162
 40
0.4346531343386162
 10
11.38575286806885
 20
10.28785189825177
 30
0.0
 10
11.38575285182535
 20
10.31616846711037
 30
0.0
 10
11.38788590012987
 20
10.34457733065028
 30
0.0
 10
11.39642214127668
 20
10.40083094329706
 30
0.0
 10
11.40274016573624
 20
10.42820078099624
 30
0.0
 10
11.4113084236244
 20
10.45506508697663
 30
0.0
  0
SPLINE
  5
298
330
6C
100
AcDbEntity
  8
Visible (ANSI)
100
AcDbSpline
210
0.0
220
0.0
230
1.0
 70
     8
 71
     3
 72
    10
 73
     6
 74
     0
 42
0.0000000001
 43
0.0000000001
 40
0.0
 40
0.0
 40
0.0
 40
0.0
 40
0.0491119350268707
 40
0.0491119350268707
 40
0.098101628242853
 40
0.098101628242853
 40
0.098101628242853
 40
0.098101628242853
 10
11.4113084236244
 20
10.45506508697663
 30
0.0
 10
11.41321603183626
 20
10.4610441652327
 30
0.0
 10
11.41494941898534
 20
10.46688463571488
 30
0.0
 10
11.41819299117724
 20
10.47866430063317
 30
0.0
 10
11.4196788545507
 20
10.48451728313625
 30
0.0
 10
11.42105554064569
 20
10.49044680882621
 30
0.0
  0
SPLINE
  5
29A
330
6C
100
AcDbEntity
  8
Visible (ANSI)
100
AcDbSpline
210
0.0
220
0.0
230
1.0
 70
     8
 71
     3
 72
    10
 73
     6
 74
     0
 42
0.0000000001
 43
0.0000000001
 40
0.0
 40
0.0
 40
0.0
 40
0.0
 40
0.2206563064156798
 40
0.2206563064156798
 40
0.4401996397785693
 40
0.4401996397785693
 40
0.4401996397785693
 40
0.4401996397785693
 10
10.32719731251329
 20
10.45506508697663
 30
0.0
 10
10.33576557039912
 20
10.42820078100352
 30
0.0
 10
10.34208359485734
 20
10.40083094331289
 30
0.0
 10
10.3506198360066
 20
10.34457733066663
 30
0.0
 10
10.35275288431234
 20
10.31616846711852
 30
0.0
 10
10.35275286806884
 20
10.28785189825177
 30
0.0
  0
SPLINE
  5
29B
330
6C
100
AcDbEntity
  8
Visible (ANSI)
100
AcDbSpline
210
0.0
220
0.0
230
1.0
 70
     8
 71
     3
 72
    10
 73
     6
 74
     0
 42
0.0000000001
 43
0.0000000001
 40
0.0
 40
0.0
 40
0.0
 40
0.0
 40
0.0486526127362373
 40
0.0486526127362373
 40
0.097426626178861
 40
0.097426626178861
 40
0.097426626178861
 40
0.097426626178861
 10
10.317450195492
 20
10.49044680882621
 30
0.0
 10
10.31882688158698
 20
10.48451728313628
 30
0.0
 10
10.32031274496045
 20
10.47866430063318
 30
0.0
 10
10.32355631715227
 20
10.46688463571518
 30
0.0
 10
10.3252897043009
 20
10.4610441652344
 30
0.0
 10
10.32719731251329
 20
10.45506508697663
 30
0.0
  0
LINE
  5
29C
330
6C
100
AcDbEntity
  8
Visible (ANSI)
100
AcDbLine
 10
10.35275286806884
 20
10.28785189825177
 30
0.0
 11
10.35275286806884
 21
10.28367408000493
 31
0.0
  0
ARC
  5
29F
330
6C
100
AcDbEntity
  8
Visible (ANSI)
100
AcDbCircle
 10
10.86925286806884
 20
9.704676370408208
 30
0.0
 40
0.3125000000000022
100
AcDbArc
 50
208.9892946657809
 51
331.0107053342189
  0
LINE
  5
2A0
330
6C
100
AcDbEntity
  8
Visible (ANSI)
100
AcDbLine
 10
11.43175286806884
 20
10.77198569357121
 30
0.0
 11
11.43175286806884
 21
10.58828503294551
 31
0.0
  0
LINE
  5
2A1
330
6C
100
AcDbEntity
  8
Visible (ANSI)
100
AcDbLine
 10
10.55675286806884
 20
11.009749822645
 30
0.0
 11
11.18175286806884
 21
11.009749822645
 31
0.0
  0
LINE
  5
2A2
330
6C
100
AcDbEntity
  8
Visible (ANSI)
100
AcDbLine
 10
10.30675286806884
 20
10.58828503294552
 30
0.0
 11
10.30675286806884
 21
10.77198569357121
 31
0.0
  0
LINE
  5
2A3
330
6C
100
AcDbEntity
  8
Visible (ANSI)
100
AcDbLine
 10
11.18175286806884
 20
11.02736379132438
 30
0.0
 11
10.55675286806884
 21
11.02736379132438
 31
0.0
  0
LINE
  5
2A4
330
6C
100
AcDbEntity
  8
Visible (ANSI)
100
AcDbLine
 10
11.18175286806884
 20
11.009749822645
 30
0.0
 11
11.43175286806884
 21
10.77198569357121
 31
0.0
  0
LINE
  5
2A5
330
6C
100
AcDbEntity
  8
Visible (ANSI)
100
AcDbLine
 10
10.30675286806884
 20
10.77198569357121
 30
0.0
 11
10.55675286806884
 21
11.009749822645
 31
0.0
  0
LINE
  5
2A6
330
6C
100
AcDbEntity
  8
Visible (ANSI)
100
AcDbLine
 10
10.55675286806884
 20
11.02736379132438
 30
0.0
 11
10.30675286806884
 21
10.78959966225058
 31
0.0
  0
LINE
  5
2A7
330
6C
100
AcDbEntity
  8
Visible (ANSI)
100
AcDbLine
 10
10.30675286806884
 20
10.78959966225058
 30
0.0
 11
10.30675286806884
 21
10.77198569357121
 31
0.0
  0
LINE
  5
2A8
330
6C
100
AcDbEntity
  8
Visible (ANSI)
100
AcDbLine
 10
10.55675286806884
 20
11.009749822645
 30
0.0
 11
10.55675286806884
 21
11.02736379132438
 31
0.0
  0
LINE
  5
2A9
330
6C
100
AcDbEntity
  8
Visible (ANSI)
100
AcDbLine
 10
11.43175286806884
 20
10.78959966225059
 30
0.0
 11
11.18175286806884
 21
11.02736379132438
 31
0.0
  0
LINE
  5
2AA
330
6C
100
AcDbEntity
  8
Visible (ANSI)
100
AcDbLine
 10
11.18175286806884
 20
11.02736379132438
 30
0.0
 11
11.18175286806884
 21
11.009749822645
 31
0.0
  0
LINE
  5
2AB
330
6C
100
AcDbEntity
  8
Visible (ANSI)
100
AcDbLine
 10
11.43175286806884
 20
10.77198569357121
 30
0.0
 11
11.43175286806884
 21
10.78959966225059
 31
0.0
  0
LINE
  5
2AC
330
6C
100
AcDbEntity
  8
Hidden (ANSI)
 48
0.0541838519275189
100
AcDbLine
 10
10.76725286806884
 20
9.642176370408206
 30
0.0
 11
10.76725286806884
 21
9.585176370408206
 31
0.0
  0
LINE
  5
2AD
330
6C
100
AcDbEntity
  8
Hidden (ANSI)
 48
0.0541838519275189
100
AcDbLine
 10
10.59625286806884
 20
9.642176370408206
 30
0.0
 11
10.59625286806884
 21
9.585176370408206
 31
0.0
  0
LINE
  5
2AE
330
6C
100
AcDbEntity
  8
Hidden (ANSI)
 48
0.0541838519275189
100
AcDbLine
 10
11.26725286806884
 20
9.642176370408206
 30
0.0
 11
11.26725286806884
 21
9.585176370408206
 31
0.0
  0
LINE
  5
2AF
330
6C
100
AcDbEntity
  8
Hidden (ANSI)
 48
0.0541838519275189
100
AcDbLine
 10
11.09625286806884
 20
9.642176370408206
 30
0.0
 11
11.09625286806884
 21
9.585176370408206
 31
0.0
  0
LINE
  5
2B0
330
6C
100
AcDbEntity
  8
Hidden (ANSI)
 48
0.0541838519275189
100
AcDbLine
 10
10.64225286806885
 20
9.642176370408206
 30
0.0
 11
10.64225286806885
 21
9.585176370408206
 31
0.0
  0
LINE
  5
2B1
330
6C
100
AcDbEntity
  8
Hidden (ANSI)
 48
0.0541838519275189
100
AcDbLine
 10
10.47125286806885
 20
9.642176370408206
 30
0.0
 11
10.47125286806885
 21
9.585176370408206
 31
0.0
  0
LINE
  5
2B2
330
6C
100
AcDbEntity
  8
Hidden (ANSI)
 48
0.0541838519275189
100
AcDbLine
 10
10.95475286806884
 20
9.642176370408206
 30
0.0
 11
10.95475286806884
 21
9.585176370408206
 31
0.0
  0
LINE
  5
2B3
330
6C
100
AcDbEntity
  8
Hidden (ANSI)
 48
0.0541838519275189
100
AcDbLine
 10
10.78375286806884
 20
9.642176370408206
 30
0.0
 11
10.78375286806884
 21
9.585176370408206
 31
0.0
  0
LINE
  5
312
330
6C
100
AcDbEntity
  8
Visible Narrow (ANSI)
100
AcDbLine
 10
10.39244744645137
 20
10.52044680882621
 30
0.0
 11
10.59797150193121
 21
10.52044680882621
 31
0.0
  0
LINE
  5
317
330
6C
100
AcDbEntity
  8
Visible Narrow (ANSI)
100
AcDbLine
 10
10.38510733936141
 20
10.46044680882621
 30
0.0
 11
10.58696130064393
 21
10.46044680882621
 31
0.0
  0
LINE
  5
31B
330
6C
100
AcDbEntity
  8
Visible Narrow (ANSI)
100
AcDbLine
 10
11.39009909483551
 20
10.49044680882621
 30
0.0
 11
11.09649334775269
 21
10.49044680882621
 31
0.0
  0
LINE
  5
31C
330
6C
100
AcDbEntity
  8
Visible Narrow (ANSI)
100
AcDbLine
 10
11.35339839677634
 20
10.46044680882621
 30
0.0
 11
11.15154443549381
 21
10.46044680882621
 31
0.0
  0
LINE
  5
31D
330
6C
100
AcDbEntity
  8
Visible Narrow (ANSI)
100
AcDbLine
 10
11.34605828968638
 20
10.52044680882621
 30
0.0
 11
11.14053423420654
 21
10.52044680882621
 31
0.0
  0
LWPOLYLINE
  5
31E
330
6C
100
AcDbEntity
  8
Visible Narrow (ANSI)
  6
ZIGZAG
100
AcDbPolyline
 90
        3
 70
     0
 43
0.0
 10
11.14259982910506
 20
9.553224434493651
 10
11.14259982910506
 20
9.85802120220509
 10
11.14259982910506
 20
10.22221931622568
  0
ENDSEC
  0
SECTION
  2
OBJECTS
  0
DICTIONARY
  5
C
330
0
100
AcDbDictionary
281
     1
  3
ACAD_COLOR
350
63
  3
ACAD_GROUP
350
D
  3
ACAD_LAYOUT
350
62
  3
ACAD_MATERIAL
350
10
  3
ACAD_MLEADERSTYLE
350
66
  3
ACAD_MLINESTYLE
350
5F
  3
ACAD_PLOTSETTINGS
350
61
  3
ACAD_PLOTSTYLENAME
350
E
  3
ACAD_SCALELIST
350
42
  3
ACAD_TABLESTYLE
350
64
  3
ACAD_VISUALSTYLE
350
29
  3
ACDB_RECOMPOSE_DATA
350
321
  3
AcDbVariableDictionary
350
74
  3
DWGPROPS
350
322
  0
DICTIONARY
  5
2B8
330
8
100
AcDbDictionary
280
     1
281
     1
  0
DICTIONARY
  5
30E
330
6C
100
AcDbDictionary
280
     1
281
     1
  3
ACAD_SORTENTS
360
30F
  0
DICTIONARY
  5
63
102
{ACAD_REACTORS
330
C
102
}
330
C
100
AcDbDictionary
281
     1
  0
DICTIONARY
  5
D
102
{ACAD_REACTORS
330
C
102
}
330
C
100
AcDbDictionary
281
     1
  0
DICTIONARY
  5
62
102
{ACAD_REACTORS
330
C
102
}
330
C
100
AcDbDictionary
281
     1
  3
Layout1
350
6B
  3
Layout2
350
73
  3
Model
350
6F
  0
DICTIONARY
  5
10
102
{ACAD_REACTORS
330
C
102
}
330
C
100
AcDbDictionary
281
     1
  3
ByBlock
350
19
  3
ByLayer
350
11
  3
Global
350
21
  0
DICTIONARY
  5
66
102
{ACAD_REACTORS
330
C
102
}
330
C
100
AcDbDictionary
281
     1
  3
Standard
350
67
  0
DICTIONARY
  5
5F
102
{ACAD_REACTORS
330
C
102
}
330
C
100
AcDbDictionary
281
     1
  3
Standard
350
60
  0
DICTIONARY
  5
61
102
{ACAD_REACTORS
330
C
102
}
330
C
100
AcDbDictionary
281
     1
  0
ACDBDICTIONARYWDFLT
  5
E
102
{ACAD_REACTORS
330
C
102
}
330
C
100
AcDbDictionary
281
     1
  3
Normal
350
F
100
AcDbDictionaryWithDefault
340
F
  0
DICTIONARY
  5
42
102
{ACAD_REACTORS
330
C
102
}
330
C
100
AcDbDictionary
281
     1
  3
A0
350
43
  3
A1
350
44
  3
A2
350
45
  3
A3
350
46
  3
A4
350
47
  3
A5
350
48
  3
A6
350
49
  3
A7
350
4A
  3
A8
350
4B
  3
A9
350
4C
  3
B0
350
4D
  3
B1
350
4E
  3
B2
350
4F
  3
B3
350
50
  3
B4
350
51
  3
B5
350
52
  3
B6
350
53
  0
DICTIONARY
  5
64
102
{ACAD_REACTORS
330
C
102
}
330
C
100
AcDbDictionary
281
     1
  3
Standard
350
65
  0
DICTIONARY
  5
29
102
{ACAD_REACTORS
330
C
102
}
330
C
100
AcDbDictionary
281
     1
  3
2dWireframe
350
2F
  3
Basic
350
2E
  3
Brighten
350
35
  3
ColorChange
350
39
  3
Conceptual
350
32
  3
Dim
350
34
  3
EdgeColorOff
350
41
  3
Facepattern
350
38
  3
Flat
350
2A
  3
FlatWithEdges
350
2B
  3
Gouraud
350
2C
  3
GouraudWithEdges
350
2D
  3
Hidden
350
31
  3
JitterOff
350
3F
  3
Linepattern
350
37
  3
OverhangOff
350
40
  3
Realistic
350
33
  3
Shaded
350
3E
  3
Shaded with edges
350
3D
  3
Shades of Gray
350
3A
  3
Sketchy
350
3B
  3
Thicken
350
36
  3
Wireframe
350
30
  3
X-Ray
350
3C
  0
XRECORD
  5
321
102
{ACAD_REACTORS
330
C
102
}
330
C
100
AcDbXrecord
280
     1
 90
        1
330
65
  0
DICTIONARY
  5
74
102
{ACAD_REACTORS
330
C
102
}
330
C
100
AcDbDictionary
281
     1
  3
CANNOSCALE
350
77
  3
CMLEADERSTYLE
350
76
  3
CTABLESTYLE
350
75
  3
DIMASSOC
350
300
  3
HIDETEXT
350
2FF
  3
INDEXCTL
350
2FE
  3
LAYEREVAL
350
2FB
  3
LAYERNOTIFY
350
2FC
  3
LIGHTINGUNITS
350
2FA
  3
MSLTSCALE
350
2F9
  3
SORTENTS
350
2FD
  3
XCLIPFRAME
350
31F
  0
XRECORD
  5
322
102
{ACAD_REACTORS
330
C
102
}
330
C
100
AcDbXrecord
280
     1
  1
DWGPROPS COOKIE
  2

  3

  4
jwalls
  6

  7

  8
jwalls
  9
-
300
Manager=
301
Company=
302
Category=
303
Part Number=
304
Description=
305
Project=
306
Designer=jwalls
307
Engineer=
308
Authority=
309
Cost Center=
 40
0.0051382986111111
 41
2455740.44995897
 42
2455740.468492431
  1

 90
       20
300
Vendor=
300
User Status=
300
Design Status=WorkInProgress
300
Checked by=
300
Engr Approved by=
300
Mfg Approved by=
300
BY=
300
REV DATE=
300
DATE=
300
SCALE=
  0
SORTENTSTABLE
  5
30F
102
{ACAD_REACTORS
330
30E
102
}
330
30E
100
AcDbSortentsTable
330
6C
331
312
  5
2A2
331
1CB
  5
1CB
331
1BA
  5
1BA
331
1A9
  5
1A9
331
198
  5
198
331
1DC
  5
1DC
331
25E
  5
262
331
26F
  5
275
331
1E6
  5
1E6
331
1F7
  5
1F7
331
291
  5
296
331
2A2
  5
2AF
331
2B3
  5
31B
331
22A
  5
22E
331
24C
  5
250
331
23B
  5
23F
331
219
  5
219
331
208
  5
208
331
187
  5
187
331
176
  5
176
331
158
  5
158
331
147
  5
147
331
136
  5
136
331
125
  5
125
331
114
  5
114
331
1CC
  5
1CC
331
1BB
  5
1BB
331
1AA
  5
1AA
331
199
  5
199
331
188
  5
188
331
1DD
  5
1DD
331
25F
  5
263
331
270
  5
276
331
1E7
  5
1E7
331
281
  5
285
331
1F8
  5
1F8
331
292
  5
29A
331
2A3
  5
2B0
331
24D
  5
251
331
23C
  5
240
331
22B
  5
22F
331
21A
  5
21A
331
209
  5
209
331
177
  5
177
331
159
  5
159
331
148
  5
148
331
137
  5
137
331
126
  5
126
331
115
  5
115
331
1CD
  5
1CD
331
1BC
  5
1BC
331
1AB
  5
1AB
331
19A
  5
19A
331
189
  5
189
331
178
  5
178
331
1DE
  5
1DE
331
260
  5
264
331
1E8
  5
1E8
331
1F9
  5
1F9
331
2A4
  5
2B1
331
24E
  5
252
331
23D
  5
241
331
22C
  5
230
331
21B
  5
21B
331
20A
  5
20A
331
15A
  5
15A
331
149
  5
149
331
138
  5
138
331
127
  5
127
331
116
  5
116
331
1CE
  5
1CE
331
1BD
  5
1BD
331
1AC
  5
1AC
331
19B
  5
19B
331
18A
  5
18A
331
179
  5
179
331
168
  5
168
331
1DF
  5
1DF
331
261
  5
265
331
272
  5
278
331
1E9
  5
1E9
331
1FA
  5
1FA
331
2A5
  5
2B2
331
294
  5
29B
331
24F
  5
253
331
23E
  5
242
331
22D
  5
231
331
20B
  5
20B
331
15B
  5
15B
331
14A
  5
14A
331
139
  5
139
331
128
  5
128
331
117
  5
117
331
250
  5
254
331
1CF
  5
1CF
331
1BE
  5
1BE
331
1AD
  5
1AD
331
19C
  5
19C
331
18B
  5
18B
331
17A
  5
17A
331
169
  5
169
331
262
  5
266
331
273
  5
279
331
1EA
  5
1EA
331
284
  5
289
331
1FB
  5
1FB
331
2A6
  5
2B3
331
21D
  5
21F
331
23F
  5
243
331
22E
  5
232
331
20C
  5
20C
331
15C
  5
15C
331
14B
  5
14B
331
13A
  5
13A
331
129
  5
129
331
118
  5
118
331
251
  5
255
331
240
  5
244
331
317
  5
29C
331
1D0
  5
1D0
331
1BF
  5
1BF
331
1AE
  5
1AE
331
19D
  5
19D
331
18C
  5
18C
331
17B
  5
17B
331
16A
  5
16A
331
263
  5
267
331
1EB
  5
1EB
331
285
  5
28A
331
1FC
  5
1FC
331
2A7
  5
30D
331
296
  5
2A3
331
22F
  5
233
331
20D
  5
20D
331
15D
  5
15D
331
14C
  5
14C
331
13B
  5
13B
331
12A
  5
12A
331
119
  5
119
331
2A8
  5
310
331
252
  5
256
331
241
  5
245
331
230
  5
234
331
1D1
  5
1D1
331
1C0
  5
1C0
331
1AF
  5
1AF
331
19E
  5
19E
331
18D
  5
18D
331
17C
  5
17C
331
16B
  5
16B
331
264
  5
268
331
275
  5
27A
331
1EC
  5
1EC
331
286
  5
28B
331
1FD
  5
1FD
331
297
  5
2A4
331
21F
  5
223
331
20E
  5
20E
331
15E
  5
15E
331
14D
  5
14D
331
13C
  5
13C
331
12B
  5
12B
331
11A
  5
11A
331
298
  5
2A8
331
2A9
  5
311
331
220
  5
224
331
253
  5
257
331
242
  5
246
331
231
  5
235
331
1D2
  5
1D2
331
1C1
  5
1C1
331
1B0
  5
1B0
331
19F
  5
19F
331
18E
  5
18E
331
17D
  5
17D
331
16C
  5
16C
331
265
  5
269
331
276
  5
27C
331
1ED
  5
1ED
331
287
  5
28C
331
1FE
  5
1FE
331
20F
  5
20F
331
15F
  5
15F
331
14E
  5
14E
331
13D
  5
13D
331
12C
  5
12C
331
11B
  5
11B
331
288
  5
28D
331
2AA
  5
312
331
221
  5
225
331
254
  5
258
331
243
  5
247
331
232
  5
236
331
210
  5
210
331
1D3
  5
1D3
331
1C2
  5
1C2
331
1B1
  5
1B1
331
1A0
  5
1A0
331
18F
  5
18F
331
17E
  5
17E
331
16D
  5
16D
331
160
  5
160
331
266
  5
26A
331
1EE
  5
1EE
331
1FF
  5
1FF
331
14F
  5
14F
331
13E
  5
13E
331
12D
  5
12D
331
11C
  5
11C
331
278
  5
27E
331
289
  5
28E
331
200
  5
200
331
29A
  5
2A9
331
2AB
  5
313
331
222
  5
226
331
255
  5
259
331
244
  5
248
331
233
  5
237
331
211
  5
211
331
31B
  5
31C
331
1D4
  5
1D4
331
1C3
  5
1C3
331
1B2
  5
1B2
331
1A1
  5
1A1
331
190
  5
190
331
17F
  5
17F
331
16E
  5
16E
331
161
  5
161
331
150
  5
150
331
267
  5
26B
331
1EF
  5
1EF
331
13F
  5
13F
331
12E
  5
12E
331
11D
  5
11D
331
268
  5
26D
331
279
  5
27F
331
1F0
  5
1F0
331
28A
  5
28F
331
201
  5
201
331
29B
  5
2AA
331
2AC
  5
314
331
223
  5
227
331
256
  5
25A
331
245
  5
249
331
234
  5
238
331
212
  5
212
331
31C
  5
31D
331
1D5
  5
1D5
331
1C4
  5
1C4
331
1B3
  5
1B3
331
1A2
  5
1A2
331
191
  5
191
331
180
  5
180
331
16F
  5
16F
331
162
  5
162
331
151
  5
151
331
140
  5
140
331
12F
  5
12F
331
11E
  5
11E
331
258
  5
25C
331
269
  5
26F
331
1E0
  5
1E0
331
27A
  5
281
331
1F1
  5
1F1
331
28B
  5
290
331
202
  5
202
331
29C
  5
2AB
331
2AD
  5
315
331
224
  5
228
331
257
  5
25B
331
246
  5
24A
331
235
  5
239
331
213
  5
213
331
31D
  5
31E
331
1C5
  5
1C5
331
1B4
  5
1B4
331
1A3
  5
1A3
331
192
  5
192
331
181
  5
181
331
170
  5
170
331
163
  5
163
331
152
  5
152
331
141
  5
141
331
130
  5
130
331
1D6
  5
1D6
331
11F
  5
11F
331
10E
  5
10E
331
259
  5
25D
331
26A
  5
270
331
1E1
  5
1E1
331
1F2
  5
1F2
331
28C
  5
291
331
203
  5
203
331
2AE
  5
316
331
225
  5
229
331
247
  5
24B
331
236
  5
23A
331
214
  5
214
331
31E
  5
288
331
1C6
  5
1C6
331
1B5
  5
1B5
331
1A4
  5
1A4
331
193
  5
193
331
182
  5
182
331
171
  5
171
331
164
  5
164
331
153
  5
153
331
142
  5
142
331
131
  5
131
331
120
  5
120
331
1D7
  5
1D7
331
10F
  5
10F
331
1D8
  5
1D8
331
25A
  5
25E
331
26B
  5
272
331
1E2
  5
1E2
331
27C
  5
282
331
1F3
  5
1F3
331
28D
  5
292
331
204
  5
204
331
2AF
  5
317
331
226
  5
22A
331
248
  5
24C
331
237
  5
23B
331
215
  5
215
331
1C7
  5
1C7
331
1B6
  5
1B6
331
1A5
  5
1A5
331
194
  5
194
331
183
  5
183
331
172
  5
172
331
165
  5
165
331
154
  5
154
331
143
  5
143
331
132
  5
132
331
121
  5
121
331
110
  5
110
331
1C8
  5
1C8
331
1D9
  5
1D9
331
25B
  5
25F
331
1E3
  5
1E3
331
1F4
  5
1F4
331
28E
  5
293
331
205
  5
205
331
29F
  5
2AC
331
2B0
  5
318
331
227
  5
22B
331
249
  5
24D
331
238
  5
23C
331
216
  5
216
331
1B7
  5
1B7
331
1A6
  5
1A6
331
195
  5
195
331
184
  5
184
331
173
  5
173
331
166
  5
166
331
155
  5
155
331
144
  5
144
331
133
  5
133
331
122
  5
122
331
111
  5
111
331
1C9
  5
1C9
331
1B8
  5
1B8
331
1DA
  5
1DA
331
25C
  5
260
331
26D
  5
273
331
1E4
  5
1E4
331
27E
  5
283
331
1F5
  5
1F5
331
28F
  5
294
331
206
  5
206
331
2A0
  5
2AD
331
2B1
  5
319
331
228
  5
22C
331
24A
  5
24E
331
239
  5
23D
331
217
  5
217
331
1A7
  5
1A7
331
196
  5
196
331
185
  5
185
331
174
  5
174
331
167
  5
167
331
156
  5
156
331
145
  5
145
331
134
  5
134
331
123
  5
123
331
112
  5
112
331
1CA
  5
1CA
331
1B9
  5
1B9
331
1A8
  5
1A8
331
1DB
  5
1DB
331
25D
  5
261
331
1E5
  5
1E5
331
27F
  5
284
331
1F6
  5
1F6
331
290
  5
295
331
2A1
  5
2AE
331
2B2
  5
31A
331
229
  5
22D
331
24B
  5
24F
331
23A
  5
23E
331
218
  5
218
331
207
  5
207
331
197
  5
197
331
186
  5
186
331
175
  5
175
331
157
  5
157
331
146
  5
146
331
135
  5
135
331
124
  5
124
331
113
  5
113
  0
LAYOUT
  5
6B
102
{ACAD_XDICTIONARY
360
357
102
}
102
{ACAD_REACTORS
330
62
102
}
330
62
100
AcDbPlotSettings
  1

  2

  4

  6

 40
0.0
 41
0.0
 42
0.0
 43
0.0
 44
0.0
 45
0.0
 46
0.0
 47
0.0
 48
0.0
 49
0.0
140
0.0
141
0.0
142
1.0
143
1.0
 70
   688
 72
     0
 73
     0
 74
     5
  7

 75
    16
147
1.0
148
0.0
149
0.0
100
AcDbLayout
  1
Layout1
 70
     1
 71
     1
 10
0.0
 20
0.0
 11
22.0
 21
17.0
 12
0.0
 22
0.0
 32
0.0
 14
0.0
 24
0.0
 34
0.0
 15
22.0
 25
17.0
 35
0.0
146
0.0
 13
0.0
 23
0.0
 33
0.0
 16
1.0
 26
0.0
 36
0.0
 17
0.0
 27
1.0
 37
0.0
 76
     0
330
68
  0
LAYOUT
  5
73
102
{ACAD_XDICTIONARY
360
35B
102
}
102
{ACAD_REACTORS
330
62
102
}
330
62
100
AcDbPlotSettings
  1

  2

  4

  6

 40
0.0
 41
0.0
 42
0.0
 43
0.0
 44
0.0
 45
0.0
 46
0.0
 47
0.0
 48
0.0
 49
0.0
140
0.0
141
0.0
142
1.0
143
1.0
 70
   688
 72
     0
 73
     0
 74
     5
  7

 75
    16
147
1.0
148
0.0
149
0.0
100
AcDbLayout
  1
Layout2
 70
     1
 71
     2
 10
0.0
 20
0.0
 11
12.0
 21
9.0
 12
0.0
 22
0.0
 32
0.0
 14
0.0
 24
0.0
 34
0.0
 15
0.0
 25
0.0
 35
0.0
146
0.0
 13
0.0
 23
0.0
 33
0.0
 16
1.0
 26
0.0
 36
0.0
 17
0.0
 27
1.0
 37
0.0
 76
     0
330
70
  0
LAYOUT
  5
6F
102
{ACAD_XDICTIONARY
360
359
102
}
102
{ACAD_REACTORS
330
62
102
}
330
62
100
AcDbPlotSettings
  1

  2

  4

  6

 40
0.0
 41
0.0
 42
0.0
 43
0.0
 44
0.0
 45
0.0
 46
0.0
 47
0.0
 48
0.0
 49
0.0
140
0.0
141
0.0
142
1.0
143
1.0
 70
  1712
 72
     0
 73
     0
 74
     0
  7

 75
     0
147
1.0
148
0.0
149
0.0
100
AcDbLayout
  1
Model
 70
     1
 71
     0
 10
0.0
 20
0.0
 11
12.0
 21
9.0
 12
0.0
 22
0.0
 32
0.0
 14
0.0
 24
0.0
 34
0.0
 15
0.0
 25
0.0
 35
0.0
146
0.0
 13
0.0
 23
0.0
 33
0.0
 16
1.0
 26
0.0
 36
0.0
 17
0.0
 27
1.0
 37
0.0
 76
     0
330
6C
331
57
  0
MATERIAL
  5
19
102
{ACAD_XDICTIONARY
360
1A
102
}
102
{ACAD_REACTORS
330
10
102
}
330
10
100
AcDbMaterial
  1
ByBlock
 72
     0
 43
0.0208333333333333
 43
0.0
 43
0.0
 43
0.0
 43
0.0
 43
0.0208333333333333
 43
0.0
 43
0.0
 43
0.0
 43
0.0
 43
1.0
 43
0.0
 43
0.0
 43
0.0
 43
0.0
 43
1.0
 77
     0
 47
0.0208333333333333
 47
0.0
 47
0.0
 47
0.0
 47
0.0
 47
0.0208333333333333
 47
0.0
 47
0.0
 47
0.0
 47
0.0
 47
1.0
 47
0.0
 47
0.0
 47
0.0
 47
0.0
 47
1.0
171
     0
 49
0.0208333333333333
 49
0.0
 49
0.0
 49
0.0
 49
0.0
 49
0.0208333333333333
 49
0.0
 49
0.0
 49
0.0
 49
0.0
 49
1.0
 49
0.0
 49
0.0
 49
0.0
 49
0.0
 49
1.0
175
     0
142
0.0208333333333333
142
0.0
142
0.0
142
0.0
142
0.0
142
0.0208333333333333
142
0.0
142
0.0
142
0.0
142
0.0
142
1.0
142
0.0
142
0.0
142
0.0
142
0.0
142
1.0
179
     0
144
0.0208333333333333
144
0.0
144
0.0
144
0.0
144
0.0
144
0.0208333333333333
144
0.0
144
0.0
144
0.0
144
0.0
144
1.0
144
0.0
144
0.0
144
0.0
144
0.0
144
1.0
147
0.0208333333333333
147
0.0
147
0.0
147
0.0
147
0.0
147
0.0208333333333333
147
0.0
147
0.0
147
0.0
147
0.0
147
1.0
147
0.0
147
0.0
147
0.0
147
0.0
147
1.0
  0
MATERIAL
  5
11
102
{ACAD_XDICTIONARY
360
12
102
}
102
{ACAD_REACTORS
330
10
102
}
330
10
100
AcDbMaterial
  1
ByLayer
 72
     0
 43
0.0208333333333333
 43
0.0
 43
0.0
 43
0.0
 43
0.0
 43
0.0208333333333333
 43
0.0
 43
0.0
 43
0.0
 43
0.0
 43
1.0
 43
0.0
 43
0.0
 43
0.0
 43
0.0
 43
1.0
 77
     0
 47
0.0208333333333333
 47
0.0
 47
0.0
 47
0.0
 47
0.0
 47
0.0208333333333333
 47
0.0
 47
0.0
 47
0.0
 47
0.0
 47
1.0
 47
0.0
 47
0.0
 47
0.0
 47
0.0
 47
1.0
171
     0
 49
0.0208333333333333
 49
0.0
 49
0.0
 49
0.0
 49
0.0
 49
0.0208333333333333
 49
0.0
 49
0.0
 49
0.0
 49
0.0
 49
1.0
 49
0.0
 49
0.0
 49
0.0
 49
0.0
 49
1.0
175
     0
142
0.0208333333333333
142
0.0
142
0.0
142
0.0
142
0.0
142
0.0208333333333333
142
0.0
142
0.0
142
0.0
142
0.0
142
1.0
142
0.0
142
0.0
142
0.0
142
0.0
142
1.0
179
     0
144
0.0208333333333333
144
0.0
144
0.0
144
0.0
144
0.0
144
0.0208333333333333
144
0.0
144
0.0
144
0.0
144
0.0
144
1.0
144
0.0
144
0.0
144
0.0
144
0.0
144
1.0
147
0.0208333333333333
147
0.0
147
0.0
147
0.0
147
0.0
147
0.0208333333333333
147
0.0
147
0.0
147
0.0
147
0.0
147
1.0
147
0.0
147
0.0
147
0.0
147
0.0
147
1.0
  0
MATERIAL
  5
21
102
{ACAD_XDICTIONARY
360
22
102
}
102
{ACAD_REACTORS
330
10
102
}
330
10
100
AcDbMaterial
  1
Global
 72
     0
 43
0.0208333333333333
 43
0.0
 43
0.0
 43
0.0
 43
0.0
 43
0.0208333333333333
 43
0.0
 43
0.0
 43
0.0
 43
0.0
 43
1.0
 43
0.0
 43
0.0
 43
0.0
 43
0.0
 43
1.0
 77
     0
 47
0.0208333333333333
 47
0.0
 47
0.0
 47
0.0
 47
0.0
 47
0.0208333333333333
 47
0.0
 47
0.0
 47
0.0
 47
0.0
 47
1.0
 47
0.0
 47
0.0
 47
0.0
 47
0.0
 47
1.0
171
     0
 49
0.0208333333333333
 49
0.0
 49
0.0
 49
0.0
 49
0.0
 49
0.0208333333333333
 49
0.0
 49
0.0
 49
0.0
 49
0.0
 49
1.0
 49
0.0
 49
0.0
 49
0.0
 49
0.0
 49
1.0
175
     0
142
0.0208333333333333
142
0.0
142
0.0
142
0.0
142
0.0
142
0.0208333333333333
142
0.0
142
0.0
142
0.0
142
0.0
142
1.0
142
0.0
142
0.0
142
0.0
142
0.0
142
1.0
179
     0
144
0.0208333333333333
144
0.0
144
0.0
144
0.0
144
0.0
144
0.0208333333333333
144
0.0
144
0.0
144
0.0
144
0.0
144
1.0
144
0.0
144
0.0
144
0.0
144
0.0
144
1.0
147
0.0208333333333333
147
0.0
147
0.0
147
0.0
147
0.0
147
0.0208333333333333
147
0.0
147
0.0
147
0.0
147
0.0
147
1.0
147
0.0
147
0.0
147
0.0
147
0.0
147
1.0
  0
MLEADERSTYLE
  5
67
102
{ACAD_REACTORS
330
66
102
}
330
66
100
AcDbMLeaderStyle
170
     2
171
     1
172
     0
 90
        2
 40
0.0
 41
0.0
173
     1
 91
-1056964608
340
5B
 92
       -2
290
     1
 42
0.09
291
     1
 43
0.36
  3
Standard
 44
0.18
300

342
55
174
     1
178
     6
175
     1
176
     0
 93
-1056964608
 45
0.18
292
     0
297
     0
 46
0.18
 94
-1056964608
 47
1.0
 49
1.0
140
1.0
293
     1
141
0.0
294
     1
177
     0
142
1.0
295
     0
296
     0
143
0.125
1001
ACAD_MLEADERVER
1070
     2
  0
MLINESTYLE
  5
60
102
{ACAD_REACTORS
330
5F
102
}
330
5F
100
AcDbMlineStyle
  2
STANDARD
 70
     0
  3

 62
   256
 51
90.0
 52
90.0
 71
     2
 49
0.5
 62
   256
  6
BYLAYER
 49
-0.5
 62
   256
  6
BYLAYER
  0
ACDBPLACEHOLDER
  5
F
102
{ACAD_REACTORS
330
E
102
}
330
E
  0
SCALE
  5
43
102
{ACAD_REACTORS
330
42
102
}
330
42
100
AcDbScale
 70
     0
300
1:1
140
1.0
141
1.0
290
     1
  0
SCALE
  5
44
102
{ACAD_REACTORS
330
42
102
}
330
42
100
AcDbScale
 70
     0
300
1/128" = 1'-0"
140
0.0078125
141
12.0
290
     0
  0
SCALE
  5
45
102
{ACAD_REACTORS
330
42
102
}
330
42
100
AcDbScale
 70
     0
300
1/64" = 1'-0"
140
0.015625
141
12.0
290
     0
  0
SCALE
  5
46
102
{ACAD_REACTORS
330
42
102
}
330
42
100
AcDbScale
 70
     0
300
1/32" = 1'-0"
140
0.03125
141
12.0
290
     0
  0
SCALE
  5
47
102
{ACAD_REACTORS
330
42
102
}
330
42
100
AcDbScale
 70
     0
300
1/16" = 1'-0"
140
0.0625
141
12.0
290
     0
  0
SCALE
  5
48
102
{ACAD_REACTORS
330
42
102
}
330
42
100
AcDbScale
 70
     0
300
3/32" = 1'-0"
140
0.09375
141
12.0
290
     0
  0
SCALE
  5
49
102
{ACAD_REACTORS
330
42
102
}
330
42
100
AcDbScale
 70
     0
300
1/8" = 1'-0"
140
0.125
141
12.0
290
     0
  0
SCALE
  5
4A
102
{ACAD_REACTORS
330
42
102
}
330
42
100
AcDbScale
 70
     0
300
3/16" = 1'-0"
140
0.1875
141
12.0
290
     0
  0
SCALE
  5
4B
102
{ACAD_REACTORS
330
42
102
}
330
42
100
AcDbScale
 70
     0
300
1/4" = 1'-0"
140
0.25
141
12.0
290
     0
  0
SCALE
  5
4C
102
{ACAD_REACTORS
330
42
102
}
330
42
100
AcDbScale
 70
     0
300
3/8" = 1'-0"
140
0.375
141
12.0
290
     0
  0
SCALE
  5
4D
102
{ACAD_REACTORS
330
42
102
}
330
42
100
AcDbScale
 70
     0
300
1/2" = 1'-0"
140
0.5
141
12.0
290
     0
  0
SCALE
  5
4E
102
{ACAD_REACTORS
330
42
102
}
330
42
100
AcDbScale
 70
     0
300
3/4" = 1'-0"
140
0.75
141
12.0
290
     0
  0
SCALE
  5
4F
102
{ACAD_REACTORS
330
42
102
}
330
42
100
AcDbScale
 70
     0
300
1" = 1'-0"
140
1.0
141
12.0
290
     0
  0
SCALE
  5
50
102
{ACAD_REACTORS
330
42
102
}
330
42
100
AcDbScale
 70
     0
300
1-1/2" = 1'-0"
140
1.5
141
12.0
290
     0
  0
SCALE
  5
51
102
{ACAD_REACTORS
330
42
102
}
330
42
100
AcDbScale
 70
     0
300
3" = 1'-0"
140
3.0
141
12.0
290
     0
  0
SCALE
  5
52
102
{ACAD_REACTORS
330
42
102
}
330
42
100
AcDbScale
 70
     0
300
6" = 1'-0"
140
6.0
141
12.0
290
     0
  0
SCALE
  5
53
102
{ACAD_REACTORS
330
42
102
}
330
42
100
AcDbScale
 70
     0
300
1'-0" = 1'-0"
140
12.0
141
12.0
290
     0
  0
TABLESTYLE
  5
65
102
{ACAD_XDICTIONARY
360
2B4
102
}
102
{ACAD_REACTORS
330
64
102
}
330
64
100
AcDbTableStyle
  3
Standard
 70
     0
 71
     0
 40
0.06
 41
0.06
280
     0
281
     0
  7
Standard
140
0.18
170
     2
 62
     0
 63
     7
283
     0
274
    -2
284
     1
 64
     0
275
    -2
285
     1
 65
     0
276
    -2
286
     1
 66
     0
277
    -2
287
     1
 67
     0
278
    -2
288
     1
 68
     0
279
    -2
289
     1
 69
     0
  7
Standard
140
0.25
170
     5
 62
     0
 63
     7
283
     0
274
    -2
284
     1
 64
     0
275
    -2
285
     1
 65
     0
276
    -2
286
     1
 66
     0
277
    -2
287
     1
 67
     0
278
    -2
288
     1
 68
     0
279
    -2
289
     1
 69
     0
  7
Standard
140
0.18
170
     5
 62
     0
 63
     7
283
     0
274
    -2
284
     1
 64
     0
275
    -2
285
     1
 65
     0
276
    -2
286
     1
 66
     0
277
    -2
287
     1
 67
     0
278
    -2
288
     1
 68
     0
279
    -2
289
     1
 69
     0
  0
VISUALSTYLE
  5
2F
102
{ACAD_XDICTIONARY
360
330
102
}
102
{ACAD_REACTORS
330
29
102
}
330
29
100
AcDbVisualStyle
  2
2dWireframe
 70
     4
 71
     0
 72
     2
 73
     0
 90
        0
 40
-0.6
 41
-30.0
 62
     5
 63
     7
 74
     1
 91
        4
 64
     7
 65
   257
 75
     1
175
     1
 42
1.0
 92
        0
 66
   257
 43
1.0
 76
     1
 77
     6
 78
     2
 67
     7
 79
     5
170
     0
171
     0
290
     0
174
     0
 93
        1
 44
0.0
173
     0
291
     0
 45
0.0
1001
ACAD
1000
AcDbSavedByObjectVersion
1070
     0
  0
VISUALSTYLE
  5
2E
102
{ACAD_XDICTIONARY
360
32E
102
}
102
{ACAD_REACTORS
330
29
102
}
330
29
100
AcDbVisualStyle
  2
Basic
 70
     7
 71
     1
 72
     0
 73
     1
 90
        0
 40
-0.6
 41
-30.0
 62
     5
 63
     7
 74
     0
 91
        4
 64
     7
 65
   257
 75
     1
175
     1
 42
1.0
 92
        8
 66
     7
 43
1.0
 76
     1
 77
     6
 78
     2
 67
     7
 79
     5
170
     0
171
     0
290
     0
174
     0
 93
        1
 44
0.0
173
     0
291
     1
 45
0.0
1001
ACAD
1000
AcDbSavedByObjectVersion
1070
     0
  0
VISUALSTYLE
  5
35
102
{ACAD_XDICTIONARY
360
33C
102
}
102
{ACAD_REACTORS
330
29
102
}
330
29
100
AcDbVisualStyle
  2
Brighten
 70
    12
 71
     2
 72
     2
 73
     0
 90
        0
 40
-0.6
 41
-30.0
 62
     5
 63
     7
 74
     1
 91
        4
 64
     7
 65
   257
 75
     1
175
     1
 42
1.0
 92
        8
 66
     7
 43
1.0
 76
     1
 77
     6
 78
     2
 67
     7
 79
     5
170
     0
171
     0
290
     0
174
     0
 93
        1
 44
50.0
173
     0
291
     1
 45
0.0
1001
ACAD
1000
AcDbSavedByObjectVersion
1070
     0
  0
VISUALSTYLE
  5
39
102
{ACAD_XDICTIONARY
360
344
102
}
102
{ACAD_REACTORS
330
29
102
}
330
29
100
AcDbVisualStyle
  2
ColorChange
 70
    16
 71
     2
 72
     2
 73
     3
 90
        0
 40
-0.6
 41
-30.0
 62
     5
 63
     8
 74
     1
 91
        4
 64
     7
 65
   257
 75
     1
175
     1
 42
1.0
 92
        8
 66
     8
 43
1.0
 76
     1
 77
     6
 78
     2
 67
     7
 79
     5
170
     0
171
     0
290
     0
174
     0
 93
        1
 44
0.0
173
     0
291
     1
 45
0.0
1001
ACAD
1000
AcDbSavedByObjectVersion
1070
     0
  0
VISUALSTYLE
  5
32
102
{ACAD_XDICTIONARY
360
336
102
}
102
{ACAD_REACTORS
330
29
102
}
330
29
100
AcDbVisualStyle
  2
Conceptual
 70
     9
 71
     3
 72
     2
 73
     0
 90
        0
 40
-0.6
 41
-30.0
 62
     5
 63
     7
 74
     2
 91
        2
 64
     7
 65
   257
 75
     1
175
     1
 42
179.0
 92
        8
 66
     7
 43
1.0
 76
     1
 77
     6
 78
     2
 67
     7
 79
     3
170
     0
171
     0
290
     0
174
     0
 93
        1
 44
0.0
173
     0
291
     0
 45
0.0
1001
ACAD
1000
AcDbSavedByObjectVersion
1070
     0
  0
VISUALSTYLE
  5
34
102
{ACAD_XDICTIONARY
360
33A
102
}
102
{ACAD_REACTORS
330
29
102
}
330
29
100
AcDbVisualStyle
  2
Dim
 70
    11
 71
     2
 72
     2
 73
     0
 90
        0
 40
-0.6
 41
-30.0
 62
     5
 63
     7
 74
     1
 91
        4
 64
     7
 65
   257
 75
     1
175
     1
 42
1.0
 92
        8
 66
     7
 43
1.0
 76
     1
 77
     6
 78
     2
 67
     7
 79
     5
170
     0
171
     0
290
     0
174
     0
 93
        1
 44
-50.0
173
     0
291
     1
 45
0.0
1001
ACAD
1000
AcDbSavedByObjectVersion
1070
     0
  0
VISUALSTYLE
  5
41
102
{ACAD_XDICTIONARY
360
354
102
}
102
{ACAD_REACTORS
330
29
102
}
330
29
100
AcDbVisualStyle
  2
EdgeColorOff
 70
    22
 71
     2
 72
     2
 73
     0
 90
        0
 40
-0.6
 41
-30.0
 62
     5
 63
     7
 74
     1
 91
        4
 64
     7
 65
   257
 75
     1
175
     1
 42
1.0
 92
        8
 66
     7
 43
1.0
 76
     1
 77
     6
 78
     2
 67
     7
 79
     5
170
     0
171
     0
290
     0
174
     0
 93
        1
 44
0.0
173
     0
291
     1
 45
0.0
1001
ACAD
1000
AcDbSavedByObjectVersion
1070
     0
  0
VISUALSTYLE
  5
38
102
{ACAD_XDICTIONARY
360
342
102
}
102
{ACAD_REACTORS
330
29
102
}
330
29
100
AcDbVisualStyle
  2
Facepattern
 70
    15
 71
     2
 72
     2
 73
     0
 90
        0
 40
-0.6
 41
-30.0
 62
     5
 63
     7
 74
     1
 91
        4
 64
     7
 65
   257
 75
     1
175
     1
 42
1.0
 92
        8
 66
     7
 43
1.0
 76
     1
 77
     6
 78
     2
 67
     7
 79
     5
170
     0
171
     0
290
     0
174
     0
 93
        1
 44
0.0
173
     0
291
     1
 45
0.0
1001
ACAD
1000
AcDbSavedByObjectVersion
1070
     0
  0
VISUALSTYLE
  5
2A
102
{ACAD_XDICTIONARY
360
326
102
}
102
{ACAD_REACTORS
330
29
102
}
330
29
100
AcDbVisualStyle
  2
Flat
 70
     0
 71
     2
 72
     1
 73
     1
 90
        2
 40
-0.6
 41
30.0
 62
     5
 63
     7
 74
     0
 91
        0
 64
     7
 65
   257
 75
     1
175
     1
 42
1.0
 92
        8
 66
     7
 43
1.0
 76
     1
 77
     6
 78
     2
 67
     7
 79
     5
170
     0
171
     0
290
     0
174
     0
 93
       13
 44
0.0
173
     0
291
     1
 45
0.0
1001
ACAD
1000
AcDbSavedByObjectVersion
1070
     0
  0
VISUALSTYLE
  5
2B
102
{ACAD_XDICTIONARY
360
328
102
}
102
{ACAD_REACTORS
330
29
102
}
330
29
100
AcDbVisualStyle
  2
FlatWithEdges
 70
     1
 71
     2
 72
     1
 73
     1
 90
        2
 40
-0.6
 41
30.0
 62
     5
 63
     7
 74
     1
 91
        0
 64
     7
 65
   257
 75
     1
175
     1
 42
1.0
 92
        0
 66
   257
 43
1.0
 76
     1
 77
     6
 78
     2
 67
     7
 79
     5
170
     0
171
     0
290
     0
174
     0
 93
       13
 44
0.0
173
     0
291
     1
 45
0.0
1001
ACAD
1000
AcDbSavedByObjectVersion
1070
     0
  0
VISUALSTYLE
  5
2C
102
{ACAD_XDICTIONARY
360
32A
102
}
102
{ACAD_REACTORS
330
29
102
}
330
29
100
AcDbVisualStyle
  2
Gouraud
 70
     2
 71
     2
 72
     2
 73
     1
 90
        2
 40
-0.6
 41
30.0
 62
     5
 63
     7
 74
     0
 91
        0
 64
     7
 65
   257
 75
     1
175
     1
 42
1.0
 92
        0
 66
     7
 43
1.0
 76
     1
 77
     6
 78
     2
 67
     7
 79
     5
170
     0
171
     0
290
     0
174
     0
 93
       13
 44
0.0
173
     0
291
     1
 45
0.0
1001
ACAD
1000
AcDbSavedByObjectVersion
1070
     0
  0
VISUALSTYLE
  5
2D
102
{ACAD_XDICTIONARY
360
32C
102
}
102
{ACAD_REACTORS
330
29
102
}
330
29
100
AcDbVisualStyle
  2
GouraudWithEdges
 70
     3
 71
     2
 72
     2
 73
     1
 90
        2
 40
-0.6
 41
30.0
 62
     5
 63
     7
 74
     1
 91
        0
 64
     7
 65
   257
 75
     1
175
     1
 42
1.0
 92
        0
 66
   257
 43
1.0
 76
     1
 77
     6
 78
     2
 67
     7
 79
     5
170
     0
171
     0
290
     0
174
     0
 93
       13
 44
0.0
173
     0
291
     1
 45
0.0
1001
ACAD
1000
AcDbSavedByObjectVersion
1070
     0
  0
VISUALSTYLE
  5
31
102
{ACAD_XDICTIONARY
360
334
102
}
102
{ACAD_REACTORS
330
29
102
}
330
29
100
AcDbVisualStyle
  2
Hidden
 70
     6
 71
     1
 72
     2
 73
     2
 90
        0
 40
-0.6
 41
-30.0
 62
     5
 63
     7
 74
     2
 91
        2
 64
     7
 65
   257
 75
     2
175
     1
 42
40.0
 92
        0
 66
   257
 43
1.0
 76
     1
 77
     6
 78
     2
 67
     7
 79
     3
170
     0
171
     0
290
     0
174
     0
 93
        1
 44
0.0
173
     0
291
     0
 45
0.0
1001
ACAD
1000
AcDbSavedByObjectVersion
1070
     0
  0
VISUALSTYLE
  5
3F
102
{ACAD_XDICTIONARY
360
350
102
}
102
{ACAD_REACTORS
330
29
102
}
330
29
100
AcDbVisualStyle
  2
JitterOff
 70
    20
 71
     2
 72
     2
 73
     0
 90
        0
 40
-0.6
 41
-30.0
 62
     5
 63
     7
 74
     1
 91
        4
 64
     7
 65
   257
 75
     1
175
     1
 42
1.0
 92
       10
 66
     7
 43
1.0
 76
     1
 77
     6
 78
     2
 67
     7
 79
     5
170
     0
171
     0
290
     0
174
     0
 93
        1
 44
0.0
173
     0
291
     1
 45
0.0
1001
ACAD
1000
AcDbSavedByObjectVersion
1070
     0
  0
VISUALSTYLE
  5
37
102
{ACAD_XDICTIONARY
360
340
102
}
102
{ACAD_REACTORS
330
29
102
}
330
29
100
AcDbVisualStyle
  2
Linepattern
 70
    14
 71
     2
 72
     2
 73
     0
 90
        0
 40
-0.6
 41
-30.0
 62
     5
 63
     7
 74
     1
 91
        4
 64
     7
 65
   257
 75
     7
175
     7
 42
1.0
 92
        8
 66
     7
 43
1.0
 76
     1
 77
     6
 78
     2
 67
     7
 79
     5
170
     0
171
     0
290
     0
174
     0
 93
        1
 44
0.0
173
     0
291
     1
 45
0.0
1001
ACAD
1000
AcDbSavedByObjectVersion
1070
     0
  0
VISUALSTYLE
  5
40
102
{ACAD_XDICTIONARY
360
352
102
}
102
{ACAD_REACTORS
330
29
102
}
330
29
100
AcDbVisualStyle
  2
OverhangOff
 70
    21
 71
     2
 72
     2
 73
     0
 90
        0
 40
-0.6
 41
-30.0
 62
     5
 63
     7
 74
     1
 91
        4
 64
     7
 65
   257
 75
     1
175
     1
 42
1.0
 92
        9
 66
     7
 43
1.0
 76
     1
 77
     6
 78
     2
 67
     7
 79
     5
170
     0
171
     0
290
     0
174
     0
 93
        1
 44
0.0
173
     0
291
     1
 45
0.0
1001
ACAD
1000
AcDbSavedByObjectVersion
1070
     0
  0
VISUALSTYLE
  5
33
102
{ACAD_XDICTIONARY
360
338
102
}
102
{ACAD_REACTORS
330
29
102
}
330
29
100
AcDbVisualStyle
  2
Realistic
 70
     8
 71
     2
 72
     2
 73
     0
 90
        2
 40
-0.6
 41
30.0
 62
     5
 63
     7
 74
     0
 91
        0
 64
     7
 65
   257
 75
     1
175
     1
 42
1.0
 92
        8
 66
   257
 43
1.0
 76
     1
 77
     6
 78
     2
 67
     7
 79
     3
170
     0
171
     0
290
     0
174
     0
 93
       13
 44
0.0
173
     0
291
     0
 45
0.0
1001
ACAD
1000
AcDbSavedByObjectVersion
1070
     0
  0
VISUALSTYLE
  5
3E
102
{ACAD_XDICTIONARY
360
34E
102
}
102
{ACAD_REACTORS
330
29
102
}
330
29
100
AcDbVisualStyle
  2
Shaded
 70
    27
 71
     2
 72
     2
 73
     1
 90
        2
 40
-0.6
 41
30.0
 62
     5
 63
     7
 74
     0
 91
        4
 64
     7
 65
   257
 75
     1
175
     1
 42
1.0
 92
        8
 66
   257
 43
1.0
 76
     1
 77
     6
 78
     2
 67
     8
 79
     3
170
     0
171
     0
290
     0
174
     0
 93
        5
 44
0.0
173
     0
291
     0
 45
0.0
1001
ACAD
1000
AcDbSavedByObjectVersion
1070
     0
  0
VISUALSTYLE
  5
3D
102
{ACAD_XDICTIONARY
360
34C
102
}
102
{ACAD_REACTORS
330
29
102
}
330
29
100
AcDbVisualStyle
  2
Shaded with edges
 70
    26
 71
     2
 72
     2
 73
     1
 90
        2
 40
-0.6
 41
30.0
 62
     5
 63
     7
 74
     1
 91
       10
 64
     7
 65
   257
 75
     2
175
     1
 42
1.0
 92
        8
 66
   257
 43
1.0
 76
     1
 77
     6
 78
     2
 67
     7
 79
     3
170
     0
171
     0
290
     0
174
     0
 93
        5
 44
0.0
173
     0
291
     0
 45
0.0
1001
ACAD
1000
AcDbSavedByObjectVersion
1070
     0
  0
VISUALSTYLE
  5
3A
102
{ACAD_XDICTIONARY
360
346
102
}
102
{ACAD_REACTORS
330
29
102
}
330
29
100
AcDbVisualStyle
  2
Shades of Gray
 70
    23
 71
     2
 72
     2
 73
     3
 90
        0
 40
-0.6
 41
-30.0
 62
     5
 63
     7
 74
     2
 91
        2
 64
     7
 65
     7
 75
     1
175
     1
 42
40.0
 92
        8
 66
     7
 43
1.0
 76
     1
 77
     6
 78
     2
 67
     7
 79
     3
170
     0
171
     0
290
     0
174
     0
 93
        1
 44
0.0
173
     0
291
     0
 45
0.0
1001
ACAD
1000
AcDbSavedByObjectVersion
1070
     0
  0
VISUALSTYLE
  5
3B
102
{ACAD_XDICTIONARY
360
348
102
}
102
{ACAD_REACTORS
330
29
102
}
330
29
100
AcDbVisualStyle
  2
Sketchy
 70
    24
 71
     1
 72
     2
 73
     2
 90
        0
 40
-0.6
 41
-30.0
 62
     5
 63
     7
 74
     2
 91
        2
 64
     7
 65
     7
 75
     1
175
     1
 42
40.0
 92
       11
 66
     7
 43
1.0
 76
     1
 77
     6
 78
     2
 67
     7
 79
     6
170
     0
171
     0
290
     0
174
     0
 93
        1
 44
0.0
173
     0
291
     0
 45
0.0
1001
ACAD
1000
AcDbSavedByObjectVersion
1070
     0
  0
VISUALSTYLE
  5
36
102
{ACAD_XDICTIONARY
360
33E
102
}
102
{ACAD_REACTORS
330
29
102
}
330
29
100
AcDbVisualStyle
  2
Thicken
 70
    13
 71
     2
 72
     2
 73
     0
 90
        0
 40
-0.6
 41
-30.0
 62
     5
 63
     7
 74
     1
 91
        4
 64
     7
 65
   257
 75
     1
175
     1
 42
1.0
 92
       12
 66
     7
 43
1.0
 76
     1
 77
     6
 78
     2
 67
     7
 79
     5
170
     0
171
     0
290
     0
174
     0
 93
        1
 44
0.0
173
     0
291
     1
 45
0.0
1001
ACAD
1000
AcDbSavedByObjectVersion
1070
     0
  0
VISUALSTYLE
  5
30
102
{ACAD_XDICTIONARY
360
332
102
}
102
{ACAD_REACTORS
330
29
102
}
330
29
100
AcDbVisualStyle
  2
Wireframe
 70
     5
 71
     0
 72
     2
 73
     0
 90
        0
 40
-0.6
 41
-30.0
 62
     5
 63
     7
 74
     1
 91
        4
 64
     7
 65
   257
 75
     1
175
     1
 42
1.0
 92
        0
 66
   257
 43
1.0
 76
     1
 77
     6
 78
     2
 67
     7
 79
     3
170
     0
171
     0
290
     0
174
     0
 93
        1
 44
0.0
173
     0
291
     0
 45
0.0
1001
ACAD
1000
AcDbSavedByObjectVersion
1070
     0
  0
VISUALSTYLE
  5
3C
102
{ACAD_XDICTIONARY
360
34A
102
}
102
{ACAD_REACTORS
330
29
102
}
330
29
100
AcDbVisualStyle
  2
X-Ray
 70
    25
 71
     2
 72
     2
 73
     1
 90
        1
 40
0.5
 41
-30.0
 62
     5
 63
     7
 74
     1
 91
        0
 64
     7
 65
   257
 75
     1
175
     1
 42
1.0
 92
        8
 66
     7
 43
1.0
 76
     1
 77
     6
 78
     2
 67
     7
 79
     3
170
     0
171
     0
290
     0
174
     0
 93
       13
 44
0.0
173
     0
291
     0
 45
0.0
1001
ACAD
1000
AcDbSavedByObjectVersion
1070
     0
  0
DICTIONARYVAR
  5
77
102
{ACAD_REACTORS
330
74
102
}
330
74
100
DictionaryVariables
280
     0
  1
1:1
  0
DICTIONARYVAR
  5
76
102
{ACAD_REACTORS
330
74
102
}
330
74
100
DictionaryVariables
280
     0
  1
STANDARD
  0
DICTIONARYVAR
  5
75
102
{ACAD_REACTORS
330
74
102
}
330
74
100
DictionaryVariables
280
     0
  1
STANDARD
  0
DICTIONARYVAR
  5
300
102
{ACAD_REACTORS
330
74
102
}
330
74
100
DictionaryVariables
280
     0
  1
1
  0
DICTIONARYVAR
  5
2FF
102
{ACAD_REACTORS
330
74
102
}
330
74
100
DictionaryVariables
280
     0
  1
1
  0
DICTIONARYVAR
  5
2FE
102
{ACAD_REACTORS
330
74
102
}
330
74
100
DictionaryVariables
280
     0
  1
0
  0
DICTIONARYVAR
  5
2FB
102
{ACAD_REACTORS
330
74
102
}
330
74
100
DictionaryVariables
280
     0
  1
0
  0
DICTIONARYVAR
  5
2FC
102
{ACAD_REACTORS
330
74
102
}
330
74
100
DictionaryVariables
280
     0
  1
0
  0
DICTIONARYVAR
  5
2FA
102
{ACAD_REACTORS
330
74
102
}
330
74
100
DictionaryVariables
280
     0
  1
2
  0
DICTIONARYVAR
  5
2F9
102
{ACAD_REACTORS
330
74
102
}
330
74
100
DictionaryVariables
280
     0
  1
1
  0
DICTIONARYVAR
  5
2FD
102
{ACAD_REACTORS
330
74
102
}
330
74
100
DictionaryVariables
280
     0
  1
127
  0
DICTIONARYVAR
  5
31F
102
{ACAD_REACTORS
330
74
102
}
330
74
100
DictionaryVariables
280
     0
  1
2
  0
DICTIONARY
  5
357
330
6B
100
AcDbDictionary
280
     1
281
     1
  3
ACAD_XREC_ROUNDTRIP
360
358
  0
DICTIONARY
  5
35B
330
73
100
AcDbDictionary
280
     1
281
     1
  3
ACAD_XREC_ROUNDTRIP
360
35C
  0
DICTIONARY
  5
359
330
6F
100
AcDbDictionary
280
     1
281
     1
  3
ACAD_XREC_ROUNDTRIP
360
35A
  0
DICTIONARY
  5
1A
330
19
100
AcDbDictionary
280
     1
281
     1
  3
ACAD_XREC_ROUNDTRIP
360
324
  3
BUMPTILE
360
1C
  3
DIFFUSETILE
360
1B
  3
OPACITYTILE
360
1F
  3
REFLECTIONTILE
360
1E
  3
REFRACTIONTILE
360
20
  3
SPECULARTILE
360
1D
  0
DICTIONARY
  5
12
330
11
100
AcDbDictionary
280
     1
281
     1
  3
ACAD_XREC_ROUNDTRIP
360
323
  3
BUMPTILE
360
14
  3
DIFFUSETILE
360
13
  3
OPACITYTILE
360
17
  3
REFLECTIONTILE
360
16
  3
REFRACTIONTILE
360
18
  3
SPECULARTILE
360
15
  0
DICTIONARY
  5
22
330
21
100
AcDbDictionary
280
     1
281
     1
  3
ACAD_XREC_ROUNDTRIP
360
325
  3
BUMPTILE
360
24
  3
DIFFUSETILE
360
23
  3
OPACITYTILE
360
27
  3
REFLECTIONTILE
360
26
  3
REFRACTIONTILE
360
28
  3
SPECULARTILE
360
25
  0
DICTIONARY
  5
2B4
330
65
100
AcDbDictionary
280
     1
281
     1
  3
ACAD_ROUNDTRIP_2008_TABLESTYLE_CELLSTYLEMAP
360
320
  3
ACAD_XREC_ROUNDTRIP
360
356
  0
DICTIONARY
  5
330
330
2F
100
AcDbDictionary
280
     1
281
     1
  3
ACAD_XREC_ROUNDTRIP
360
331
  0
DICTIONARY
  5
32E
330
2E
100
AcDbDictionary
280
     1
281
     1
  3
ACAD_XREC_ROUNDTRIP
360
32F
  0
DICTIONARY
  5
33C
330
35
100
AcDbDictionary
280
     1
281
     1
  3
ACAD_XREC_ROUNDTRIP
360
33D
  0
DICTIONARY
  5
344
330
39
100
AcDbDictionary
280
     1
281
     1
  3
ACAD_XREC_ROUNDTRIP
360
345
  0
DICTIONARY
  5
336
330
32
100
AcDbDictionary
280
     1
281
     1
  3
ACAD_XREC_ROUNDTRIP
360
337
  0
DICTIONARY
  5
33A
330
34
100
AcDbDictionary
280
     1
281
     1
  3
ACAD_XREC_ROUNDTRIP
360
33B
  0
DICTIONARY
  5
354
330
41
100
AcDbDictionary
280
     1
281
     1
  3
ACAD_XREC_ROUNDTRIP
360
355
  0
DICTIONARY
  5
342
330
38
100
AcDbDictionary
280
     1
281
     1
  3
ACAD_XREC_ROUNDTRIP
360
343
  0
DICTIONARY
  5
326
330
2A
100
AcDbDictionary
280
     1
281
     1
  3
ACAD_XREC_ROUNDTRIP
360
327
  0
DICTIONARY
  5
328
330
2B
100
AcDbDictionary
280
     1
281
     1
  3
ACAD_XREC_ROUNDTRIP
360
329
  0
DICTIONARY
  5
32A
330
2C
100
AcDbDictionary
280
     1
281
     1
  3
ACAD_XREC_ROUNDTRIP
360
32B
  0
DICTIONARY
  5
32C
330
2D
100
AcDbDictionary
280
     1
281
     1
  3
ACAD_XREC_ROUNDTRIP
360
32D
  0
DICTIONARY
  5
334
330
31
100
AcDbDictionary
280
     1
281
     1
  3
ACAD_XREC_ROUNDTRIP
360
335
  0
DICTIONARY
  5
350
330
3F
100
AcDbDictionary
280
     1
281
     1
  3
ACAD_XREC_ROUNDTRIP
360
351
  0
DICTIONARY
  5
340
330
37
100
AcDbDictionary
280
     1
281
     1
  3
ACAD_XREC_ROUNDTRIP
360
341
  0
DICTIONARY
  5
352
330
40
100
AcDbDictionary
280
     1
281
     1
  3
ACAD_XREC_ROUNDTRIP
360
353
  0
DICTIONARY
  5
338
330
33
100
AcDbDictionary
280
     1
281
     1
  3
ACAD_XREC_ROUNDTRIP
360
339
  0
DICTIONARY
  5
34E
330
3E
100
AcDbDictionary
280
     1
281
     1
  3
ACAD_XREC_ROUNDTRIP
360
34F
  0
DICTIONARY
  5
34C
330
3D
100
AcDbDictionary
280
     1
281
     1
  3
ACAD_XREC_ROUNDTRIP
360
34D
  0
DICTIONARY
  5
346
330
3A
100
AcDbDictionary
280
     1
281
     1
  3
ACAD_XREC_ROUNDTRIP
360
347
  0
DICTIONARY
  5
348
330
3B
100
AcDbDictionary
280
     1
281
     1
  3
ACAD_XREC_ROUNDTRIP
360
349
  0
DICTIONARY
  5
33E
330
36
100
AcDbDictionary
280
     1
281
     1
  3
ACAD_XREC_ROUNDTRIP
360
33F
  0
DICTIONARY
  5
332
330
30
100
AcDbDictionary
280
     1
281
     1
  3
ACAD_XREC_ROUNDTRIP
360
333
  0
DICTIONARY
  5
34A
330
3C
100
AcDbDictionary
280
     1
281
     1
  3
ACAD_XREC_ROUNDTRIP
360
34B
  0
XRECORD
  5
358
102
{ACAD_REACTORS
330
357
102
}
330
357
100
AcDbXrecord
280
     1
102
SHADEPLOT
 70
     0
102
SHADEPLOTRESLEVEL
 70
     2
102
SHADEPLOTCUSTOMDPI
 70
   300
  0
XRECORD
  5
35C
102
{ACAD_REACTORS
330
35B
102
}
330
35B
100
AcDbXrecord
280
     1
102
SHADEPLOT
 70
     0
102
SHADEPLOTRESLEVEL
 70
     2
102
SHADEPLOTCUSTOMDPI
 70
   300
  0
XRECORD
  5
35A
102
{ACAD_REACTORS
330
359
102
}
330
359
100
AcDbXrecord
280
     1
102
SHADEPLOT
 70
     0
102
SHADEPLOTRESLEVEL
 70
     2
102
SHADEPLOTCUSTOMDPI
 70
   300
  0
XRECORD
  5
324
102
{ACAD_REACTORS
330
1A
102
}
330
1A
100
AcDbXrecord
280
     1
102
MATERIAL
148
0.0
149
0.0
149
0.0
 93
        0
 94
      127
282
     0
 72
     0
 77
     0
171
     0
175
     0
179
     0
273
     0
  0
XRECORD
  5
1C
102
{ACAD_REACTORS
330
1A
102
}
330
1A
100
AcDbXrecord
280
     1
270
     1
271
     1
  0
XRECORD
  5
1B
102
{ACAD_REACTORS
330
1A
102
}
330
1A
100
AcDbXrecord
280
     1
270
     1
271
     1
  0
XRECORD
  5
1F
102
{ACAD_REACTORS
330
1A
102
}
330
1A
100
AcDbXrecord
280
     1
270
     1
271
     1
  0
XRECORD
  5
1E
102
{ACAD_REACTORS
330
1A
102
}
330
1A
100
AcDbXrecord
280
     1
270
     1
271
     1
  0
XRECORD
  5
20
102
{ACAD_REACTORS
330
1A
102
}
330
1A
100
AcDbXrecord
280
     1
270
     1
271
     1
  0
XRECORD
  5
1D
102
{ACAD_REACTORS
330
1A
102
}
330
1A
100
AcDbXrecord
280
     1
270
     1
271
     1
  0
XRECORD
  5
323
102
{ACAD_REACTORS
330
12
102
}
330
12
100
AcDbXrecord
280
     1
102
MATERIAL
148
0.0
149
0.0
149
0.0
 93
        0
 94
      127
282
     0
 72
     0
 77
     0
171
     0
175
     0
179
     0
273
     0
  0
XRECORD
  5
14
102
{ACAD_REACTORS
330
12
102
}
330
12
100
AcDbXrecord
280
     1
270
     1
271
     1
  0
XRECORD
  5
13
102
{ACAD_REACTORS
330
12
102
}
330
12
100
AcDbXrecord
280
     1
270
     1
271
     1
  0
XRECORD
  5
17
102
{ACAD_REACTORS
330
12
102
}
330
12
100
AcDbXrecord
280
     1
270
     1
271
     1
  0
XRECORD
  5
16
102
{ACAD_REACTORS
330
12
102
}
330
12
100
AcDbXrecord
280
     1
270
     1
271
     1
  0
XRECORD
  5
18
102
{ACAD_REACTORS
330
12
102
}
330
12
100
AcDbXrecord
280
     1
270
     1
271
     1
  0
XRECORD
  5
15
102
{ACAD_REACTORS
330
12
102
}
330
12
100
AcDbXrecord
280
     1
270
     1
271
     1
  0
XRECORD
  5
325
102
{ACAD_REACTORS
330
22
102
}
330
22
100
AcDbXrecord
280
     1
102
MATERIAL
148
0.0
149
0.0
149
0.0
 93
        0
 94
      127
282
     0
 72
     0
 77
     0
171
     0
175
     0
179
     0
273
     0
  0
XRECORD
  5
24
102
{ACAD_REACTORS
330
22
102
}
330
22
100
AcDbXrecord
280
     1
270
     1
271
     1
  0
XRECORD
  5
23
102
{ACAD_REACTORS
330
22
102
}
330
22
100
AcDbXrecord
280
     1
270
     1
271
     1
  0
XRECORD
  5
27
102
{ACAD_REACTORS
330
22
102
}
330
22
100
AcDbXrecord
280
     1
270
     1
271
     1
  0
XRECORD
  5
26
102
{ACAD_REACTORS
330
22
102
}
330
22
100
AcDbXrecord
280
     1
270
     1
271
     1
  0
XRECORD
  5
28
102
{ACAD_REACTORS
330
22
102
}
330
22
100
AcDbXrecord
280
     1
270
     1
271
     1
  0
XRECORD
  5
25
102
{ACAD_REACTORS
330
22
102
}
330
22
100
AcDbXrecord
280
     1
270
     1
271
     1
  0
CELLSTYLEMAP
  5
320
102
{ACAD_REACTORS
330
2B4
102
}
330
2B4
100
AcDbCellStyleMap
 90
        3
300
CELLSTYLE
  1
TABLEFORMAT_BEGIN
 90
        5
170
     1
 91
        0
 92
    32768
 62
   257
 93
        1
300
CONTENTFORMAT
  1
CONTENTFORMAT_BEGIN
 90
        0
 91
        0
 92
      512
 93
        0
300

 40
0.0
140
1.0
 94
        5
 62
     0
340
55
144
0.25
309
CONTENTFORMAT_END
171
     0
 94
        0
309
TABLEFORMAT_END
  1
CELLSTYLE_BEGIN
 90
        1
 91
        1
300
_TITLE
309
CELLSTYLE_END
300
CELLSTYLE
  1
TABLEFORMAT_BEGIN
 90
        5
170
     1
 91
        0
 92
        0
 62
   257
 93
        1
300
CONTENTFORMAT
  1
CONTENTFORMAT_BEGIN
 90
        0
 91
        0
 92
      512
 93
        0
300

 40
0.0
140
1.0
 94
        5
 62
     0
340
55
144
0.18
309
CONTENTFORMAT_END
171
     0
 94
        0
309
TABLEFORMAT_END
  1
CELLSTYLE_BEGIN
 90
        2
 91
        1
300
_HEADER
309
CELLSTYLE_END
300
CELLSTYLE
  1
TABLEFORMAT_BEGIN
 90
        5
170
     1
 91
        0
 92
        0
 62
   257
 93
        1
300
CONTENTFORMAT
  1
CONTENTFORMAT_BEGIN
 90
        0
 91
        0
 92
      512
 93
        0
300

 40
0.0
140
1.0
 94
        2
 62
     0
340
55
144
0.18
309
CONTENTFORMAT_END
171
     0
 94
        0
309
TABLEFORMAT_END
  1
CELLSTYLE_BEGIN
 90
        3
 91
        2
300
_DATA
309
CELLSTYLE_END
  0
XRECORD
  5
356
102
{ACAD_REACTORS
330
2B4
102
}
330
2B4
100
AcDbXrecord
280
     1
102
ACAD_ROUNDTRIP_PRE2007_TABLESTYLE
 90
      512
 91
        0
  1

 92
      512
 93
        0
  2

 94
      512
 95
        0
  3

  0
XRECORD
  5
331
102
{ACAD_REACTORS
330
330
102
}
330
330
100
AcDbXrecord
280
     1
102
RTVSPropertyOp0
 70
     1
102
RTVSPropertyOp1
 70
     1
102
RTVSPropertyOp2
 70
     1
102
RTVSPropertyOp3
 70
     1
102
RTVSPropertyOp4
 70
     1
102
RTVSPropertyOp5
 70
     1
102
RTVSPropertyOp6
 70
     1
102
RTVSPropertyOp7
 70
     1
102
RTVSPropertyOp8
 70
     1
102
RTVSPropertyOp9
 70
     1
102
RTVSPropertyOp10
 70
     1
102
RTVSPropertyOp11
 70
     1
102
RTVSPropertyOp12
 70
     1
102
RTVSPropertyOp13
 70
     1
102
RTVSPropertyOp14
 70
     1
102
RTVSPropertyOp15
 70
     1
102
RTVSPropertyOp16
 70
     1
102
RTVSPropertyOp17
 70
     1
102
RTVSPropertyOp18
 70
     1
102
RTVSPropertyOp19
 70
     1
102
RTVSPropertyOp20
 70
     1
102
RTVSPropertyOp21
 70
     1
102
RTVSPropertyOp22
 70
     1
102
RTVSPropertyOp23
 70
     1
102
RTVSPropertyOp24
 70
     1
102
RTVSPropertyOp25
 70
     1
102
RTVSPropertyOp26
 70
     1
102
RTVSPropertyOp27
 70
     1
102
RTVSPropertyOp28
 70
     1
102
RTVSPropertyOp29
 70
     1
102
RTVSPropertyOp30
 70
     1
102
RTVSPropertyOp31
 70
     1
102
RTVSPropertyOp32
 70
     1
  0
XRECORD
  5
32F
102
{ACAD_REACTORS
330
32E
102
}
330
32E
100
AcDbXrecord
280
     1
102
RTVSPropertyOp0
 70
     1
102
RTVSPropertyOp1
 70
     1
102
RTVSPropertyOp2
 70
     1
102
RTVSPropertyOp3
 70
     1
102
RTVSPropertyOp4
 70
     1
102
RTVSPropertyOp5
 70
     1
102
RTVSPropertyOp6
 70
     1
102
RTVSPropertyOp7
 70
     1
102
RTVSPropertyOp8
 70
     1
102
RTVSPropertyOp9
 70
     1
102
RTVSPropertyOp10
 70
     1
102
RTVSPropertyOp11
 70
     1
102
RTVSPropertyOp12
 70
     1
102
RTVSPropertyOp13
 70
     1
102
RTVSPropertyOp14
 70
     1
102
RTVSPropertyOp15
 70
     1
102
RTVSPropertyOp16
 70
     1
102
RTVSPropertyOp17
 70
     1
102
RTVSPropertyOp18
 70
     1
102
RTVSPropertyOp19
 70
     1
102
RTVSPropertyOp20
 70
     1
102
RTVSPropertyOp21
 70
     1
102
RTVSPropertyOp22
 70
     1
102
RTVSPropertyOp23
 70
     1
102
RTVSPropertyOp24
 70
     1
102
RTVSPropertyOp25
 70
     1
102
RTVSPropertyOp26
 70
     1
102
RTVSPropertyOp27
 70
     1
102
RTVSPropertyOp28
 70
     1
102
RTVSPropertyOp29
 70
     1
102
RTVSPropertyOp30
 70
     1
102
RTVSPropertyOp31
 70
     1
102
RTVSPropertyOp32
 70
     1
  0
XRECORD
  5
33D
102
{ACAD_REACTORS
330
33C
102
}
330
33C
100
AcDbXrecord
280
     1
102
RTVSPropertyOp0
 70
     1
102
RTVSPropertyOp1
 70
     1
102
RTVSPropertyOp2
 70
     1
102
RTVSPropertyOp3
 70
     1
102
RTVSPropertyOp4
 70
     1
102
RTVSPropertyOp5
 70
     1
102
RTVSPropertyOp6
 70
     1
102
RTVSPropertyOp7
 70
     1
102
RTVSPropertyOp8
 70
     1
102
RTVSPropertyOp9
 70
     1
102
RTVSPropertyOp10
 70
     1
102
RTVSPropertyOp11
 70
     1
102
RTVSPropertyOp12
 70
     1
102
RTVSPropertyOp13
 70
     1
102
RTVSPropertyOp14
 70
     1
102
RTVSPropertyOp15
 70
     1
102
RTVSPropertyOp16
 70
     1
102
RTVSPropertyOp17
 70
     1
102
RTVSPropertyOp18
 70
     1
102
RTVSPropertyOp19
 70
     1
102
RTVSPropertyOp20
 70
     1
102
RTVSPropertyOp21
 70
     1
102
RTVSPropertyOp22
 70
     1
102
RTVSPropertyOp23
 70
     1
102
RTVSPropertyOp24
 70
     1
102
RTVSPropertyOp25
 70
     1
102
RTVSPropertyOp26
 70
     1
102
RTVSPropertyOp27
 70
     1
102
RTVSPropertyOp28
 70
     1
102
RTVSPropertyOp29
 70
     1
102
RTVSPropertyOp30
 70
     1
102
RTVSPropertyOp31
 70
     1
102
RTVSPropertyOp32
 70
     1
  0
XRECORD
  5
345
102
{ACAD_REACTORS
330
344
102
}
330
344
100
AcDbXrecord
280
     1
102
RTVSPropertyOp0
 70
     1
102
RTVSPropertyOp1
 70
     1
102
RTVSPropertyOp2
 70
     1
102
RTVSPropertyOp3
 70
     1
102
RTVSPropertyOp4
 70
     1
102
RTVSPropertyOp5
 70
     1
102
RTVSPropertyOp6
 70
     1
102
RTVSPropertyOp7
 70
     1
102
RTVSPropertyOp8
 70
     1
102
RTVSPropertyOp9
 70
     1
102
RTVSPropertyOp10
 70
     1
102
RTVSPropertyOp11
 70
     1
102
RTVSPropertyOp12
 70
     1
102
RTVSPropertyOp13
 70
     1
102
RTVSPropertyOp14
 70
     1
102
RTVSPropertyOp15
 70
     1
102
RTVSPropertyOp16
 70
     1
102
RTVSPropertyOp17
 70
     1
102
RTVSPropertyOp18
 70
     1
102
RTVSPropertyOp19
 70
     1
102
RTVSPropertyOp20
 70
     1
102
RTVSPropertyOp21
 70
     1
102
RTVSPropertyOp22
 70
     1
102
RTVSPropertyOp23
 70
     1
102
RTVSPropertyOp24
 70
     1
102
RTVSPropertyOp25
 70
     1
102
RTVSPropertyOp26
 70
     1
102
RTVSPropertyOp27
 70
     1
102
RTVSPropertyOp28
 70
     1
102
RTVSPropertyOp29
 70
     1
102
RTVSPropertyOp30
 70
     1
102
RTVSPropertyOp31
 70
     1
102
RTVSPropertyOp32
 70
     1
  0
XRECORD
  5
337
102
{ACAD_REACTORS
330
336
102
}
330
336
100
AcDbXrecord
280
     1
102
RTVSPropertyOp0
 70
     1
102
RTVSPropertyOp1
 70
     1
102
RTVSPropertyOp2
 70
     1
102
RTVSPropertyOp3
 70
     1
102
RTVSPropertyOp4
 70
     1
102
RTVSPropertyOp5
 70
     1
102
RTVSPropertyOp6
 70
     1
102
RTVSPropertyOp7
 70
     1
102
RTVSPropertyOp8
 70
     1
102
RTVSPropertyOp9
 70
     1
102
RTVSPropertyOp10
 70
     1
102
RTVSPropertyOp11
 70
     1
102
RTVSPropertyOp12
 70
     1
102
RTVSPropertyOp13
 70
     1
102
RTVSPropertyOp14
 70
     1
102
RTVSPropertyOp15
 70
     1
102
RTVSPropertyOp16
 70
     1
102
RTVSPropertyOp17
 70
     1
102
RTVSPropertyOp18
 70
     1
102
RTVSPropertyOp19
 70
     1
102
RTVSPropertyOp20
 70
     1
102
RTVSPropertyOp21
 70
     1
102
RTVSPropertyOp22
 70
     1
102
RTVSPropertyOp23
 70
     1
102
RTVSPropertyOp24
 70
     1
102
RTVSPropertyOp25
 70
     1
102
RTVSPropertyOp26
 70
     1
102
RTVSPropertyOp27
 70
     1
102
RTVSPropertyOp28
 70
     1
102
RTVSPropertyOp29
 70
     1
102
RTVSPropertyOp30
 70
     1
102
RTVSPropertyOp31
 70
     1
102
RTVSPropertyOp32
 70
     1
  0
XRECORD
  5
33B
102
{ACAD_REACTORS
330
33A
102
}
330
33A
100
AcDbXrecord
280
     1
102
RTVSPropertyOp0
 70
     1
102
RTVSPropertyOp1
 70
     1
102
RTVSPropertyOp2
 70
     1
102
RTVSPropertyOp3
 70
     1
102
RTVSPropertyOp4
 70
     1
102
RTVSPropertyOp5
 70
     1
102
RTVSPropertyOp6
 70
     1
102
RTVSPropertyOp7
 70
     1
102
RTVSPropertyOp8
 70
     1
102
RTVSPropertyOp9
 70
     1
102
RTVSPropertyOp10
 70
     1
102
RTVSPropertyOp11
 70
     1
102
RTVSPropertyOp12
 70
     1
102
RTVSPropertyOp13
 70
     1
102
RTVSPropertyOp14
 70
     1
102
RTVSPropertyOp15
 70
     1
102
RTVSPropertyOp16
 70
     1
102
RTVSPropertyOp17
 70
     1
102
RTVSPropertyOp18
 70
     1
102
RTVSPropertyOp19
 70
     1
102
RTVSPropertyOp20
 70
     1
102
RTVSPropertyOp21
 70
     1
102
RTVSPropertyOp22
 70
     1
102
RTVSPropertyOp23
 70
     1
102
RTVSPropertyOp24
 70
     1
102
RTVSPropertyOp25
 70
     1
102
RTVSPropertyOp26
 70
     1
102
RTVSPropertyOp27
 70
     1
102
RTVSPropertyOp28
 70
     1
102
RTVSPropertyOp29
 70
     1
102
RTVSPropertyOp30
 70
     1
102
RTVSPropertyOp31
 70
     1
102
RTVSPropertyOp32
 70
     1
  0
XRECORD
  5
355
102
{ACAD_REACTORS
330
354
102
}
330
354
100
AcDbXrecord
280
     1
102
RTVSPropertyOp0
 70
     0
102
RTVSPropertyOp1
 70
     0
102
RTVSPropertyOp2
 70
     0
102
RTVSPropertyOp3
 70
     0
102
RTVSPropertyOp4
 70
     0
102
RTVSPropertyOp5
 70
     0
102
RTVSPropertyOp6
 70
     0
102
RTVSPropertyOp7
 70
     0
102
RTVSPropertyOp8
 70
     0
102
RTVSPropertyOp9
 70
     0
102
RTVSPropertyOp10
 70
     0
102
RTVSPropertyOp11
 70
     0
102
RTVSPropertyOp12
 70
     0
102
RTVSPropertyOp13
 70
     0
102
RTVSPropertyOp14
 70
     2
102
RTVSPropertyOp15
 70
     0
102
RTVSPropertyOp16
 70
     0
102
RTVSPropertyOp17
 70
     0
102
RTVSPropertyOp18
 70
     0
102
RTVSPropertyOp19
 70
     0
102
RTVSPropertyOp20
 70
     0
102
RTVSPropertyOp21
 70
     0
102
RTVSPropertyOp22
 70
     0
102
RTVSPropertyOp23
 70
     0
102
RTVSPropertyOp24
 70
     0
102
RTVSPropertyOp25
 70
     0
102
RTVSPropertyOp26
 70
     0
102
RTVSPropertyOp27
 70
     0
102
RTVSPropertyOp28
 70
     1
102
RTVSPropertyOp29
 70
     1
102
RTVSPropertyOp30
 70
     1
102
RTVSPropertyOp31
 70
     1
102
RTVSPropertyOp32
 70
     1
  0
XRECORD
  5
343
102
{ACAD_REACTORS
330
342
102
}
330
342
100
AcDbXrecord
280
     1
102
RTVSPropertyOp0
 70
     1
102
RTVSPropertyOp1
 70
     1
102
RTVSPropertyOp2
 70
     1
102
RTVSPropertyOp3
 70
     1
102
RTVSPropertyOp4
 70
     1
102
RTVSPropertyOp5
 70
     1
102
RTVSPropertyOp6
 70
     1
102
RTVSPropertyOp7
 70
     1
102
RTVSPropertyOp8
 70
     1
102
RTVSPropertyOp9
 70
     1
102
RTVSPropertyOp10
 70
     1
102
RTVSPropertyOp11
 70
     1
102
RTVSPropertyOp12
 70
     1
102
RTVSPropertyOp13
 70
     1
102
RTVSPropertyOp14
 70
     1
102
RTVSPropertyOp15
 70
     1
102
RTVSPropertyOp16
 70
     1
102
RTVSPropertyOp17
 70
     1
102
RTVSPropertyOp18
 70
     1
102
RTVSPropertyOp19
 70
     1
102
RTVSPropertyOp20
 70
     1
102
RTVSPropertyOp21
 70
     1
102
RTVSPropertyOp22
 70
     1
102
RTVSPropertyOp23
 70
     1
102
RTVSPropertyOp24
 70
     1
102
RTVSPropertyOp25
 70
     1
102
RTVSPropertyOp26
 70
     1
102
RTVSPropertyOp27
 70
     1
102
RTVSPropertyOp28
 70
     1
102
RTVSPropertyOp29
 70
     1
102
RTVSPropertyOp30
 70
     1
102
RTVSPropertyOp31
 70
     1
102
RTVSPropertyOp32
 70
     1
  0
XRECORD
  5
327
102
{ACAD_REACTORS
330
326
102
}
330
326
100
AcDbXrecord
280
     1
102
RTVSPropertyOp0
 70
     1
102
RTVSPropertyOp1
 70
     1
102
RTVSPropertyOp2
 70
     1
102
RTVSPropertyOp3
 70
     1
102
RTVSPropertyOp4
 70
     1
102
RTVSPropertyOp5
 70
     1
102
RTVSPropertyOp6
 70
     1
102
RTVSPropertyOp7
 70
     1
102
RTVSPropertyOp8
 70
     1
102
RTVSPropertyOp9
 70
     1
102
RTVSPropertyOp10
 70
     1
102
RTVSPropertyOp11
 70
     1
102
RTVSPropertyOp12
 70
     1
102
RTVSPropertyOp13
 70
     1
102
RTVSPropertyOp14
 70
     1
102
RTVSPropertyOp15
 70
     1
102
RTVSPropertyOp16
 70
     1
102
RTVSPropertyOp17
 70
     1
102
RTVSPropertyOp18
 70
     1
102
RTVSPropertyOp19
 70
     1
102
RTVSPropertyOp20
 70
     1
102
RTVSPropertyOp21
 70
     1
102
RTVSPropertyOp22
 70
     1
102
RTVSPropertyOp23
 70
     1
102
RTVSPropertyOp24
 70
     1
102
RTVSPropertyOp25
 70
     1
102
RTVSPropertyOp26
 70
     1
102
RTVSPropertyOp27
 70
     1
102
RTVSPropertyOp28
 70
     1
102
RTVSPropertyOp29
 70
     1
102
RTVSPropertyOp30
 70
     1
102
RTVSPropertyOp31
 70
     1
102
RTVSPropertyOp32
 70
     1
  0
XRECORD
  5
329
102
{ACAD_REACTORS
330
328
102
}
330
328
100
AcDbXrecord
280
     1
102
RTVSPropertyOp0
 70
     1
102
RTVSPropertyOp1
 70
     1
102
RTVSPropertyOp2
 70
     1
102
RTVSPropertyOp3
 70
     1
102
RTVSPropertyOp4
 70
     1
102
RTVSPropertyOp5
 70
     1
102
RTVSPropertyOp6
 70
     1
102
RTVSPropertyOp7
 70
     1
102
RTVSPropertyOp8
 70
     1
102
RTVSPropertyOp9
 70
     1
102
RTVSPropertyOp10
 70
     1
102
RTVSPropertyOp11
 70
     1
102
RTVSPropertyOp12
 70
     1
102
RTVSPropertyOp13
 70
     1
102
RTVSPropertyOp14
 70
     1
102
RTVSPropertyOp15
 70
     1
102
RTVSPropertyOp16
 70
     1
102
RTVSPropertyOp17
 70
     1
102
RTVSPropertyOp18
 70
     1
102
RTVSPropertyOp19
 70
     1
102
RTVSPropertyOp20
 70
     1
102
RTVSPropertyOp21
 70
     1
102
RTVSPropertyOp22
 70
     1
102
RTVSPropertyOp23
 70
     1
102
RTVSPropertyOp24
 70
     1
102
RTVSPropertyOp25
 70
     1
102
RTVSPropertyOp26
 70
     1
102
RTVSPropertyOp27
 70
     1
102
RTVSPropertyOp28
 70
     1
102
RTVSPropertyOp29
 70
     1
102
RTVSPropertyOp30
 70
     1
102
RTVSPropertyOp31
 70
     1
102
RTVSPropertyOp32
 70
     1
  0
XRECORD
  5
32B
102
{ACAD_REACTORS
330
32A
102
}
330
32A
100
AcDbXrecord
280
     1
102
RTVSPropertyOp0
 70
     1
102
RTVSPropertyOp1
 70
     1
102
RTVSPropertyOp2
 70
     1
102
RTVSPropertyOp3
 70
     1
102
RTVSPropertyOp4
 70
     1
102
RTVSPropertyOp5
 70
     1
102
RTVSPropertyOp6
 70
     1
102
RTVSPropertyOp7
 70
     1
102
RTVSPropertyOp8
 70
     1
102
RTVSPropertyOp9
 70
     1
102
RTVSPropertyOp10
 70
     1
102
RTVSPropertyOp11
 70
     1
102
RTVSPropertyOp12
 70
     1
102
RTVSPropertyOp13
 70
     1
102
RTVSPropertyOp14
 70
     1
102
RTVSPropertyOp15
 70
     1
102
RTVSPropertyOp16
 70
     1
102
RTVSPropertyOp17
 70
     1
102
RTVSPropertyOp18
 70
     1
102
RTVSPropertyOp19
 70
     1
102
RTVSPropertyOp20
 70
     1
102
RTVSPropertyOp21
 70
     1
102
RTVSPropertyOp22
 70
     1
102
RTVSPropertyOp23
 70
     1
102
RTVSPropertyOp24
 70
     1
102
RTVSPropertyOp25
 70
     1
102
RTVSPropertyOp26
 70
     1
102
RTVSPropertyOp27
 70
     1
102
RTVSPropertyOp28
 70
     1
102
RTVSPropertyOp29
 70
     1
102
RTVSPropertyOp30
 70
     1
102
RTVSPropertyOp31
 70
     1
102
RTVSPropertyOp32
 70
     1
  0
XRECORD
  5
32D
102
{ACAD_REACTORS
330
32C
102
}
330
32C
100
AcDbXrecord
280
     1
102
RTVSPropertyOp0
 70
     1
102
RTVSPropertyOp1
 70
     1
102
RTVSPropertyOp2
 70
     1
102
RTVSPropertyOp3
 70
     1
102
RTVSPropertyOp4
 70
     1
102
RTVSPropertyOp5
 70
     1
102
RTVSPropertyOp6
 70
     1
102
RTVSPropertyOp7
 70
     1
102
RTVSPropertyOp8
 70
     1
102
RTVSPropertyOp9
 70
     1
102
RTVSPropertyOp10
 70
     1
102
RTVSPropertyOp11
 70
     1
102
RTVSPropertyOp12
 70
     1
102
RTVSPropertyOp13
 70
     1
102
RTVSPropertyOp14
 70
     1
102
RTVSPropertyOp15
 70
     1
102
RTVSPropertyOp16
 70
     1
102
RTVSPropertyOp17
 70
     1
102
RTVSPropertyOp18
 70
     1
102
RTVSPropertyOp19
 70
     1
102
RTVSPropertyOp20
 70
     1
102
RTVSPropertyOp21
 70
     1
102
RTVSPropertyOp22
 70
     1
102
RTVSPropertyOp23
 70
     1
102
RTVSPropertyOp24
 70
     1
102
RTVSPropertyOp25
 70
     1
102
RTVSPropertyOp26
 70
     1
102
RTVSPropertyOp27
 70
     1
102
RTVSPropertyOp28
 70
     1
102
RTVSPropertyOp29
 70
     1
102
RTVSPropertyOp30
 70
     1
102
RTVSPropertyOp31
 70
     1
102
RTVSPropertyOp32
 70
     1
  0
XRECORD
  5
335
102
{ACAD_REACTORS
330
334
102
}
330
334
100
AcDbXrecord
280
     1
102
RTVSPropertyOp0
 70
     1
102
RTVSPropertyOp1
 70
     1
102
RTVSPropertyOp2
 70
     1
102
RTVSPropertyOp3
 70
     1
102
RTVSPropertyOp4
 70
     1
102
RTVSPropertyOp5
 70
     1
102
RTVSPropertyOp6
 70
     1
102
RTVSPropertyOp7
 70
     1
102
RTVSPropertyOp8
 70
     1
102
RTVSPropertyOp9
 70
     1
102
RTVSPropertyOp10
 70
     1
102
RTVSPropertyOp11
 70
     1
102
RTVSPropertyOp12
 70
     1
102
RTVSPropertyOp13
 70
     1
102
RTVSPropertyOp14
 70
     1
102
RTVSPropertyOp15
 70
     1
102
RTVSPropertyOp16
 70
     1
102
RTVSPropertyOp17
 70
     1
102
RTVSPropertyOp18
 70
     1
102
RTVSPropertyOp19
 70
     1
102
RTVSPropertyOp20
 70
     1
102
RTVSPropertyOp21
 70
     1
102
RTVSPropertyOp22
 70
     1
102
RTVSPropertyOp23
 70
     1
102
RTVSPropertyOp24
 70
     1
102
RTVSPropertyOp25
 70
     1
102
RTVSPropertyOp26
 70
     1
102
RTVSPropertyOp27
 70
     1
102
RTVSPropertyOp28
 70
     1
102
RTVSPropertyOp29
 70
     1
102
RTVSPropertyOp30
 70
     1
102
RTVSPropertyOp31
 70
     1
102
RTVSPropertyOp32
 70
     1
  0
XRECORD
  5
351
102
{ACAD_REACTORS
330
350
102
}
330
350
100
AcDbXrecord
280
     1
102
RTVSPropertyOp0
 70
     0
102
RTVSPropertyOp1
 70
     0
102
RTVSPropertyOp2
 70
     0
102
RTVSPropertyOp3
 70
     0
102
RTVSPropertyOp4
 70
     0
102
RTVSPropertyOp5
 70
     0
102
RTVSPropertyOp6
 70
     0
102
RTVSPropertyOp7
 70
     0
102
RTVSPropertyOp8
 70
     0
102
RTVSPropertyOp9
 70
     0
102
RTVSPropertyOp10
 70
     0
102
RTVSPropertyOp11
 70
     0
102
RTVSPropertyOp12
 70
     0
102
RTVSPropertyOp13
 70
     0
102
RTVSPropertyOp14
 70
     2
102
RTVSPropertyOp15
 70
     0
102
RTVSPropertyOp16
 70
     0
102
RTVSPropertyOp17
 70
     0
102
RTVSPropertyOp18
 70
     0
102
RTVSPropertyOp19
 70
     0
102
RTVSPropertyOp20
 70
     0
102
RTVSPropertyOp21
 70
     0
102
RTVSPropertyOp22
 70
     0
102
RTVSPropertyOp23
 70
     0
102
RTVSPropertyOp24
 70
     0
102
RTVSPropertyOp25
 70
     0
102
RTVSPropertyOp26
 70
     0
102
RTVSPropertyOp27
 70
     0
102
RTVSPropertyOp28
 70
     1
102
RTVSPropertyOp29
 70
     1
102
RTVSPropertyOp30
 70
     1
102
RTVSPropertyOp31
 70
     1
102
RTVSPropertyOp32
 70
     1
  0
XRECORD
  5
341
102
{ACAD_REACTORS
330
340
102
}
330
340
100
AcDbXrecord
280
     1
102
RTVSPropertyOp0
 70
     1
102
RTVSPropertyOp1
 70
     1
102
RTVSPropertyOp2
 70
     1
102
RTVSPropertyOp3
 70
     1
102
RTVSPropertyOp4
 70
     1
102
RTVSPropertyOp5
 70
     1
102
RTVSPropertyOp6
 70
     1
102
RTVSPropertyOp7
 70
     1
102
RTVSPropertyOp8
 70
     1
102
RTVSPropertyOp9
 70
     1
102
RTVSPropertyOp10
 70
     1
102
RTVSPropertyOp11
 70
     1
102
RTVSPropertyOp12
 70
     1
102
RTVSPropertyOp13
 70
     1
102
RTVSPropertyOp14
 70
     1
102
RTVSPropertyOp15
 70
     1
102
RTVSPropertyOp16
 70
     1
102
RTVSPropertyOp17
 70
     1
102
RTVSPropertyOp18
 70
     1
102
RTVSPropertyOp19
 70
     1
102
RTVSPropertyOp20
 70
     1
102
RTVSPropertyOp21
 70
     1
102
RTVSPropertyOp22
 70
     1
102
RTVSPropertyOp23
 70
     1
102
RTVSPropertyOp24
 70
     1
102
RTVSPropertyOp25
 70
     1
102
RTVSPropertyOp26
 70
     1
102
RTVSPropertyOp27
 70
     1
102
RTVSPropertyOp28
 70
     1
102
RTVSPropertyOp29
 70
     1
102
RTVSPropertyOp30
 70
     1
102
RTVSPropertyOp31
 70
     1
102
RTVSPropertyOp32
 70
     1
  0
XRECORD
  5
353
102
{ACAD_REACTORS
330
352
102
}
330
352
100
AcDbXrecord
280
     1
102
RTVSPropertyOp0
 70
     0
102
RTVSPropertyOp1
 70
     0
102
RTVSPropertyOp2
 70
     0
102
RTVSPropertyOp3
 70
     0
102
RTVSPropertyOp4
 70
     0
102
RTVSPropertyOp5
 70
     0
102
RTVSPropertyOp6
 70
     0
102
RTVSPropertyOp7
 70
     0
102
RTVSPropertyOp8
 70
     0
102
RTVSPropertyOp9
 70
     0
102
RTVSPropertyOp10
 70
     0
102
RTVSPropertyOp11
 70
     0
102
RTVSPropertyOp12
 70
     0
102
RTVSPropertyOp13
 70
     0
102
RTVSPropertyOp14
 70
     2
102
RTVSPropertyOp15
 70
     0
102
RTVSPropertyOp16
 70
     0
102
RTVSPropertyOp17
 70
     0
102
RTVSPropertyOp18
 70
     0
102
RTVSPropertyOp19
 70
     0
102
RTVSPropertyOp20
 70
     0
102
RTVSPropertyOp21
 70
     0
102
RTVSPropertyOp22
 70
     0
102
RTVSPropertyOp23
 70
     0
102
RTVSPropertyOp24
 70
     0
102
RTVSPropertyOp25
 70
     0
102
RTVSPropertyOp26
 70
     0
102
RTVSPropertyOp27
 70
     0
102
RTVSPropertyOp28
 70
     1
102
RTVSPropertyOp29
 70
     1
102
RTVSPropertyOp30
 70
     1
102
RTVSPropertyOp31
 70
     1
102
RTVSPropertyOp32
 70
     1
  0
XRECORD
  5
339
102
{ACAD_REACTORS
330
338
102
}
330
338
100
AcDbXrecord
280
     1
102
RTVSPropertyOp0
 70
     1
102
RTVSPropertyOp1
 70
     1
102
RTVSPropertyOp2
 70
     1
102
RTVSPropertyOp3
 70
     1
102
RTVSPropertyOp4
 70
     1
102
RTVSPropertyOp5
 70
     1
102
RTVSPropertyOp6
 70
     1
102
RTVSPropertyOp7
 70
     1
102
RTVSPropertyOp8
 70
     1
102
RTVSPropertyOp9
 70
     1
102
RTVSPropertyOp10
 70
     1
102
RTVSPropertyOp11
 70
     1
102
RTVSPropertyOp12
 70
     1
102
RTVSPropertyOp13
 70
     1
102
RTVSPropertyOp14
 70
     1
102
RTVSPropertyOp15
 70
     1
102
RTVSPropertyOp16
 70
     1
102
RTVSPropertyOp17
 70
     1
102
RTVSPropertyOp18
 70
     1
102
RTVSPropertyOp19
 70
     1
102
RTVSPropertyOp20
 70
     1
102
RTVSPropertyOp21
 70
     1
102
RTVSPropertyOp22
 70
     1
102
RTVSPropertyOp23
 70
     1
102
RTVSPropertyOp24
 70
     1
102
RTVSPropertyOp25
 70
     1
102
RTVSPropertyOp26
 70
     1
102
RTVSPropertyOp27
 70
     1
102
RTVSPropertyOp28
 70
     1
102
RTVSPropertyOp29
 70
     1
102
RTVSPropertyOp30
 70
     1
102
RTVSPropertyOp31
 70
     1
102
RTVSPropertyOp32
 70
     1
  0
XRECORD
  5
34F
102
{ACAD_REACTORS
330
34E
102
}
330
34E
100
AcDbXrecord
280
     1
102
RTVSPropertyOp0
 70
     1
102
RTVSPropertyOp1
 70
     1
102
RTVSPropertyOp2
 70
     1
102
RTVSPropertyOp3
 70
     1
102
RTVSPropertyOp4
 70
     1
102
RTVSPropertyOp5
 70
     1
102
RTVSPropertyOp6
 70
     1
102
RTVSPropertyOp7
 70
     1
102
RTVSPropertyOp8
 70
     1
102
RTVSPropertyOp9
 70
     1
102
RTVSPropertyOp10
 70
     1
102
RTVSPropertyOp11
 70
     1
102
RTVSPropertyOp12
 70
     1
102
RTVSPropertyOp13
 70
     1
102
RTVSPropertyOp14
 70
     1
102
RTVSPropertyOp15
 70
     1
102
RTVSPropertyOp16
 70
     1
102
RTVSPropertyOp17
 70
     1
102
RTVSPropertyOp18
 70
     1
102
RTVSPropertyOp19
 70
     1
102
RTVSPropertyOp20
 70
     1
102
RTVSPropertyOp21
 70
     1
102
RTVSPropertyOp22
 70
     1
102
RTVSPropertyOp23
 70
     1
102
RTVSPropertyOp24
 70
     1
102
RTVSPropertyOp25
 70
     1
102
RTVSPropertyOp26
 70
     1
102
RTVSPropertyOp27
 70
     1
102
RTVSPropertyOp28
 70
     1
102
RTVSPropertyOp29
 70
     1
102
RTVSPropertyOp30
 70
     1
102
RTVSPropertyOp31
 70
     1
102
RTVSPropertyOp32
 70
     1
  0
XRECORD
  5
34D
102
{ACAD_REACTORS
330
34C
102
}
330
34C
100
AcDbXrecord
280
     1
102
RTVSPropertyOp0
 70
     1
102
RTVSPropertyOp1
 70
     1
102
RTVSPropertyOp2
 70
     1
102
RTVSPropertyOp3
 70
     1
102
RTVSPropertyOp4
 70
     1
102
RTVSPropertyOp5
 70
     1
102
RTVSPropertyOp6
 70
     1
102
RTVSPropertyOp7
 70
     1
102
RTVSPropertyOp8
 70
     1
102
RTVSPropertyOp9
 70
     1
102
RTVSPropertyOp10
 70
     1
102
RTVSPropertyOp11
 70
     1
102
RTVSPropertyOp12
 70
     1
102
RTVSPropertyOp13
 70
     1
102
RTVSPropertyOp14
 70
     1
102
RTVSPropertyOp15
 70
     1
102
RTVSPropertyOp16
 70
     1
102
RTVSPropertyOp17
 70
     1
102
RTVSPropertyOp18
 70
     1
102
RTVSPropertyOp19
 70
     1
102
RTVSPropertyOp20
 70
     1
102
RTVSPropertyOp21
 70
     1
102
RTVSPropertyOp22
 70
     1
102
RTVSPropertyOp23
 70
     1
102
RTVSPropertyOp24
 70
     1
102
RTVSPropertyOp25
 70
     1
102
RTVSPropertyOp26
 70
     1
102
RTVSPropertyOp27
 70
     1
102
RTVSPropertyOp28
 70
     1
102
RTVSPropertyOp29
 70
     1
102
RTVSPropertyOp30
 70
     1
102
RTVSPropertyOp31
 70
     1
102
RTVSPropertyOp32
 70
     1
  0
XRECORD
  5
347
102
{ACAD_REACTORS
330
346
102
}
330
346
100
AcDbXrecord
280
     1
102
RTVSPropertyOp0
 70
     1
102
RTVSPropertyOp1
 70
     1
102
RTVSPropertyOp2
 70
     1
102
RTVSPropertyOp3
 70
     1
102
RTVSPropertyOp4
 70
     1
102
RTVSPropertyOp5
 70
     1
102
RTVSPropertyOp6
 70
     1
102
RTVSPropertyOp7
 70
     1
102
RTVSPropertyOp8
 70
     1
102
RTVSPropertyOp9
 70
     1
102
RTVSPropertyOp10
 70
     1
102
RTVSPropertyOp11
 70
     1
102
RTVSPropertyOp12
 70
     1
102
RTVSPropertyOp13
 70
     1
102
RTVSPropertyOp14
 70
     1
102
RTVSPropertyOp15
 70
     1
102
RTVSPropertyOp16
 70
     1
102
RTVSPropertyOp17
 70
     1
102
RTVSPropertyOp18
 70
     1
102
RTVSPropertyOp19
 70
     1
102
RTVSPropertyOp20
 70
     1
102
RTVSPropertyOp21
 70
     1
102
RTVSPropertyOp22
 70
     1
102
RTVSPropertyOp23
 70
     1
102
RTVSPropertyOp24
 70
     1
102
RTVSPropertyOp25
 70
     1
102
RTVSPropertyOp26
 70
     1
102
RTVSPropertyOp27
 70
     1
102
RTVSPropertyOp28
 70
     1
102
RTVSPropertyOp29
 70
     1
102
RTVSPropertyOp30
 70
     1
102
RTVSPropertyOp31
 70
     1
102
RTVSPropertyOp32
 70
     1
  0
XRECORD
  5
349
102
{ACAD_REACTORS
330
348
102
}
330
348
100
AcDbXrecord
280
     1
102
RTVSPropertyOp0
 70
     1
102
RTVSPropertyOp1
 70
     1
102
RTVSPropertyOp2
 70
     1
102
RTVSPropertyOp3
 70
     1
102
RTVSPropertyOp4
 70
     1
102
RTVSPropertyOp5
 70
     1
102
RTVSPropertyOp6
 70
     1
102
RTVSPropertyOp7
 70
     1
102
RTVSPropertyOp8
 70
     1
102
RTVSPropertyOp9
 70
     1
102
RTVSPropertyOp10
 70
     1
102
RTVSPropertyOp11
 70
     1
102
RTVSPropertyOp12
 70
     1
102
RTVSPropertyOp13
 70
     1
102
RTVSPropertyOp14
 70
     1
102
RTVSPropertyOp15
 70
     1
102
RTVSPropertyOp16
 70
     1
102
RTVSPropertyOp17
 70
     1
102
RTVSPropertyOp18
 70
     1
102
RTVSPropertyOp19
 70
     1
102
RTVSPropertyOp20
 70
     1
102
RTVSPropertyOp21
 70
     1
102
RTVSPropertyOp22
 70
     1
102
RTVSPropertyOp23
 70
     1
102
RTVSPropertyOp24
 70
     1
102
RTVSPropertyOp25
 70
     1
102
RTVSPropertyOp26
 70
     1
102
RTVSPropertyOp27
 70
     1
102
RTVSPropertyOp28
 70
     1
102
RTVSPropertyOp29
 70
     1
102
RTVSPropertyOp30
 70
     1
102
RTVSPropertyOp31
 70
     1
102
RTVSPropertyOp32
 70
     1
  0
XRECORD
  5
33F
102
{ACAD_REACTORS
330
33E
102
}
330
33E
100
AcDbXrecord
280
     1
102
RTVSPropertyOp0
 70
     1
102
RTVSPropertyOp1
 70
     1
102
RTVSPropertyOp2
 70
     1
102
RTVSPropertyOp3
 70
     1
102
RTVSPropertyOp4
 70
     1
102
RTVSPropertyOp5
 70
     1
102
RTVSPropertyOp6
 70
     1
102
RTVSPropertyOp7
 70
     1
102
RTVSPropertyOp8
 70
     1
102
RTVSPropertyOp9
 70
     1
102
RTVSPropertyOp10
 70
     1
102
RTVSPropertyOp11
 70
     1
102
RTVSPropertyOp12
 70
     1
102
RTVSPropertyOp13
 70
     1
102
RTVSPropertyOp14
 70
     1
102
RTVSPropertyOp15
 70
     1
102
RTVSPropertyOp16
 70
     1
102
RTVSPropertyOp17
 70
     1
102
RTVSPropertyOp18
 70
     1
102
RTVSPropertyOp19
 70
     1
102
RTVSPropertyOp20
 70
     1
102
RTVSPropertyOp21
 70
     1
102
RTVSPropertyOp22
 70
     1
102
RTVSPropertyOp23
 70
     1
102
RTVSPropertyOp24
 70
     1
102
RTVSPropertyOp25
 70
     1
102
RTVSPropertyOp26
 70
     1
102
RTVSPropertyOp27
 70
     1
102
RTVSPropertyOp28
 70
     1
102
RTVSPropertyOp29
 70
     1
102
RTVSPropertyOp30
 70
     1
102
RTVSPropertyOp31
 70
     1
102
RTVSPropertyOp32
 70
     1
  0
XRECORD
  5
333
102
{ACAD_REACTORS
330
332
102
}
330
332
100
AcDbXrecord
280
     1
102
RTVSPropertyOp0
 70
     1
102
RTVSPropertyOp1
 70
     1
102
RTVSPropertyOp2
 70
     1
102
RTVSPropertyOp3
 70
     1
102
RTVSPropertyOp4
 70
     1
102
RTVSPropertyOp5
 70
     1
102
RTVSPropertyOp6
 70
     1
102
RTVSPropertyOp7
 70
     1
102
RTVSPropertyOp8
 70
     1
102
RTVSPropertyOp9
 70
     1
102
RTVSPropertyOp10
 70
     1
102
RTVSPropertyOp11
 70
     1
102
RTVSPropertyOp12
 70
     1
102
RTVSPropertyOp13
 70
     1
102
RTVSPropertyOp14
 70
     1
102
RTVSPropertyOp15
 70
     1
102
RTVSPropertyOp16
 70
     1
102
RTVSPropertyOp17
 70
     1
102
RTVSPropertyOp18
 70
     1
102
RTVSPropertyOp19
 70
     1
102
RTVSPropertyOp20
 70
     1
102
RTVSPropertyOp21
 70
     1
102
RTVSPropertyOp22
 70
     1
102
RTVSPropertyOp23
 70
     1
102
RTVSPropertyOp24
 70
     1
102
RTVSPropertyOp25
 70
     1
102
RTVSPropertyOp26
 70
     1
102
RTVSPropertyOp27
 70
     1
102
RTVSPropertyOp28
 70
     1
102
RTVSPropertyOp29
 70
     1
102
RTVSPropertyOp30
 70
     1
102
RTVSPropertyOp31
 70
     1
102
RTVSPropertyOp32
 70
     1
  0
XRECORD
  5
34B
102
{ACAD_REACTORS
330
34A
102
}
330
34A
100
AcDbXrecord
280
     1
102
RTVSPropertyOp0
 70
     1
102
RTVSPropertyOp1
 70
     1
102
RTVSPropertyOp2
 70
     1
102
RTVSPropertyOp3
 70
     1
102
RTVSPropertyOp4
 70
     1
102
RTVSPropertyOp5
 70
     1
102
RTVSPropertyOp6
 70
     1
102
RTVSPropertyOp7
 70
     1
102
RTVSPropertyOp8
 70
     1
102
RTVSPropertyOp9
 70
     1
102
RTVSPropertyOp10
 70
     1
102
RTVSPropertyOp11
 70
     1
102
RTVSPropertyOp12
 70
     1
102
RTVSPropertyOp13
 70
     1
102
RTVSPropertyOp14
 70
     1
102
RTVSPropertyOp15
 70
     1
102
RTVSPropertyOp16
 70
     1
102
RTVSPropertyOp17
 70
     1
102
RTVSPropertyOp18
 70
     1
102
RTVSPropertyOp19
 70
     1
102
RTVSPropertyOp20
 70
     1
102
RTVSPropertyOp21
 70
     1
102
RTVSPropertyOp22
 70
     1
102
RTVSPropertyOp23
 70
     1
102
RTVSPropertyOp24
 70
     1
102
RTVSPropertyOp25
 70
     1
102
RTVSPropertyOp26
 70
     1
102
RTVSPropertyOp27
 70
     1
102
RTVSPropertyOp28
 70
     1
102
RTVSPropertyOp29
 70
     1
102
RTVSPropertyOp30
 70
     1
102
RTVSPropertyOp31
 70
     1
102
RTVSPropertyOp32
 70
     1
  0
ENDSEC
  0
EOF
