  0
SECTION
  2
HEADER
  9
$ACADVER
  1
AC1015
  9
$ACADMAINTVER
 70
     6
  9
$DWGCODEPAGE
  3
ANSI_1252
  9
$INSBASE
 10
0.0
 20
0.0
 30
0.0
  9
$EXTMIN
 10
-3.750045707391159
 20
-0.0009056597151584
 30
-0.000000000000013
  9
$EXTMAX
 10
9.467880296716331
 20
21.55607037119616
 30
0.0000000000000023
  9
$LIMMIN
 10
0.0
 20
0.0
  9
$LIMMAX
 10
31.5
 20
24.0
  9
$ORTHOMODE
 70
     1
  9
$REGENMODE
 70
     1
  9
$FILLMODE
 70
     1
  9
$QTEXTMODE
 70
     0
  9
$MIRRTEXT
 70
     0
  9
$LTSCALE
 40
0.5
  9
$ATTMODE
 70
     1
  9
$TEXTSIZE
 40
0.27
  9
$TRACEWID
 40
0.05
  9
$TEXTSTYLE
  7
STANDARD
  9
$CLAYER
  8
0
  9
$CELTYPE
  6
BYLAYER
  9
$CECOLOR
 62
   256
  9
$CELTSCALE
 40
1.0
  9
$DISPSILH
 70
     0
  9
$DIMSCALE
 40
1.0
  9
$DIMASZ
 40
0.375
  9
$DIMEXO
 40
0.0625
  9
$DIMDLI
 40
0.75
  9
$DIMRND
 40
0.0
  9
$DIMDLE
 40
0.0
  9
$DIMEXE
 40
0.18
  9
$DIMTP
 40
0.0
  9
$DIMTM
 40
0.0
  9
$DIMTXT
 40
0.27
  9
$DIMCEN
 40
-0.06
  9
$DIMTSZ
 40
0.0
  9
$DIMTOL
 70
     0
  9
$DIMLIM
 70
     0
  9
$DIMTIH
 70
     1
  9
$DIMTOH
 70
     1
  9
$DIMSE1
 70
     0
  9
$DIMSE2
 70
     0
  9
$DIMTAD
 70
     0
  9
$DIMZIN
 70
     0
  9
$DIMBLK
  1

  9
$DIMASO
 70
     0
  9
$DIMSHO
 70
     0
  9
$DIMPOST
  1

  9
$DIMAPOST
  1

  9
$DIMALT
 70
     0
  9
$DIMALTD
 70
     2
  9
$DIMALTF
 40
25.4
  9
$DIMLFAC
 40
1.0
  9
$DIMTOFL
 70
     0
  9
$DIMTVP
 40
0.0
  9
$DIMTIX
 70
     0
  9
$DIMSOXD
 70
     0
  9
$DIMSAH
 70
     0
  9
$DIMBLK1
  1

  9
$DIMBLK2
  1

  9
$DIMSTYLE
  2
STANDARD
  9
$DIMCLRD
 70
     0
  9
$DIMCLRE
 70
     0
  9
$DIMCLRT
 70
     0
  9
$DIMTFAC
 40
1.0
  9
$DIMGAP
 40
0.09
  9
$DIMJUST
 70
     0
  9
$DIMSD1
 70
     0
  9
$DIMSD2
 70
     0
  9
$DIMTOLJ
 70
     1
  9
$DIMTZIN
 70
     0
  9
$DIMALTZ
 70
     0
  9
$DIMALTTZ
 70
     0
  9
$DIMUPT
 70
     0
  9
$DIMDEC
 70
     4
  9
$DIMTDEC
 70
     4
  9
$DIMALTU
 70
     2
  9
$DIMALTTD
 70
     2
  9
$DIMTXSTY
  7
STANDARD
  9
$DIMAUNIT
 70
     0
  9
$DIMADEC
 70
     0
  9
$DIMALTRND
 40
0.0
  9
$DIMAZIN
 70
     0
  9
$DIMDSEP
 70
    46
  9
$DIMATFIT
 70
     3
  9
$DIMFRAC
 70
     0
  9
$DIMLDRBLK
  1

  9
$DIMLUNIT
 70
     2
  9
$DIMLWD
 70
    -2
  9
$DIMLWE
 70
    -2
  9
$DIMTMOVE
 70
     2
  9
$LUNITS
 70
     2
  9
$LUPREC
 70
     4
  9
$SKETCHINC
 40
0.1
  9
$FILLETRAD
 40
0.125
  9
$AUNITS
 70
     0
  9
$AUPREC
 70
     0
  9
$MENU
  1
ACAD
  9
$ELEVATION
 40
0.0
  9
$PELEVATION
 40
0.0
  9
$THICKNESS
 40
0.0
  9
$LIMCHECK
 70
     0
  9
$CHAMFERA
 40
0.0
  9
$CHAMFERB
 40
0.0
  9
$CHAMFERC
 40
0.0
  9
$CHAMFERD
 40
0.0
  9
$SKPOLY
 70
     0
  9
$TDCREATE
 40
2449448.835133333
  9
$TDUCREATE
 40
2449449.168466667
  9
$TDUPDATE
 40
2454175.917593519
  9
$TDUUPDATE
 40
2454176.250926852
  9
$TDINDWG
 40
0.0915585648
  9
$TDUSRTIMER
 40
0.0915585648
  9
$USRTIMER
 70
     1
  9
$ANGBASE
 50
0.0
  9
$ANGDIR
 70
     0
  9
$PDMODE
 70
     0
  9
$PDSIZE
 40
0.0
  9
$PLINEWID
 40
0.0
  9
$SPLFRAME
 70
     0
  9
$SPLINETYPE
 70
     6
  9
$SPLINESEGS
 70
     8
  9
$HANDSEED
  5
253
  9
$SURFTAB1
 70
     6
  9
$SURFTAB2
 70
     6
  9
$SURFTYPE
 70
     6
  9
$SURFU
 70
     6
  9
$SURFV
 70
     6
  9
$UCSBASE
  2

  9
$UCSNAME
  2

  9
$UCSORG
 10
0.0
 20
0.0
 30
0.0
  9
$UCSXDIR
 10
1.0
 20
0.0
 30
0.0
  9
$UCSYDIR
 10
0.0
 20
1.0
 30
0.0
  9
$UCSORTHOREF
  2

  9
$UCSORTHOVIEW
 70
     0
  9
$UCSORGTOP
 10
0.0
 20
0.0
 30
0.0
  9
$UCSORGBOTTOM
 10
0.0
 20
0.0
 30
0.0
  9
$UCSORGLEFT
 10
0.0
 20
0.0
 30
0.0
  9
$UCSORGRIGHT
 10
0.0
 20
0.0
 30
0.0
  9
$UCSORGFRONT
 10
0.0
 20
0.0
 30
0.0
  9
$UCSORGBACK
 10
0.0
 20
0.0
 30
0.0
  9
$PUCSBASE
  2

  9
$PUCSNAME
  2

  9
$PUCSORG
 10
0.0
 20
0.0
 30
0.0
  9
$PUCSXDIR
 10
1.0
 20
0.0
 30
0.0
  9
$PUCSYDIR
 10
0.0
 20
1.0
 30
0.0
  9
$PUCSORTHOREF
  2

  9
$PUCSORTHOVIEW
 70
     0
  9
$PUCSORGTOP
 10
0.0
 20
0.0
 30
0.0
  9
$PUCSORGBOTTOM
 10
0.0
 20
0.0
 30
0.0
  9
$PUCSORGLEFT
 10
0.0
 20
0.0
 30
0.0
  9
$PUCSORGRIGHT
 10
0.0
 20
0.0
 30
0.0
  9
$PUCSORGFRONT
 10
0.0
 20
0.0
 30
0.0
  9
$PUCSORGBACK
 10
0.0
 20
0.0
 30
0.0
  9
$USERI1
 70
     0
  9
$USERI2
 70
     0
  9
$USERI3
 70
     0
  9
$USERI4
 70
     0
  9
$USERI5
 70
     0
  9
$USERR1
 40
0.0
  9
$USERR2
 40
0.0
  9
$USERR3
 40
0.0
  9
$USERR4
 40
0.0
  9
$USERR5
 40
0.0
  9
$WORLDVIEW
 70
     1
  9
$SHADEDGE
 70
     3
  9
$SHADEDIF
 70
    70
  9
$TILEMODE
 70
     1
  9
$MAXACTVP
 70
    16
  9
$PINSBASE
 10
0.0
 20
0.0
 30
0.0
  9
$PLIMCHECK
 70
     0
  9
$PEXTMIN
 10
1.000000000000000E+20
 20
1.000000000000000E+20
 30
1.000000000000000E+20
  9
$PEXTMAX
 10
-1.000000000000000E+20
 20
-1.000000000000000E+20
 30
-1.000000000000000E+20
  9
$PLIMMIN
 10
0.0
 20
0.0
  9
$PLIMMAX
 10
12.0
 20
9.0
  9
$UNITMODE
 70
     0
  9
$VISRETAIN
 70
     0
  9
$PLINEGEN
 70
     0
  9
$PSLTSCALE
 70
     0
  9
$TREEDEPTH
 70
  3020
  9
$CMLSTYLE
  2
STANDARD
  9
$CMLJUST
 70
     0
  9
$CMLSCALE
 40
1.0
  9
$PROXYGRAPHICS
 70
     1
  9
$MEASUREMENT
 70
     0
  9
$CELWEIGHT
370
    -1
  9
$ENDCAPS
280
     0
  9
$JOINSTYLE
280
     0
  9
$LWDISPLAY
290
     0
  9
$INSUNITS
 70
     0
  9
$HYPERLINKBASE
  1

  9
$STYLESHEET
  1

  9
$XEDIT
290
     1
  9
$CEPSNTYPE
380
     0
  9
$PSTYLEMODE
290
     1
  9
$FINGERPRINTGUID
  2
{DEC6D51B-4AE0-11D5-BE3F-00508B5FCD51}
  9
$VERSIONGUID
  2
{5EC9DB91-6A5F-4D90-99B9-07630CFFB829}
  9
$EXTNAMES
290
     1
  9
$PSVPSCALE
 40
0.0
  9
$OLESTARTUP
290
     0
  0
ENDSEC
  0
SECTION
  2
CLASSES
  0
CLASS
  1
DICTIONARYVAR
  2
AcDbDictionaryVar
  3
AutoCAD 2000
 90
        0
280
     0
281
     0
  0
CLASS
  1
LWPOLYLINE
  2
AcDbPolyline
  3
AutoCAD 2000
 90
        0
280
     0
281
     1
  0
CLASS
  1
ACDBDICTIONARYWDFLT
  2
AcDbDictionaryWithDefault
  3
AutoCAD 2000
 90
        0
280
     0
281
     0
  0
CLASS
  1
ACDBPLACEHOLDER
  2
AcDbPlaceHolder
  3
ObjectDBX Classes
 90
        0
280
     0
281
     0
  0
CLASS
  1
LAYOUT
  2
AcDbLayout
  3
ObjectDBX Classes
 90
        0
280
     0
281
     0
  0
CLASS
  1
LONG_TRANSACTION
  2
AcDbLongTransaction
  3
ObjectDBX Classes
 90
   -65536
280
     1
281
     0
  0
CLASS
  1
LWPOLYLINE
  2
AcDbPolyline
  3
AutoCAD 2000
 90
        0
280
     0
281
     1
  0
CLASS
  1
HATCH
  2
AcDbHatch
  3
AutoCAD 2000
 90
        0
280
     0
281
     1
  0
CLASS
  1
XRECORD
  2
AcDbXrecord
  3
AutoCAD 2000
 90
        0
280
     0
281
     0
  0
CLASS
  1
TABLESTYLE
  2
AcDbTableStyle
  3
ObjectDBX Classes
 90
     2047
280
     1
281
     0
  0
ENDSEC
  0
SECTION
  2
TABLES
  0
TABLE
  2
VPORT
  5
1D
330
0
100
AcDbSymbolTable
 70
     2
  0
VPORT
  5
243
330
1D
100
AcDbSymbolTableRecord
100
AcDbViewportTableRecord
  2
*Active
 70
     0
 10
0.0
 20
0.0
 11
1.0
 21
1.0
 12
13.87497714630442
 22
11.99954717014242
 13
0.0
 23
0.0
 14
0.0625
 24
0.0625
 15
0.5
 25
0.5
 16
0.0
 26
0.0
 36
1.0
 17
0.0
 27
0.0
 37
0.0
 40
24.30029325630204
 41
1.814583333333333
 42
50.0
 43
0.0
 44
0.0
 50
0.0
 51
0.0
 71
     0
 72
   100
 73
     1
 74
     0
 75
     0
 76
     0
 77
     0
 78
     0
281
     0
 65
     1
110
0.0
120
0.0
130
0.0
111
1.0
121
0.0
131
0.0
112
0.0
122
1.0
132
0.0
 79
     0
146
0.0
  0
ENDTAB
  0
TABLE
  2
LTYPE
  5
18
330
0
100
AcDbSymbolTable
 70
     1
  0
LTYPE
  5
19
330
18
100
AcDbSymbolTableRecord
100
AcDbLinetypeTableRecord
  2
BYBLOCK
 70
     0
  3

 72
    65
 73
     0
 40
0.0
  0
LTYPE
  5
1A
330
18
100
AcDbSymbolTableRecord
100
AcDbLinetypeTableRecord
  2
BYLAYER
 70
     0
  3

 72
    65
 73
     0
 40
0.0
  0
LTYPE
  5
A
330
18
100
AcDbSymbolTableRecord
100
AcDbLinetypeTableRecord
  2
CONTINUOUS
 70
     0
  3
Solid line
 72
    65
 73
     0
 40
0.0
  0
ENDTAB
  0
TABLE
  2
LAYER
  5
14
330
0
100
AcDbSymbolTable
 70
     2
  0
LAYER
  5
6
330
14
100
AcDbSymbolTableRecord
100
AcDbLayerTableRecord
  2
0
 70
     0
 62
     7
  6
CONTINUOUS
370
    -3
390
7
  0
ENDTAB
  0
TABLE
  2
STYLE
  5
15
330
0
100
AcDbSymbolTable
 70
     1
  0
STYLE
  5
16
330
15
100
AcDbSymbolTableRecord
100
AcDbTextStyleTableRecord
  2
STANDARD
 70
     0
 40
0.0
 41
1.0
 50
0.0
 71
     0
 42
0.27
  3
TXT
  4

  0
ENDTAB
  0
TABLE
  2
VIEW
  5
1B
330
0
100
AcDbSymbolTable
 70
     0
  0
ENDTAB
  0
TABLE
  2
UCS
  5
1C
330
0
100
AcDbSymbolTable
 70
     0
  0
ENDTAB
  0
TABLE
  2
APPID
  5
1F
330
0
100
AcDbSymbolTable
 70
     1
  0
APPID
  5
20
330
1F
100
AcDbSymbolTableRecord
100
AcDbRegAppTableRecord
  2
ACAD
 70
     0
  0
ENDTAB
  0
TABLE
  2
DIMSTYLE
  5
21
330
0
100
AcDbSymbolTable
 70
     1
100
AcDbDimStyleTable
  0
DIMSTYLE
105
28
330
21
100
AcDbSymbolTableRecord
100
AcDbDimStyleTableRecord
  2
STANDARD
 70
     0
  3

  4

340
16
  0
ENDTAB
  0
TABLE
  2
BLOCK_RECORD
  5
1
330
0
100
AcDbSymbolTable
 70
     0
  0
BLOCK_RECORD
  5
2
330
1
100
AcDbSymbolTableRecord
100
AcDbBlockTableRecord
  2
*MODEL_SPACE
340
C
  0
BLOCK_RECORD
  5
E
330
1
100
AcDbSymbolTableRecord
100
AcDbBlockTableRecord
  2
*PAPER_SPACE
340
13
  0
ENDTAB
  0
ENDSEC
  0
SECTION
  2
BLOCKS
  0
BLOCK
  5
5
330
2
100
AcDbEntity
  8
0
100
AcDbBlockBegin
  2
*MODEL_SPACE
 70
     0
 10
0.0
 20
0.0
 30
0.0
  3
*MODEL_SPACE
  1

  4

  0
ENDBLK
  5
B
330
2
100
AcDbEntity
  8
0
100
AcDbBlockEnd
  0
BLOCK
  5
11
330
E
100
AcDbEntity
 67
     1
  8
0
100
AcDbBlockBegin
  2
*PAPER_SPACE
 70
     0
 10
0.0
 20
0.0
 30
0.0
  3
*PAPER_SPACE
  1

  4

  0
ENDBLK
  5
12
330
E
100
AcDbEntity
 67
     1
  8
0
100
AcDbBlockEnd
  0
ENDSEC
  0
SECTION
  2
ENTITIES
  0
ARC
  5
12E
330
2
100
AcDbEntity
  8
0
100
AcDbCircle
 10
-0.735586389627958
 20
21.33837262239053
 30
0.0
 40
0.0489136103720469
100
AcDbArc
 50
101.9230405038544
 51
179.9999999999999
  0
ARC
  5
12F
330
2
100
AcDbEntity
  8
0
100
AcDbCircle
 10
-0.6935863896279564
 20
21.29637262239053
 30
0.0
 40
0.0489136103720469
100
AcDbArc
 50
101.9230405038544
 51
179.9999999999999
  0
LINE
  5
138
330
2
100
AcDbEntity
  8
0
100
AcDbLine
 10
-3.750000000000004
 20
10.9375
 30
0.0
 11
-1.124090915101373
 21
10.9375
 31
0.0
  0
LINE
  5
139
330
2
100
AcDbEntity
  8
0
100
AcDbLine
 10
-3.750000000000004
 20
10.9835
 30
0.0
 11
-1.170090915101373
 21
10.9835
 31
0.0
  0
LINE
  5
13A
330
2
100
AcDbEntity
  8
0
100
AcDbLine
 10
-3.500000000000004
 20
9.6875
 30
0.0
 11
-0.5625
 21
9.6875
 31
0.0
  0
LINE
  5
13B
330
2
100
AcDbEntity
  8
0
100
AcDbLine
 10
-3.750000000000004
 20
10.9835
 30
0.0
 11
-3.750000000000004
 21
9.9375
 31
0.0
  0
CIRCLE
  5
13C
330
2
100
AcDbEntity
  8
0
100
AcDbCircle
 10
-3.4375
 20
10.0
 30
0.0
 40
0.0855
  0
LINE
  5
13D
330
2
100
AcDbEntity
  8
0
100
AcDbLine
 10
-3.750000000000004
 20
9.9375
 30
0.0
 11
-3.500000000000004
 21
9.6875
 31
0.0
  0
LINE
  5
13E
330
2
100
AcDbEntity
  8
0
100
AcDbLine
 10
-3.500000000000004
 20
10.9835
 30
0.0
 11
-3.500000000000004
 21
10.9375
 31
0.0
  0
LINE
  5
13F
330
2
100
AcDbEntity
  8
0
100
AcDbLine
 10
0.5625
 20
8.875
 30
0.0
 11
0.5625
 21
0.0
 31
0.0
  0
LINE
  5
140
330
2
100
AcDbEntity
  8
0
100
AcDbLine
 10
-0.5625
 20
0.0
 30
0.0
 11
-0.5625
 21
8.875
 31
0.0
  0
CIRCLE
  5
141
330
2
100
AcDbEntity
  8
0
100
AcDbCircle
 10
0.0
 20
0.7499999999999965
 30
0.0
 40
0.0855
  0
LINE
  5
142
330
2
100
AcDbEntity
  8
0
100
AcDbLine
 10
-0.5625
 20
0.0
 30
0.0
 11
0.5625
 21
0.0
 31
0.0
  0
CIRCLE
  5
144
330
2
100
AcDbEntity
  8
0
100
AcDbCircle
 10
-0.3125
 20
1.218734000000001
 30
0.0
 40
0.0855
  0
LINE
  5
145
330
2
100
AcDbEntity
  8
0
100
AcDbLine
 10
0.5
 20
9.3125
 30
0.0
 11
0.5
 21
8.9375
 31
0.0
  0
LINE
  5
146
330
2
100
AcDbEntity
  8
0
100
AcDbLine
 10
-0.5
 20
8.9375
 30
0.0
 11
-0.5
 21
9.3125
 31
0.0
  0
CIRCLE
  5
147
330
2
100
AcDbEntity
  8
0
100
AcDbCircle
 10
-0.3125
 20
3.656234000000001
 30
0.0
 40
0.0855
  0
CIRCLE
  5
148
330
2
100
AcDbEntity
  8
0
100
AcDbCircle
 10
0.0
 20
2.749999999999996
 30
0.0
 40
0.0855
  0
CIRCLE
  5
149
330
2
100
AcDbEntity
  8
0
100
AcDbCircle
 10
0.3125
 20
2.437484000000001
 30
0.0
 40
0.0855
  0
CIRCLE
  5
14A
330
2
100
AcDbEntity
  8
0
100
AcDbCircle
 10
0.3125
 20
4.874984
 30
0.0
 40
0.0855
  0
CIRCLE
  5
14B
330
2
100
AcDbEntity
  8
0
100
AcDbCircle
 10
0.3125
 20
7.312484000000001
 30
0.0
 40
0.0855
  0
CIRCLE
  5
14D
330
2
100
AcDbEntity
  8
0
100
AcDbCircle
 10
0.0
 20
6.5
 30
0.0
 40
0.0855
  0
CIRCLE
  5
14E
330
2
100
AcDbEntity
  8
0
100
AcDbCircle
 10
-0.3125
 20
6.093734000000001
 30
0.0
 40
0.0855
  0
CIRCLE
  5
14F
330
2
100
AcDbEntity
  8
0
100
AcDbCircle
 10
0.0
 20
8.25
 30
0.0
 40
0.0855
  0
ARC
  5
150
330
2
100
AcDbEntity
  8
0
100
AcDbCircle
 10
-0.5625
 20
8.9375
 30
0.0
 40
0.0625
100
AcDbArc
 50
270.0
 51
0.0
  0
ARC
  5
151
330
2
100
AcDbEntity
  8
0
100
AcDbCircle
 10
0.5625
 20
8.9375
 30
0.0
 40
0.0625
100
AcDbArc
 50
180.0
 51
270.0
  0
LINE
  5
153
330
2
100
AcDbEntity
  8
0
100
AcDbLine
 10
0.5625
 20
9.375
 30
0.0
 11
0.5625
 21
16.14510112860018
 31
0.0
  0
LINE
  5
154
330
2
100
AcDbEntity
  8
0
100
AcDbLine
 10
-0.5625
 20
9.375
 30
0.0
 11
-0.5625
 21
16.14510112860018
 31
0.0
  0
LINE
  5
155
330
2
100
AcDbEntity
  8
0
100
AcDbLine
 10
-0.7490909151013696
 20
14.0625
 30
0.0
 11
-0.7490909151013732
 21
11.3125
 31
0.0
  0
LINE
  5
156
330
2
100
AcDbEntity
  8
0
100
AcDbLine
 10
-0.7950909151013725
 20
14.0625
 30
0.0
 11
-0.7950909151013725
 21
11.3585
 31
0.0
  0
ARC
  5
157
330
2
100
AcDbEntity
  8
0
100
AcDbCircle
 10
1.09005951434818
 20
11.75260191002141
 30
0.0
 40
0.4629386865395427
100
AcDbArc
 50
224.565151428518
 51
230.7091149780875
  0
ARC
  5
158
330
2
100
AcDbEntity
  8
0
100
AcDbCircle
 10
1.125899999999998
 20
11.3125
 30
0.0
 40
0.375
100
AcDbArc
 50
180.0000000000001
 51
270.0
  0
ARC
  5
159
330
2
100
AcDbEntity
  8
0
100
AcDbCircle
 10
1.171899999999997
 20
11.3585
 30
0.0
 40
0.375
100
AcDbArc
 50
180.0000000000001
 51
269.9999999999999
  0
LINE
  5
15A
330
2
100
AcDbEntity
  8
0
100
AcDbLine
 10
0.5625
 20
9.6875
 30
0.0
 11
3.501809084898628
 21
9.6875
 31
0.0
  0
ARC
  5
15B
330
2
100
AcDbEntity
  8
0
100
AcDbCircle
 10
-1.124090915101373
 20
11.3125
 30
0.0
 40
0.375
100
AcDbArc
 50
270.0
 51
359.9999999999999
  0
ARC
  5
15C
330
2
100
AcDbEntity
  8
0
100
AcDbCircle
 10
-1.170090915101373
 20
11.3585
 30
0.0
 40
0.375
100
AcDbArc
 50
270.0000000000001
 51
359.9999999999999
  0
TEXT
  5
15D
330
2
100
AcDbEntity
  8
0
100
AcDbText
 10
-0.3842018092336375
 20
11.46481088910994
 30
0.0
 40
0.131486625
  1
EMBEDMENT LINE  
 50
270.0
100
AcDbText
  0
CIRCLE
  5
15E
330
2
100
AcDbEntity
  8
0
100
AcDbCircle
 10
-1.500000000000004
 20
10.3125
 30
0.0
 40
0.0855
  0
ARC
  5
160
330
2
100
AcDbEntity
  8
0
100
AcDbCircle
 10
-0.5625
 20
9.3125
 30
0.0
 40
0.0625
100
AcDbArc
 50
0.0
 51
89.99999999999999
  0
ARC
  5
161
330
2
100
AcDbEntity
  8
0
100
AcDbCircle
 10
0.5625
 20
9.3125
 30
0.0
 40
0.0625
100
AcDbArc
 50
89.99999999999999
 51
180.0
  0
CIRCLE
  5
162
330
2
100
AcDbEntity
  8
0
100
AcDbCircle
 10
0.0
 20
10.0
 30
0.0
 40
0.0855
  0
CIRCLE
  5
163
330
2
100
AcDbEntity
  8
0
100
AcDbCircle
 10
-0.0000000000000036
 20
10.0
 30
0.0
 40
0.0855
  0
CIRCLE
  5
165
330
2
100
AcDbEntity
  8
0
100
AcDbCircle
 10
0.0
 20
11.5
 30
0.0
 40
0.15625
  0
LINE
  5
166
330
2
100
AcDbEntity
  8
0
100
AcDbLine
 10
-0.1562500000000036
 20
12.015625
 30
0.0
 11
-0.1562500000000036
 21
12.0
 31
0.0
  0
LINE
  5
167
330
2
100
AcDbEntity
  8
0
100
AcDbLine
 10
-0.3125000000000036
 20
11.89085944886443
 30
0.0
 11
-0.3703301381555306
 21
11.7705293107089
 31
0.0
  0
LINE
  5
168
330
2
100
AcDbEntity
  8
0
100
AcDbLine
 10
-0.3125000000000036
 20
11.89085944886443
 30
0.0
 11
-0.2546698618444765
 21
11.7705293107089
 31
0.0
  0
LINE
  5
169
330
2
100
AcDbEntity
  8
0
100
AcDbLine
 10
-0.4687500000000036
 20
12.015625
 30
0.0
 11
-0.4687500000000036
 21
12.0
 31
0.0
  0
LINE
  5
16A
330
2
100
AcDbEntity
  8
0
100
AcDbLine
 10
-0.1562500000000036
 20
12.0
 30
0.0
 11
-0.4687500000000036
 21
12.0
 31
0.0
  0
LINE
  5
16B
330
2
100
AcDbEntity
  8
0
100
AcDbLine
 10
-0.1562500000000036
 20
12.0
 30
0.0
 11
-0.4687500000000036
 21
12.0
 31
0.0
  0
LINE
  5
16C
330
2
100
AcDbEntity
  8
0
100
AcDbLine
 10
-0.1562500000000036
 20
12.015625
 30
0.0
 11
-0.4687500000000036
 21
12.015625
 31
0.0
  0
SOLID
  5
16D
330
2
100
AcDbEntity
  8
0
100
AcDbTrace
 10
-0.1562500000000036
 20
12.015625
 30
0.0
 11
-0.1562500000000036
 21
12.0
 31
0.0
 12
-0.4687500000000036
 22
12.015625
 32
0.0
 13
-0.4687500000000036
 23
12.0
 33
0.0
  0
LINE
  5
16E
330
2
100
AcDbEntity
  8
0
100
AcDbLine
 10
-0.3125000000000036
 20
11.59451059965128
 30
0.0
 11
-0.3125000000000036
 21
11.89085944886443
 31
0.0
  0
LINE
  5
16F
330
2
100
AcDbEntity
  8
0
100
AcDbLine
 10
0.5625
 20
11.95514970637909
 30
0.0
 11
0.7466030893537656
 21
11.44933062552778
 31
0.0
  0
CIRCLE
  5
170
330
2
100
AcDbEntity
  8
0
100
AcDbCircle
 10
0.0
 20
11.5
 30
0.0
 40
0.0855
  0
CIRCLE
  5
171
330
2
100
AcDbEntity
  8
0
100
AcDbCircle
 10
0.0
 20
11.5
 30
0.0
 40
0.0855
  0
CIRCLE
  5
172
330
2
100
AcDbEntity
  8
0
100
AcDbCircle
 10
0.0
 20
11.5
 30
0.0
 40
0.0315
  0
ARC
  5
173
330
2
100
AcDbEntity
  8
0
100
AcDbCircle
 10
0.8029846466009225
 20
11.46985183412733
 30
0.0
 40
0.06
100
AcDbArc
 50
200.0000000000003
 51
224.5651514285185
  0
LINE
  5
174
330
2
100
AcDbEntity
  8
0
100
AcDbLine
 10
0.7508999999999979
 20
11.44006610619502
 30
0.0
 11
0.7508999999999979
 21
11.3125
 31
0.0
  0
LINE
  5
176
330
2
100
AcDbEntity
  8
0
100
AcDbLine
 10
3.751809084898628
 20
10.9375
 30
0.0
 11
1.125899999999998
 21
10.9375
 31
0.0
  0
LINE
  5
177
330
2
100
AcDbEntity
  8
0
100
AcDbLine
 10
3.751809084898628
 20
10.9835
 30
0.0
 11
1.171899999999997
 21
10.9835
 31
0.0
  0
CIRCLE
  5
178
330
2
100
AcDbEntity
  8
0
100
AcDbCircle
 10
1.499999999999996
 20
10.3125
 30
0.0
 40
0.0855
  0
LINE
  5
179
330
2
100
AcDbEntity
  8
0
100
AcDbLine
 10
3.751809084898628
 20
10.9835
 30
0.0
 11
3.751809084898628
 21
9.9375
 31
0.0
  0
LINE
  5
17A
330
2
100
AcDbEntity
  8
0
100
AcDbLine
 10
3.501809084898628
 20
9.6875
 30
0.0
 11
3.751809084898628
 21
9.9375
 31
0.0
  0
CIRCLE
  5
17B
330
2
100
AcDbEntity
  8
0
100
AcDbCircle
 10
3.437499999999996
 20
10.0
 30
0.0
 40
0.0855
  0
LINE
  5
17C
330
2
100
AcDbEntity
  8
0
100
AcDbLine
 10
3.501809084898628
 20
10.9835
 30
0.0
 11
3.501809084898628
 21
10.9375
 31
0.0
  0
LINE
  5
17D
330
2
100
AcDbEntity
  8
0
100
AcDbLine
 10
3.751809084898628
 20
10.9835
 30
0.0
 11
3.732677805416699
 21
10.9835
 31
0.0
  0
LINE
  5
17E
330
2
100
AcDbEntity
  8
0
100
AcDbLine
 10
0.7968999999999973
 20
11.39431469751991
 30
0.0
 11
0.7968999999999973
 21
11.3585
 31
0.0
  0
ARC
  5
17F
330
2
100
AcDbEntity
  8
0
100
AcDbCircle
 10
0.0
 20
15.100058
 30
0.0
 40
0.2865
100
AcDbArc
 50
178.571672
 51
1.428327999999992
  0
LINE
  5
181
330
2
100
AcDbEntity
  8
0
100
AcDbLine
 10
-0.7490909151013696
 20
13.8125
 30
0.0
 11
-0.7950909151013725
 21
13.8125
 31
0.0
  0
CIRCLE
  5
182
330
2
100
AcDbEntity
  8
0
100
AcDbCircle
 10
0.1874999999999965
 20
13.75
 30
0.0
 40
0.15625
  0
CIRCLE
  5
183
330
2
100
AcDbEntity
  8
0
100
AcDbCircle
 10
0.1874999999999965
 20
13.75
 30
0.0
 40
0.0315
  0
CIRCLE
  5
184
330
2
100
AcDbEntity
  8
0
100
AcDbCircle
 10
0.1874999999999965
 20
13.75
 30
0.0
 40
0.0855
  0
CIRCLE
  5
185
330
2
100
AcDbEntity
  8
0
100
AcDbCircle
 10
0.1874999999999965
 20
13.75
 30
0.0
 40
0.0855
  0
LINE
  5
187
330
2
100
AcDbEntity
  8
0
100
AcDbLine
 10
-0.5625
 20
14.0625
 30
0.0
 11
-0.7950909151013725
 21
14.0625
 31
0.0
  0
LINE
  5
188
330
2
100
AcDbEntity
  8
0
100
AcDbLine
 10
0.2239109999999975
 20
16.02774446649445
 30
0.0
 11
0.2239109999999975
 21
15.09374419932045
 31
0.0
  0
LINE
  5
189
330
2
100
AcDbEntity
  8
0
100
AcDbLine
 10
-0.0364109999999975
 20
16.04088233901034
 30
0.0
 11
-0.0364109999999975
 21
15.73478314544088
 31
0.0
  0
LINE
  5
18A
330
2
100
AcDbEntity
  8
0
100
AcDbLine
 10
0.0364109999999975
 20
16.02795716563126
 30
0.0
 11
0.0364109999999975
 21
15.71715779588234
 31
0.0
  0
LINE
  5
18B
330
2
100
AcDbEntity
  8
0
100
AcDbLine
 10
0.2864109999999975
 20
16.00011
 30
0.0
 11
0.2864109999999975
 21
15.092916
 31
0.0
  0
LINE
  5
18C
330
2
100
AcDbEntity
  8
0
100
AcDbLine
 10
-0.2239109999999975
 20
16.02774446649445
 30
0.0
 11
-0.2239109999999975
 21
15.09374419932047
 31
0.0
  0
LINE
  5
18D
330
2
100
AcDbEntity
  8
0
100
AcDbLine
 10
-0.2864109999999975
 20
16.00011
 30
0.0
 11
-0.2864109999999975
 21
15.092916
 31
0.0
  0
ARC
  5
18E
330
2
100
AcDbEntity
  8
0
100
AcDbCircle
 10
0.0
 20
15.100058
 30
0.0
 40
0.224
100
AcDbArc
 50
178.571672
 51
1.428327999999992
  0
LINE
  5
18F
330
2
100
AcDbEntity
  8
0
100
AcDbLine
 10
0.0364109999999975
 20
15.65958032656949
 30
0.0
 11
0.0364109999999975
 21
15.2917915405266
 31
0.0
  0
LINE
  5
190
330
2
100
AcDbEntity
  8
0
100
AcDbLine
 10
-0.0364109999999975
 20
15.33879330232122
 30
0.0
 11
-0.0364109999999975
 21
15.092916
 31
0.0
  0
LINE
  5
191
330
2
100
AcDbEntity
  8
0
100
AcDbLine
 10
0.0364109999999975
 20
15.20248819311683
 30
0.0
 11
0.0364109999999975
 21
15.092916
 31
0.0
  0
ARC
  5
192
330
2
100
AcDbEntity
  8
0
100
AcDbCircle
 10
0.0
 20
15.100058
 30
0.0
 40
0.0365
100
AcDbArc
 50
178.571672
 51
1.428327999999992
  0
LINE
  5
193
330
2
100
AcDbEntity
  8
0
100
AcDbLine
 10
-0.0364109999999975
 20
15.65488015039002
 30
0.0
 11
-0.0364109999999975
 21
15.40107063669909
 31
0.0
  0
ARC
  5
194
330
2
100
AcDbEntity
  8
0
100
AcDbCircle
 10
0.0
 20
15.992858
 30
0.0
 40
0.2865
100
AcDbArc
 50
45.12940596669645
 51
134.8705940333036
  0
LINE
  5
195
330
2
100
AcDbEntity
  8
0
100
AcDbLine
 10
0.3125
 20
16.19590112860018
 30
0.0
 11
-0.2021280236094221
 21
16.19590112860018
 31
0.0
  0
LINE
  5
196
330
2
100
AcDbEntity
  8
0
100
AcDbLine
 10
0.3117217542575546
 20
16.14510112860018
 30
0.0
 11
-0.2427020391221078
 21
16.14510112860018
 31
0.0
  0
ARC
  5
197
330
2
100
AcDbEntity
  8
0
100
AcDbCircle
 10
0.0
 20
15.43683765913842
 30
0.0
 40
0.6319074227295306
100
AcDbArc
 50
63.02571624592445
 51
116.9742837540755
  0
LINE
  5
198
330
2
100
AcDbEntity
  8
0
100
AcDbLine
 10
-0.5625
 20
16.0
 30
0.0
 11
-0.2866272295787766
 21
16.0
 31
0.0
  0
LINE
  5
199
330
2
100
AcDbEntity
  8
0
100
AcDbLine
 10
-0.3125
 20
16.19590112860018
 30
0.0
 11
-0.5625
 21
16.14510112860018
 31
0.0
  0
LINE
  5
19A
330
2
100
AcDbEntity
  8
0
100
AcDbLine
 10
-0.3132782457424455
 20
16.14510112860018
 30
0.0
 11
-0.5625
 21
16.09430112860018
 31
0.0
  0
LINE
  5
19B
330
2
100
AcDbEntity
  8
0
100
AcDbLine
 10
-0.2427020391221042
 20
16.14510112860018
 30
0.0
 11
-0.3132782457424455
 21
16.14510112860018
 31
0.0
  0
LINE
  5
19C
330
2
100
AcDbEntity
  8
0
100
AcDbLine
 10
-0.3125
 20
16.19590112860018
 30
0.0
 11
-0.3132782457424455
 21
16.14510112860018
 31
0.0
  0
LINE
  5
19D
330
2
100
AcDbEntity
  8
0
100
AcDbLine
 10
-0.2021280236094185
 20
16.19590112860018
 30
0.0
 11
-0.3125
 21
16.19590112860018
 31
0.0
  0
LINE
  5
19E
330
2
100
AcDbEntity
  8
0
100
AcDbLine
 10
0.2866272295787766
 20
16.0
 30
0.0
 11
0.5625000000000036
 21
16.0
 31
0.0
  0
LINE
  5
19F
330
2
100
AcDbEntity
  8
0
100
AcDbLine
 10
0.5625
 20
16.14510112860018
 30
0.0
 11
0.3125
 21
16.19590112860018
 31
0.0
  0
LINE
  5
1A0
330
2
100
AcDbEntity
  8
0
100
AcDbLine
 10
0.5625
 20
16.09430112860018
 30
0.0
 11
0.3117217542575546
 21
16.14510112860018
 31
0.0
  0
LINE
  5
1A1
330
2
100
AcDbEntity
  8
0
100
AcDbLine
 10
0.3125
 20
16.19590112860018
 30
0.0
 11
0.3117217542575546
 21
16.14510112860018
 31
0.0
  0
CIRCLE
  5
1A2
330
2
100
AcDbEntity
  8
0
100
AcDbCircle
 10
-3.350000000000004
 20
20.34556797494106
 30
0.0
 40
0.0855
  0
CIRCLE
  5
1AC
330
2
100
AcDbEntity
  8
0
100
AcDbCircle
 10
3.359711896467699
 20
20.33896237007227
 30
0.0
 40
0.0855
  0
LINE
  5
1BA
330
2
100
AcDbEntity
  8
0
100
AcDbLine
 10
0.5624999999999965
 20
21.3442309697767
 30
0.0
 11
0.6979467358900529
 21
21.3442309697767
 31
0.0
  0
ARC
  5
1BB
330
2
100
AcDbEntity
  8
0
100
AcDbCircle
 10
0.6979467358900529
 20
21.2192309697767
 30
0.0
 40
0.1249999999999982
100
AcDbArc
 50
48.97178182337364
 51
89.99999999999999
  0
LINE
  5
1BC
330
2
100
AcDbEntity
  8
0
100
AcDbLine
 10
0.7800005663834035
 20
21.31352926722351
 30
0.0
 11
2.179711896467698
 21
20.09556797494106
 31
0.0
  0
LINE
  5
1BD
330
2
100
AcDbEntity
  8
0
100
AcDbLine
 10
2.179711896467698
 20
20.09556797494106
 30
0.0
 11
3.509711896467696
 21
20.09556797494106
 31
0.0
  0
LINE
  5
1BE
330
2
100
AcDbEntity
  8
0
100
AcDbLine
 10
3.509711896467696
 20
20.09556797494106
 30
0.0
 11
3.759711896467696
 21
20.29556797494105
 31
0.0
  0
LINE
  5
1BF
330
2
100
AcDbEntity
  8
0
100
AcDbLine
 10
3.759711896467696
 20
20.29556797494105
 30
0.0
 11
3.759711896467696
 21
20.29556797494105
 31
0.0
  0
LINE
  5
1C0
330
2
100
AcDbEntity
  8
0
100
AcDbLine
 10
3.759711896467696
 20
20.29556797494105
 30
0.0
 11
3.759711896467696
 21
21.38556797494105
 31
0.0
  0
LINE
  5
1C1
330
2
100
AcDbEntity
  8
0
100
AcDbLine
 10
3.759711896467696
 20
21.38556797494105
 30
0.0
 11
0.3008083584619392
 21
21.38556797494105
 31
0.0
  0
LINE
  5
1C3
330
2
100
AcDbEntity
  8
0
100
AcDbLine
 10
-0.748437069658987
 20
21.38556797494105
 30
0.0
 11
-3.750000000000004
 21
21.38556797494105
 31
0.0
  0
LINE
  5
1C4
330
2
100
AcDbEntity
  8
0
100
AcDbLine
 10
-3.750000000000004
 20
21.38556797494105
 30
0.0
 11
-3.750000000000004
 21
20.29556797494105
 31
0.0
  0
LINE
  5
1C5
330
2
100
AcDbEntity
  8
0
100
AcDbLine
 10
-3.750000000000004
 20
20.29556797494105
 30
0.0
 11
-3.750000000000004
 21
20.29556797494105
 31
0.0
  0
LINE
  5
1C6
330
2
100
AcDbEntity
  8
0
100
AcDbLine
 10
-3.750000000000004
 20
20.29556797494105
 30
0.0
 11
-3.500000000000004
 21
20.09556797494106
 31
0.0
  0
LINE
  5
1C7
330
2
100
AcDbEntity
  8
0
100
AcDbLine
 10
-3.500000000000004
 20
20.09556797494106
 30
0.0
 11
-2.170000000000005
 21
20.09556797494106
 31
0.0
  0
LINE
  5
1C8
330
2
100
AcDbEntity
  8
0
100
AcDbLine
 10
-2.170000000000005
 20
20.09556797494106
 30
0.0
 11
-0.7845000000000049
 21
21.30116325318726
 31
0.0
  0
LINE
  5
1C9
330
2
100
AcDbEntity
  8
0
100
AcDbLine
 10
-0.7425000000000033
 20
21.29637262239053
 30
0.0
 11
-0.7425000000000033
 21
20.0942309697767
 31
0.0
  0
LINE
  5
1CA
330
2
100
AcDbEntity
  8
0
100
AcDbLine
 10
-0.7425000000000033
 20
20.0942309697767
 30
0.0
 11
-0.7845000000000049
 21
20.0942309697767
 31
0.0
  0
LINE
  5
1CB
330
2
100
AcDbEntity
  8
0
100
AcDbLine
 10
-0.7845000000000049
 20
20.0942309697767
 30
0.0
 11
-0.7845000000000049
 21
21.2598262480229
 31
0.0
  0
LINE
  5
1CC
330
2
100
AcDbEntity
  8
0
100
AcDbLine
 10
-0.3004063068895171
 20
21.38623096977669
 30
0.0
 11
-0.7456918270303241
 21
21.38623096977669
 31
0.0
  0
LINE
  5
1CD
330
2
100
AcDbEntity
  8
0
100
AcDbLine
 10
-0.3125000000000036
 20
21.3442309697767
 30
0.0
 11
-0.5625000000000036
 21
21.3442309697767
 31
0.0
  0
LINE
  5
1CE
330
2
100
AcDbEntity
  8
0
100
AcDbLine
 10
-0.7845000000000049
 20
21.2598262480229
 30
0.0
 11
-0.7845000000000049
 21
21.33837262239053
 31
0.0
  0
LINE
  5
1CF
330
2
100
AcDbEntity
  8
0
100
AcDbLine
 10
-0.5625000000000036
 20
21.3442309697767
 30
0.0
 11
-0.7036918270303225
 21
21.3442309697767
 31
0.0
  0
LINE
  5
1D0
330
2
100
AcDbEntity
  8
0
100
AcDbLine
 10
-0.5625000000000036
 20
21.3442309697767
 30
0.0
 11
-0.6875000000000036
 21
21.3442309697767
 31
0.0
  0
LINE
  5
1D1
330
2
100
AcDbEntity
  8
0
100
AcDbLine
 10
-0.6872828790188201
 20
21.3442309697767
 30
0.0
 11
-0.7036918270303225
 21
21.3442309697767
 31
0.0
  0
LINE
  5
1D2
330
2
100
AcDbEntity
  8
0
100
AcDbLine
 10
-0.394947739780914
 20
21.38623096977669
 30
0.0
 11
-0.3004063068895171
 21
21.38623096977669
 31
0.0
  0
LINE
  5
1D3
330
2
100
AcDbEntity
  8
0
100
AcDbLine
 10
0.5624999999999965
 20
21.3442309697767
 30
0.0
 11
0.3124999999999965
 21
21.3442309697767
 31
0.0
  0
LINE
  5
1D4
330
2
100
AcDbEntity
  8
0
100
AcDbLine
 10
-0.3125000000000036
 20
19.9067309697767
 30
0.0
 11
0.3124999999999965
 21
19.9067309697767
 31
0.0
  0
ARC
  5
1D5
330
2
100
AcDbEntity
  8
0
100
AcDbCircle
 10
-0.0024999999999942
 20
20.7792309697767
 30
0.0
 40
0.31
100
AcDbArc
 50
180.0
 51
270.0
  0
ARC
  5
1D6
330
2
100
AcDbEntity
  8
0
100
AcDbCircle
 10
0.0000000000000036
 20
21.2036059697767
 30
0.0
 40
0.351562
100
AcDbArc
 50
23.57817799999998
 51
156.421822
  0
LINE
  5
1D7
330
2
100
AcDbEntity
  8
0
100
AcDbLine
 10
-0.5625000000000036
 20
21.3442309697767
 30
0.0
 11
-0.5625000000000036
 21
20.1567309697767
 31
0.0
  0
LINE
  5
1D8
330
2
100
AcDbEntity
  8
0
100
AcDbLine
 10
-0.3125000000000036
 20
21.3442309697767
 30
0.0
 11
-0.3125000000000036
 21
20.7792309697767
 31
0.0
  0
LINE
  5
1D9
330
2
100
AcDbEntity
  8
0
100
AcDbLine
 10
-0.3125000000000036
 20
21.3442309697767
 30
0.0
 11
-0.5625000000000036
 21
21.3442309697767
 31
0.0
  0
LINE
  5
1DA
330
2
100
AcDbEntity
  8
0
100
AcDbLine
 10
-0.3125000000000036
 20
19.9067309697767
 30
0.0
 11
-0.5625000000000036
 21
20.1567309697767
 31
0.0
  0
ARC
  5
1DB
330
2
100
AcDbEntity
  8
0
100
AcDbCircle
 10
0.0025000000000013
 20
20.7792309697767
 30
0.0
 40
0.31
100
AcDbArc
 50
270.0
 51
0.0
  0
LINE
  5
1DC
330
2
100
AcDbEntity
  8
0
100
AcDbLine
 10
0.5624999999999965
 20
20.1567309697767
 30
0.0
 11
0.5624999999999965
 21
21.3442309697767
 31
0.0
  0
LINE
  5
1DD
330
2
100
AcDbEntity
  8
0
100
AcDbLine
 10
0.3124999999999965
 20
20.7792309697767
 30
0.0
 11
0.3124999999999965
 21
21.3442309697767
 31
0.0
  0
LINE
  5
1DE
330
2
100
AcDbEntity
  8
0
100
AcDbLine
 10
0.5624999999999965
 20
21.3442309697767
 30
0.0
 11
0.3124999999999965
 21
21.3442309697767
 31
0.0
  0
LINE
  5
1DF
330
2
100
AcDbEntity
  8
0
100
AcDbLine
 10
-0.0025000000000013
 20
20.4692309697767
 30
0.0
 11
0.0025000000000013
 21
20.4692309697767
 31
0.0
  0
LINE
  5
1E0
330
2
100
AcDbEntity
  8
0
100
AcDbLine
 10
0.3124999999999965
 20
19.9067309697767
 30
0.0
 11
0.5624999999999965
 21
20.1567309697767
 31
0.0
  0
LINE
  5
1EE
330
2
100
AcDbEntity
  8
0
100
AcDbLine
 10
9.178705227980252
 20
0.0000000000000036
 30
0.0
 11
9.178705227980252
 21
10.89803958792938
 31
0.0
  0
LINE
  5
1EF
330
2
100
AcDbEntity
  8
0
100
AcDbLine
 10
9.13073622798025
 20
10.94303958792938
 30
0.0
 11
9.13073622798025
 21
0.0000000000000036
 31
0.0
  0
LINE
  5
1F0
330
2
100
AcDbEntity
  8
0
100
AcDbLine
 10
9.13073622798025
 20
0.0000000000000036
 30
0.0
 11
9.178705227980252
 21
0.0000000000000036
 31
0.0
  0
ARC
  5
1F1
330
2
100
AcDbEntity
  8
0
100
AcDbCircle
 10
8.881830227980249
 20
15.7687848933779
 30
0.0
 40
0.484375
100
AcDbArc
 50
0.000000000000007
 51
90.0
  0
LINE
  5
1F2
330
2
100
AcDbEntity
  8
0
100
AcDbLine
 10
7.927796143081618
 20
12.48501174946237
 30
0.0
 11
7.927796143081618
 21
13.8125
 31
0.0
  0
LINE
  5
1F3
330
2
100
AcDbEntity
  8
0
100
AcDbLine
 10
9.178705227980252
 20
10.9767139250775
 30
0.0
 11
9.178705227980252
 21
14.0625
 31
0.0
  0
LINE
  5
1F4
330
2
100
AcDbEntity
  8
0
100
AcDbLine
 10
9.224705227980252
 20
10.89703958792938
 30
0.0
 11
9.224705227980252
 21
14.0625
 31
0.0
  0
LINE
  5
1F5
330
2
100
AcDbEntity
  8
0
100
AcDbLine
 10
9.13073622798025
 20
14.0625
 30
0.0
 11
9.13073622798025
 21
10.98903958792938
 31
0.0
  0
ARC
  5
1F6
330
2
100
AcDbEntity
  8
0
100
AcDbCircle
 10
8.819548527793096
 20
11.17150328521335
 30
0.0
 40
0.2284642501997095
100
AcDbArc
 50
306.9983188061198
 51
6.233431190233434
  0
ARC
  5
1F7
330
2
100
AcDbEntity
  8
0
100
AcDbCircle
 10
8.824088275641859
 20
11.1447653515323
 30
0.0
 40
0.2284642501997095
100
AcDbArc
 50
317.0296476099886
 51
59.2996656114588
  0
LINE
  5
1F8
330
2
100
AcDbEntity
  8
0
100
AcDbLine
 10
9.224705227980252
 20
9.687500000000004
 30
0.0
 11
9.224705227980248
 21
10.89703958792938
 31
0.0
  0
LINE
  5
1F9
330
2
100
AcDbEntity
  8
0
100
AcDbLine
 10
9.178705227980252
 20
9.687500000000004
 30
0.0
 11
9.178705227980252
 21
10.89703958792938
 31
0.0
  0
LINE
  5
1FA
330
2
100
AcDbEntity
  8
0
100
AcDbLine
 10
9.224705227980252
 20
9.6875
 30
0.0
 11
9.178705227980252
 21
9.6875
 31
0.0
  0
LINE
  5
1FB
330
2
100
AcDbEntity
  8
0
100
AcDbLine
 10
9.224705227980252
 20
9.9375
 30
0.0
 11
9.178705227980252
 21
9.9375
 31
0.0
  0
LINE
  5
1FC
330
2
100
AcDbEntity
  8
0
100
AcDbLine
 10
9.132705227980246
 20
10.98903958792938
 30
0.0
 11
7.92856904307504
 21
10.98903958792938
 31
0.0
  0
LINE
  5
1FD
330
2
100
AcDbEntity
  8
0
100
AcDbLine
 10
9.132705227980253
 20
10.94303958792938
 30
0.0
 11
7.92856904307504
 21
10.94303958792938
 31
0.0
  0
ARC
  5
1FE
330
2
100
AcDbEntity
  8
0
100
AcDbCircle
 10
9.132705227980253
 20
10.89703958792938
 30
0.0
 40
0.046
100
AcDbArc
 50
0.000000000000007
 51
90.0000000000001
  0
ARC
  5
1FF
330
2
100
AcDbEntity
  8
0
100
AcDbCircle
 10
9.132705227980246
 20
10.89703958792938
 30
0.0
 40
0.092
100
AcDbArc
 50
0.0000000000002106
 51
90.0
  0
LINE
  5
200
330
2
100
AcDbEntity
  8
0
100
AcDbLine
 10
8.17856904307504
 20
10.98903958792938
 30
0.0
 11
8.17856904307504
 21
10.94303958792938
 31
0.0
  0
LINE
  5
201
330
2
100
AcDbEntity
  8
0
100
AcDbLine
 10
7.92856904307504
 20
10.98903958792938
 30
0.0
 11
7.92856904307504
 21
10.94303958792938
 31
0.0
  0
LINE
  5
202
330
2
100
AcDbEntity
  8
0
100
AcDbLine
 10
8.940730227066844
 20
11.34121017530501
 30
0.0
 11
7.927796143081618
 21
12.48501174946237
 31
0.0
  0
LINE
  5
203
330
2
100
AcDbEntity
  8
0
100
AcDbLine
 10
9.306562067631091
 20
11.5945
 30
0.0
 11
9.306562067631091
 21
11.4055
 31
0.0
  0
LINE
  5
204
330
2
100
AcDbEntity
  8
0
100
AcDbLine
 10
9.243562067631093
 20
11.5315
 30
0.0
 11
9.243562067631089
 21
11.5945
 31
0.0
  0
LINE
  5
205
330
2
100
AcDbEntity
  8
0
100
AcDbLine
 10
9.111739037617941
 20
11.6575
 30
0.0
 11
9.111739037617941
 21
11.5315
 31
0.0
  0
LINE
  5
206
330
2
100
AcDbEntity
  8
0
100
AcDbLine
 10
9.063991219849196
 20
11.3425
 30
0.0
 11
9.063991219849193
 21
11.6575
 31
0.0
  0
LINE
  5
207
330
2
100
AcDbEntity
  8
0
100
AcDbLine
 10
9.111739037617941
 20
11.4685
 30
0.0
 11
9.111739037617941
 21
11.3425
 31
0.0
  0
LINE
  5
208
330
2
100
AcDbEntity
  8
0
100
AcDbLine
 10
9.111739037617941
 20
11.3425
 30
0.0
 11
9.063991219849196
 21
11.3425
 31
0.0
  0
LINE
  5
209
330
2
100
AcDbEntity
  8
0
100
AcDbLine
 10
9.306562067631091
 20
11.4055
 30
0.0
 11
9.243562067631093
 21
11.4055
 31
0.0
  0
LINE
  5
20A
330
2
100
AcDbEntity
  8
0
100
AcDbLine
 10
9.224705227980248
 20
11.5315
 30
0.0
 11
9.243562067631093
 21
11.5315
 31
0.0
  0
LINE
  5
20B
330
2
100
AcDbEntity
  8
0
100
AcDbLine
 10
9.243562067631093
 20
11.4685
 30
0.0
 11
9.224705227980248
 21
11.4685
 31
0.0
  0
LINE
  5
20C
330
2
100
AcDbEntity
  8
0
100
AcDbLine
 10
9.243562067631089
 20
11.4055
 30
0.0
 11
9.243562067631093
 21
11.4685
 31
0.0
  0
LINE
  5
20D
330
2
100
AcDbEntity
  8
0
100
AcDbLine
 10
9.111739037617941
 20
11.5315
 30
0.0
 11
9.13073622798025
 21
11.5315
 31
0.0
  0
LINE
  5
20E
330
2
100
AcDbEntity
  8
0
100
AcDbLine
 10
9.13073622798025
 20
11.4685
 30
0.0
 11
9.111739037617941
 21
11.4685
 31
0.0
  0
LINE
  5
20F
330
2
100
AcDbEntity
  8
0
100
AcDbLine
 10
9.243562067631093
 20
11.5945
 30
0.0
 11
9.306562067631091
 21
11.5945
 31
0.0
  0
LINE
  5
210
330
2
100
AcDbEntity
  8
0
100
AcDbLine
 10
9.063991219849193
 20
11.6575
 30
0.0
 11
9.111739037617937
 21
11.6575
 31
0.0
  0
ARC
  5
211
330
2
100
AcDbEntity
  8
0
100
AcDbCircle
 10
9.178705227980249
 20
14.937509
 30
0.0
 40
0.1875
100
AcDbArc
 50
270.0
 51
0.000000000000007
  0
LINE
  5
212
330
2
100
AcDbEntity
  8
0
100
AcDbLine
 10
9.13073622798025
 20
15.81351802958439
 30
0.0
 11
9.13073622798025
 21
14.0625
 31
0.0
  0
LINE
  5
213
330
2
100
AcDbEntity
  8
0
100
AcDbLine
 10
9.178705227980252
 20
14.0625
 30
0.0
 11
9.178705227980252
 21
15.81843358086444
 31
0.0
  0
LINE
  5
214
330
2
100
AcDbEntity
  8
0
100
AcDbLine
 10
8.177796143081618
 20
14.0625
 30
0.0
 11
7.927796143081618
 21
13.8125
 31
0.0
  0
LINE
  5
215
330
2
100
AcDbEntity
  8
0
100
AcDbLine
 10
9.111739037617937
 20
13.5925
 30
0.0
 11
9.063991219849193
 21
13.5925
 31
0.0
  0
LINE
  5
216
330
2
100
AcDbEntity
  8
0
100
AcDbLine
 10
9.111739037617937
 20
13.7185
 30
0.0
 11
9.111739037617937
 21
13.5925
 31
0.0
  0
LINE
  5
217
330
2
100
AcDbEntity
  8
0
100
AcDbLine
 10
9.111739037617937
 20
13.9075
 30
0.0
 11
9.111739037617937
 21
13.7815
 31
0.0
  0
LINE
  5
218
330
2
100
AcDbEntity
  8
0
100
AcDbLine
 10
9.063991219849193
 20
13.9075
 30
0.0
 11
9.111739037617937
 21
13.9075
 31
0.0
  0
LINE
  5
219
330
2
100
AcDbEntity
  8
0
100
AcDbLine
 10
9.063991219849193
 20
13.5925
 30
0.0
 11
9.063991219849193
 21
13.9075
 31
0.0
  0
LINE
  5
21A
330
2
100
AcDbEntity
  8
0
100
AcDbLine
 10
9.243562067631089
 20
13.6555
 30
0.0
 11
9.243562067631089
 21
13.7185
 31
0.0
  0
LINE
  5
21B
330
2
100
AcDbEntity
  8
0
100
AcDbLine
 10
9.243562067631089
 20
13.7185
 30
0.0
 11
9.224705227980245
 21
13.7185
 31
0.0
  0
LINE
  5
21C
330
2
100
AcDbEntity
  8
0
100
AcDbLine
 10
9.306562067631091
 20
13.6555
 30
0.0
 11
9.243562067631089
 21
13.6555
 31
0.0
  0
LINE
  5
21D
330
2
100
AcDbEntity
  8
0
100
AcDbLine
 10
9.224705227980245
 20
13.7815
 30
0.0
 11
9.243562067631089
 21
13.7815
 31
0.0
  0
LINE
  5
21E
330
2
100
AcDbEntity
  8
0
100
AcDbLine
 10
9.243562067631089
 20
13.7815
 30
0.0
 11
9.243562067631089
 21
13.8445
 31
0.0
  0
LINE
  5
21F
330
2
100
AcDbEntity
  8
0
100
AcDbLine
 10
9.243562067631089
 20
13.8445
 30
0.0
 11
9.306562067631091
 21
13.8445
 31
0.0
  0
LINE
  5
220
330
2
100
AcDbEntity
  8
0
100
AcDbLine
 10
9.306562067631091
 20
13.8445
 30
0.0
 11
9.306562067631091
 21
13.6555
 31
0.0
  0
LINE
  5
221
330
2
100
AcDbEntity
  8
0
100
AcDbLine
 10
9.13073622798025
 20
13.7185
 30
0.0
 11
9.111739037617937
 21
13.7185
 31
0.0
  0
LINE
  5
222
330
2
100
AcDbEntity
  8
0
100
AcDbLine
 10
9.111739037617937
 20
13.7815
 30
0.0
 11
9.13073622798025
 21
13.7815
 31
0.0
  0
CIRCLE
  5
223
330
2
100
AcDbEntity
  8
0
100
AcDbCircle
 10
8.177796143081622
 20
13.62805039094164
 30
0.0
 40
0.0855
  0
LINE
  5
224
330
2
100
AcDbEntity
  8
0
100
AcDbLine
 10
8.177796143081618
 20
14.0625
 30
0.0
 11
9.178705227980252
 21
14.0625
 31
0.0
  0
LINE
  5
225
330
2
100
AcDbEntity
  8
0
100
AcDbLine
 10
9.178705227980252
 20
14.0625
 30
0.0
 11
9.224705227980252
 21
14.0625
 31
0.0
  0
LINE
  5
226
330
2
100
AcDbEntity
  8
0
100
AcDbLine
 10
9.366205227980249
 20
14.937509
 30
0.0
 11
9.366205227980249
 21
15.7687848933779
 31
0.0
  0
LINE
  5
227
330
2
100
AcDbEntity
  8
0
100
AcDbLine
 10
8.919720290215388
 20
16.0515129484374
 30
0.0
 11
8.503114548714294
 21
16.00752517947447
 31
0.0
  0
LINE
  5
228
330
2
100
AcDbEntity
  8
0
100
AcDbLine
 10
8.923724059727803
 20
16.0
 30
0.0
 11
8.50816900975385
 21
15.95651922791692
 31
0.0
  0
LINE
  5
229
330
2
100
AcDbEntity
  8
0
100
AcDbLine
 10
8.881830227980249
 20
16.2531598933779
 30
0.0
 11
8.443205227980251
 21
16.2531598933779
 31
0.0
  0
ARC
  5
22A
330
2
100
AcDbEntity
  8
0
100
AcDbCircle
 10
8.94323622798025
 20
15.81351802958439
 30
0.0
 40
0.1875
100
AcDbArc
 50
0.000000000000007
 51
95.97329398043253
  0
ARC
  5
22B
330
2
100
AcDbEntity
  8
0
100
AcDbCircle
 10
8.944330227980252
 20
15.81843358086444
 30
0.0
 40
0.234375
100
AcDbArc
 50
0.000000000000007
 51
96.02730489947705
  0
ARC
  5
22C
330
2
100
AcDbEntity
  8
0
100
AcDbCircle
 10
8.443205227980251
 20
16.0656598933779
 30
0.0
 40
0.1875
100
AcDbArc
 50
90.0
 51
180.0
  0
LINE
  5
22D
330
2
100
AcDbEntity
  8
0
100
AcDbLine
 10
8.30350550389992
 20
15.97767029918757
 30
0.0
 11
7.755736227980247
 21
16.1532649248831
 31
0.0
  0
LINE
  5
22E
330
2
100
AcDbEntity
  8
0
100
AcDbLine
 10
8.296723164077694
 20
16.02903244760971
 30
0.0
 11
7.770662764042434
 21
16.19920407918874
 31
0.0
  0
ARC
  5
22F
330
2
100
AcDbEntity
  8
0
100
AcDbCircle
 10
8.450613348149258
 20
16.50476116363011
 30
0.0
 40
0.5
100
AcDbArc
 50
252.0744840309864
 51
276.027304899477
  0
ARC
  5
230
330
2
100
AcDbEntity
  8
0
100
AcDbCircle
 10
8.456136561080665
 20
16.45380448235854
 30
0.0
 40
0.5
100
AcDbArc
 50
252.2260659756092
 51
275.9732939804325
  0
LINE
  5
231
330
2
100
AcDbEntity
  8
0
100
AcDbLine
 10
8.255705227980247
 20
16.0656598933779
 30
0.0
 11
8.255705227980247
 21
16.0423010553765
 31
0.0
  0
LINE
  5
232
330
2
100
AcDbEntity
  8
0
100
AcDbLine
 10
7.770687761871745
 20
16.19928101459648
 30
0.0
 11
7.755736227980247
 21
16.1532649248831
 31
0.0
  0
LINE
  5
233
330
2
100
AcDbEntity
  8
0
100
AcDbLine
 10
8.003572761871748
 20
16.12394666056104
 30
0.0
 11
7.98862122798025
 21
16.07793057084766
 31
0.0
  0
ENDSEC
  0
SECTION
  2
OBJECTS
  0
DICTIONARY
  5
9
330
0
100
AcDbDictionary
281
     1
  3
ACAD_COLOR
350
23D
  3
ACAD_GROUP
350
23
  3
ACAD_LAYOUT
350
D
  3
ACAD_MATERIAL
350
23C
  3
ACAD_MLINESTYLE
350
24
  3
ACAD_PLOTSETTINGS
350
25
  3
ACAD_PLOTSTYLENAME
350
8
  3
ACAD_TABLESTYLE
350
23E
  3
ACDBHEADERROUNDTRIPXREC
350
24C
  3
AcDbVariableDictionary
350
114
  0
DICTIONARY
  5
23D
102
{ACAD_REACTORS
330
9
102
}
330
9
100
AcDbDictionary
281
     1
  0
DICTIONARY
  5
23
102
{ACAD_REACTORS
330
9
102
}
330
9
100
AcDbDictionary
281
     1
  0
DICTIONARY
  5
D
102
{ACAD_REACTORS
330
9
102
}
330
9
100
AcDbDictionary
281
     1
  3
Layout1
350
13
  3
Model
350
C
  0
DICTIONARY
  5
23C
102
{ACAD_REACTORS
330
9
102
}
330
9
100
AcDbDictionary
281
     1
  0
DICTIONARY
  5
24
102
{ACAD_REACTORS
330
9
102
}
330
9
100
AcDbDictionary
281
     1
  3
STANDARD
350
27
  0
DICTIONARY
  5
25
102
{ACAD_REACTORS
330
9
102
}
330
9
100
AcDbDictionary
281
     1
  0
ACDBDICTIONARYWDFLT
  5
8
102
{ACAD_REACTORS
330
9
102
}
330
9
100
AcDbDictionary
281
     1
  3
Normal
350
7
100
AcDbDictionaryWithDefault
340
7
  0
DICTIONARY
  5
23E
102
{ACAD_REACTORS
330
9
102
}
330
9
100
AcDbDictionary
281
     1
  3
Standard
350
23F
  0
DICTIONARY
  5
24C
102
{ACAD_REACTORS
330
9
102
}
330
9
100
AcDbDictionary
281
     1
  3
COLORDICT
350
24D
  3
MATERIALDICT
350
24E
  0
DICTIONARY
  5
114
102
{ACAD_REACTORS
330
9
102
}
330
9
100
AcDbDictionary
281
     1
  3
CTABLESTYLE
350
249
  3
HIDETEXT
350
24B
  0
LAYOUT
  5
13
102
{ACAD_REACTORS
330
D
102
}
102
{ACAD_XDICTIONARY
360
24F
102
}
330
D
100
AcDbPlotSettings
  1

  2
HP LaserJet 2100 Series PS
  4

  6

 40
0.0
 41
0.0
 42
0.0
 43
0.0
 44
0.0
 45
0.0
 46
0.0
 47
0.0
 48
0.0
 49
0.0
140
0.0
141
0.0
142
1.0
143
1.0
 70
   688
 72
     0
 73
     0
 74
     5
  7

 75
    16
147
1.0
148
0.0
149
0.0
100
AcDbLayout
  1
Layout1
 70
     0
 71
     1
 10
0.0
 20
0.0
 11
12.0
 21
9.0
 12
0.0
 22
0.0
 32
0.0
 14
1.000000000000000E+20
 24
1.000000000000000E+20
 34
1.000000000000000E+20
 15
-1.000000000000000E+20
 25
-1.000000000000000E+20
 35
-1.000000000000000E+20
146
0.0
 13
0.0
 23
0.0
 33
0.0
 16
1.0
 26
0.0
 36
0.0
 17
0.0
 27
1.0
 37
0.0
 76
     0
330
E
  0
LAYOUT
  5
C
102
{ACAD_REACTORS
330
D
102
}
102
{ACAD_XDICTIONARY
360
251
102
}
330
D
100
AcDbPlotSettings
  1

  2
\\23NT\test_lab
  4
User140
  6

 40
6.349999904632568
 41
4.233341693878174
 42
6.349990844726563
 43
4.23333740234375
 44
215.8999938964844
 45
279.3999938964844
 46
0.0
 47
0.0
 48
14.14200142685039
 49
29.5252511302876
140
18.10209707176361
141
38.68944274574675
142
1.0
143
1.145523934190724
 70
 11952
 72
     0
 73
     1
 74
     4
  7

 75
     0
147
0.8729629911281325
148
-359.2068362419998
149
-749.941378709305
100
AcDbLayout
  1
Model
 70
     1
 71
     0
 10
0.0
 20
0.0
 11
12.0
 21
9.0
 12
0.0
 22
0.0
 32
0.0
 14
0.0
 24
0.0
 34
0.0
 15
0.0
 25
0.0
 35
0.0
146
0.0
 13
0.0
 23
0.0
 33
0.0
 16
1.0
 26
0.0
 36
0.0
 17
0.0
 27
1.0
 37
0.0
 76
     0
330
2
  0
MLINESTYLE
  5
27
102
{ACAD_REACTORS
330
24
102
}
330
24
100
AcDbMlineStyle
  2
STANDARD
 70
     0
  3

 62
   256
 51
90.0
 52
90.0
 71
     2
 49
0.5
 62
   256
  6
BYLAYER
 49
-0.5
 62
   256
  6
BYLAYER
  0
ACDBPLACEHOLDER
  5
7
102
{ACAD_REACTORS
330
8
102
}
330
8
  0
ACAD_PROXY_OBJECT
  5
23F
102
{ACAD_REACTORS
330
23E
102
}
330
23E
100
AcDbProxyObject
 90
      499
 91
      509
 95
   983063
 70
     0
 93
     1841
310
4214DD185B99185C9928B81E85EB51B8AE3F2E07A17AD46E2B8FC02B5E8DC0F42B1CFD028000000C1008070000C3001FDFF8000000C1003FBFF000000182007F7FE00000030400FEFFC00000060801FDFF8000000C1003FBFF00000018200000000000000681FA0B0000001820100E000186003FBFF000000182007F7FE000
310
00030400FEFFC00000060801FDFF8000000C1003FBFF000000182007F7FE000000304000AD7A3703D0AC73F4160000003040201C00030C007F7FE00000030400FEFFC00000060801FDFF8000000C1003FBFF000000182007F7FE00000030400FEFFC000000608000
340
16
340
16
340
16
 94
        0
  0
XRECORD
  5
24D
102
{ACAD_REACTORS
330
24C
102
}
330
24C
100
AcDbXrecord
340
23D
  0
XRECORD
  5
24E
102
{ACAD_REACTORS
330
24C
102
}
330
24C
100
AcDbXrecord
340
23C
  0
DICTIONARYVAR
  5
249
102
{ACAD_REACTORS
330
114
102
}
330
114
100
DictionaryVariables
280
     0
  1
STANDARD
  0
DICTIONARYVAR
  5
24B
102
{ACAD_REACTORS
330
114
102
}
330
114
100
DictionaryVariables
280
     0
  1
0
  0
DICTIONARY
  5
24F
330
13
100
AcDbDictionary
280
     1
281
     1
  3
ACAD_XREC_ROUNDTRIP
360
250
  0
DICTIONARY
  5
251
330
C
100
AcDbDictionary
280
     1
281
     1
  3
ACAD_XREC_ROUNDTRIP
360
252
  0
XRECORD
  5
250
102
{ACAD_REACTORS
330
24F
102
}
330
24F
100
AcDbXrecord
102
SHADEPLOT
 70
     0
102
SHADEPLOTRESLEVEL
 70
     2
102
SHADEPLOTCUSTOMDPI
 70
   300
  0
XRECORD
  5
252
102
{ACAD_REACTORS
330
251
102
}
330
251
100
AcDbXrecord
102
SHADEPLOT
 70
     0
102
SHADEPLOTRESLEVEL
 70
     2
102
SHADEPLOTCUSTOMDPI
 70
   300
  0
ENDSEC
  0
EOF
