  0
SECTION
  2
HEADER
  9
$ACADVER
  1
AC1015
  9
$ACADMAINTVER
 70
     6
  9
$DWGCODEPAGE
  3
ANSI_1252
  9
$INSBASE
 10
0.0
 20
0.0
 30
0.0
  9
$EXTMIN
 10
-9.704724972654756
 20
0.0
 30
0.0
  9
$EXTMAX
 10
9.704724972654754
 20
25.69371222050405
 30
0.0
  9
$LIMMIN
 10
0.0
 20
0.0
  9
$LIMMAX
 10
31.5
 20
24.0
  9
$ORTHOMODE
 70
     1
  9
$REGENMODE
 70
     1
  9
$FILLMODE
 70
     1
  9
$QTEXTMODE
 70
     0
  9
$MIRRTEXT
 70
     0
  9
$LTSCALE
 40
0.5
  9
$ATTMODE
 70
     1
  9
$TEXTSIZE
 40
0.27
  9
$TRACEWID
 40
0.05
  9
$TEXTSTYLE
  7
STANDARD
  9
$CLAYER
  8
0
  9
$CELTYPE
  6
BYLAYER
  9
$CECOLOR
 62
   256
  9
$CELTSCALE
 40
1.0
  9
$DISPSILH
 70
     0
  9
$DIMSCALE
 40
1.0
  9
$DIMASZ
 40
0.375
  9
$DIMEXO
 40
0.0625
  9
$DIMDLI
 40
0.75
  9
$DIMRND
 40
0.0
  9
$DIMDLE
 40
0.0
  9
$DIMEXE
 40
0.18
  9
$DIMTP
 40
0.0
  9
$DIMTM
 40
0.0
  9
$DIMTXT
 40
0.27
  9
$DIMCEN
 40
-0.06
  9
$DIMTSZ
 40
0.0
  9
$DIMTOL
 70
     0
  9
$DIMLIM
 70
     0
  9
$DIMTIH
 70
     1
  9
$DIMTOH
 70
     1
  9
$DIMSE1
 70
     0
  9
$DIMSE2
 70
     0
  9
$DIMTAD
 70
     0
  9
$DIMZIN
 70
     0
  9
$DIMBLK
  1

  9
$DIMASO
 70
     0
  9
$DIMSHO
 70
     0
  9
$DIMPOST
  1

  9
$DIMAPOST
  1

  9
$DIMALT
 70
     0
  9
$DIMALTD
 70
     2
  9
$DIMALTF
 40
25.4
  9
$DIMLFAC
 40
1.0
  9
$DIMTOFL
 70
     0
  9
$DIMTVP
 40
0.0
  9
$DIMTIX
 70
     0
  9
$DIMSOXD
 70
     0
  9
$DIMSAH
 70
     0
  9
$DIMBLK1
  1

  9
$DIMBLK2
  1

  9
$DIMSTYLE
  2
STANDARD
  9
$DIMCLRD
 70
     0
  9
$DIMCLRE
 70
     0
  9
$DIMCLRT
 70
     0
  9
$DIMTFAC
 40
1.0
  9
$DIMGAP
 40
0.09
  9
$DIMJUST
 70
     0
  9
$DIMSD1
 70
     0
  9
$DIMSD2
 70
     0
  9
$DIMTOLJ
 70
     1
  9
$DIMTZIN
 70
     0
  9
$DIMALTZ
 70
     0
  9
$DIMALTTZ
 70
     0
  9
$DIMUPT
 70
     0
  9
$DIMDEC
 70
     4
  9
$DIMTDEC
 70
     4
  9
$DIMALTU
 70
     2
  9
$DIMALTTD
 70
     2
  9
$DIMTXSTY
  7
STANDARD
  9
$DIMAUNIT
 70
     0
  9
$DIMADEC
 70
     0
  9
$DIMALTRND
 40
0.0
  9
$DIMAZIN
 70
     0
  9
$DIMDSEP
 70
    46
  9
$DIMATFIT
 70
     3
  9
$DIMFRAC
 70
     0
  9
$DIMLDRBLK
  1

  9
$DIMLUNIT
 70
     2
  9
$DIMLWD
 70
    -2
  9
$DIMLWE
 70
    -2
  9
$DIMTMOVE
 70
     2
  9
$LUNITS
 70
     2
  9
$LUPREC
 70
     4
  9
$SKETCHINC
 40
0.1
  9
$FILLETRAD
 40
0.0
  9
$AUNITS
 70
     0
  9
$AUPREC
 70
     0
  9
$MENU
  1
ACAD
  9
$ELEVATION
 40
0.0
  9
$PELEVATION
 40
0.0
  9
$THICKNESS
 40
0.0
  9
$LIMCHECK
 70
     0
  9
$CHAMFERA
 40
0.0
  9
$CHAMFERB
 40
0.0
  9
$CHAMFERC
 40
0.0
  9
$CHAMFERD
 40
0.0
  9
$SKPOLY
 70
     0
  9
$TDCREATE
 40
2449443.971093634
  9
$TDUCREATE
 40
2449444.304426968
  9
$TDUPDATE
 40
2454175.920995428
  9
$TDUUPDATE
 40
2454176.254328762
  9
$TDINDWG
 40
0.1506495718
  9
$TDUSRTIMER
 40
0.1506495718
  9
$USRTIMER
 70
     1
  9
$ANGBASE
 50
0.0
  9
$ANGDIR
 70
     0
  9
$PDMODE
 70
     0
  9
$PDSIZE
 40
0.0
  9
$PLINEWID
 40
0.0
  9
$SPLFRAME
 70
     0
  9
$SPLINETYPE
 70
     6
  9
$SPLINESEGS
 70
     8
  9
$HANDSEED
  5
452
  9
$SURFTAB1
 70
     6
  9
$SURFTAB2
 70
     6
  9
$SURFTYPE
 70
     6
  9
$SURFU
 70
     6
  9
$SURFV
 70
     6
  9
$UCSBASE
  2

  9
$UCSNAME
  2

  9
$UCSORG
 10
0.0
 20
0.0
 30
0.0
  9
$UCSXDIR
 10
1.0
 20
0.0
 30
0.0
  9
$UCSYDIR
 10
0.0
 20
1.0
 30
0.0
  9
$UCSORTHOREF
  2

  9
$UCSORTHOVIEW
 70
     0
  9
$UCSORGTOP
 10
0.0
 20
0.0
 30
0.0
  9
$UCSORGBOTTOM
 10
0.0
 20
0.0
 30
0.0
  9
$UCSORGLEFT
 10
0.0
 20
0.0
 30
0.0
  9
$UCSORGRIGHT
 10
0.0
 20
0.0
 30
0.0
  9
$UCSORGFRONT
 10
0.0
 20
0.0
 30
0.0
  9
$UCSORGBACK
 10
0.0
 20
0.0
 30
0.0
  9
$PUCSBASE
  2

  9
$PUCSNAME
  2

  9
$PUCSORG
 10
0.0
 20
0.0
 30
0.0
  9
$PUCSXDIR
 10
1.0
 20
0.0
 30
0.0
  9
$PUCSYDIR
 10
0.0
 20
1.0
 30
0.0
  9
$PUCSORTHOREF
  2

  9
$PUCSORTHOVIEW
 70
     0
  9
$PUCSORGTOP
 10
0.0
 20
0.0
 30
0.0
  9
$PUCSORGBOTTOM
 10
0.0
 20
0.0
 30
0.0
  9
$PUCSORGLEFT
 10
0.0
 20
0.0
 30
0.0
  9
$PUCSORGRIGHT
 10
0.0
 20
0.0
 30
0.0
  9
$PUCSORGFRONT
 10
0.0
 20
0.0
 30
0.0
  9
$PUCSORGBACK
 10
0.0
 20
0.0
 30
0.0
  9
$USERI1
 70
     0
  9
$USERI2
 70
     0
  9
$USERI3
 70
     0
  9
$USERI4
 70
     0
  9
$USERI5
 70
     0
  9
$USERR1
 40
0.0
  9
$USERR2
 40
0.0
  9
$USERR3
 40
0.0
  9
$USERR4
 40
0.0
  9
$USERR5
 40
0.0
  9
$WORLDVIEW
 70
     1
  9
$SHADEDGE
 70
     3
  9
$SHADEDIF
 70
    70
  9
$TILEMODE
 70
     1
  9
$MAXACTVP
 70
    16
  9
$PINSBASE
 10
0.0
 20
0.0
 30
0.0
  9
$PLIMCHECK
 70
     0
  9
$PEXTMIN
 10
1.000000000000000E+20
 20
1.000000000000000E+20
 30
1.000000000000000E+20
  9
$PEXTMAX
 10
-1.000000000000000E+20
 20
-1.000000000000000E+20
 30
-1.000000000000000E+20
  9
$PLIMMIN
 10
0.0
 20
0.0
  9
$PLIMMAX
 10
12.0
 20
9.0
  9
$UNITMODE
 70
     0
  9
$VISRETAIN
 70
     0
  9
$PLINEGEN
 70
     0
  9
$PSLTSCALE
 70
     0
  9
$TREEDEPTH
 70
  3020
  9
$CMLSTYLE
  2
STANDARD
  9
$CMLJUST
 70
     0
  9
$CMLSCALE
 40
1.0
  9
$PROXYGRAPHICS
 70
     1
  9
$MEASUREMENT
 70
     0
  9
$CELWEIGHT
370
    -1
  9
$ENDCAPS
280
     0
  9
$JOINSTYLE
280
     0
  9
$LWDISPLAY
290
     0
  9
$INSUNITS
 70
     0
  9
$HYPERLINKBASE
  1

  9
$STYLESHEET
  1

  9
$XEDIT
290
     1
  9
$CEPSNTYPE
380
     0
  9
$PSTYLEMODE
290
     1
  9
$FINGERPRINTGUID
  2
{DEC6D521-4AE0-11D5-BE3F-00508B5FCD51}
  9
$VERSIONGUID
  2
{59CD2622-299C-4A39-8405-CE0E9847B903}
  9
$EXTNAMES
290
     1
  9
$PSVPSCALE
 40
0.0
  9
$OLESTARTUP
290
     0
  0
ENDSEC
  0
SECTION
  2
CLASSES
  0
CLASS
  1
DICTIONARYVAR
  2
AcDbDictionaryVar
  3
AutoCAD 2000
 90
        0
280
     0
281
     0
  0
CLASS
  1
LWPOLYLINE
  2
AcDbPolyline
  3
AutoCAD 2000
 90
        0
280
     0
281
     1
  0
CLASS
  1
ACDBDICTIONARYWDFLT
  2
AcDbDictionaryWithDefault
  3
AutoCAD 2000
 90
        0
280
     0
281
     0
  0
CLASS
  1
ACDBPLACEHOLDER
  2
AcDbPlaceHolder
  3
ObjectDBX Classes
 90
        0
280
     0
281
     0
  0
CLASS
  1
LAYOUT
  2
AcDbLayout
  3
ObjectDBX Classes
 90
        0
280
     0
281
     0
  0
CLASS
  1
LONG_TRANSACTION
  2
AcDbLongTransaction
  3
ObjectDBX Classes
 90
   -65536
280
     1
281
     0
  0
CLASS
  1
LWPOLYLINE
  2
AcDbPolyline
  3
AutoCAD 2000
 90
        0
280
     0
281
     1
  0
CLASS
  1
HATCH
  2
AcDbHatch
  3
AutoCAD 2000
 90
        0
280
     0
281
     1
  0
CLASS
  1
XRECORD
  2
AcDbXrecord
  3
AutoCAD 2000
 90
        0
280
     0
281
     0
  0
CLASS
  1
LONG_TRANSACTION
  2
AcDbLongTransaction
  3
ObjectDBX Classes
 90
   -65536
280
     1
281
     0
  0
CLASS
  1
LWPOLYLINE
  2
AcDbPolyline
  3
AutoCAD 2000
 90
        0
280
     0
281
     1
  0
CLASS
  1
HATCH
  2
AcDbHatch
  3
AutoCAD 2000
 90
        0
280
     0
281
     1
  0
CLASS
  1
XRECORD
  2
AcDbXrecord
  3
AutoCAD 2000
 90
        0
280
     0
281
     0
  0
CLASS
  1
LONG_TRANSACTION
  2
AcDbLongTransaction
  3
ObjectDBX Classes
 90
   -65536
280
     1
281
     0
  0
CLASS
  1
LWPOLYLINE
  2
AcDbPolyline
  3
AutoCAD 2000
 90
        0
280
     0
281
     1
  0
CLASS
  1
HATCH
  2
AcDbHatch
  3
AutoCAD 2000
 90
        0
280
     0
281
     1
  0
CLASS
  1
XRECORD
  2
AcDbXrecord
  3
AutoCAD 2000
 90
        0
280
     0
281
     0
  0
CLASS
  1
TABLESTYLE
  2
AcDbTableStyle
  3
ObjectDBX Classes
 90
     2047
280
     1
281
     0
  0
ENDSEC
  0
SECTION
  2
TABLES
  0
TABLE
  2
VPORT
  5
1D
330
0
100
AcDbSymbolTable
 70
     3
  0
VPORT
  5
444
330
1D
100
AcDbSymbolTableRecord
100
AcDbViewportTableRecord
  2
*Active
 70
     0
 10
0.0
 20
0.0
 11
1.0
 21
1.0
 12
14.43619917403543
 22
14.68964229590597
 13
0.0
 23
0.0
 14
0.0625
 24
0.0625
 15
0.5
 25
0.5
 16
0.0
 26
0.0
 36
1.0
 17
0.0
 27
0.0
 37
0.0
 40
41.62528585875699
 41
1.814583333333334
 42
50.0
 43
0.0
 44
0.0
 50
0.0
 51
0.0
 71
     0
 72
   100
 73
     1
 74
     0
 75
     0
 76
     0
 77
     0
 78
     0
281
     0
 65
     1
110
0.0
120
0.0
130
0.0
111
1.0
121
0.0
131
0.0
112
0.0
122
1.0
132
0.0
 79
     0
146
0.0
  0
ENDTAB
  0
TABLE
  2
LTYPE
  5
18
330
0
100
AcDbSymbolTable
 70
     1
  0
LTYPE
  5
19
330
18
100
AcDbSymbolTableRecord
100
AcDbLinetypeTableRecord
  2
BYBLOCK
 70
     0
  3

 72
    65
 73
     0
 40
0.0
  0
LTYPE
  5
1A
330
18
100
AcDbSymbolTableRecord
100
AcDbLinetypeTableRecord
  2
BYLAYER
 70
     0
  3

 72
    65
 73
     0
 40
0.0
  0
LTYPE
  5
A
330
18
100
AcDbSymbolTableRecord
100
AcDbLinetypeTableRecord
  2
CONTINUOUS
 70
     0
  3
Solid line
 72
    65
 73
     0
 40
0.0
  0
ENDTAB
  0
TABLE
  2
LAYER
  5
14
330
0
100
AcDbSymbolTable
 70
     1
  0
LAYER
  5
6
330
14
100
AcDbSymbolTableRecord
100
AcDbLayerTableRecord
  2
0
 70
     0
 62
     7
  6
CONTINUOUS
370
    -3
390
7
  0
ENDTAB
  0
TABLE
  2
STYLE
  5
15
330
0
100
AcDbSymbolTable
 70
     1
  0
STYLE
  5
16
330
15
100
AcDbSymbolTableRecord
100
AcDbTextStyleTableRecord
  2
STANDARD
 70
     0
 40
0.0
 41
1.0
 50
0.0
 71
     0
 42
0.27
  3
TXT
  4

  0
ENDTAB
  0
TABLE
  2
VIEW
  5
1B
330
0
100
AcDbSymbolTable
 70
     0
  0
ENDTAB
  0
TABLE
  2
UCS
  5
1C
330
0
100
AcDbSymbolTable
 70
     0
  0
ENDTAB
  0
TABLE
  2
APPID
  5
1F
330
0
100
AcDbSymbolTable
 70
     1
  0
APPID
  5
20
330
1F
100
AcDbSymbolTableRecord
100
AcDbRegAppTableRecord
  2
ACAD
 70
     0
  0
ENDTAB
  0
TABLE
  2
DIMSTYLE
  5
21
330
0
100
AcDbSymbolTable
 70
     1
100
AcDbDimStyleTable
  0
DIMSTYLE
105
28
330
21
100
AcDbSymbolTableRecord
100
AcDbDimStyleTableRecord
  2
STANDARD
 70
     0
  3

  4

340
16
  0
ENDTAB
  0
TABLE
  2
BLOCK_RECORD
  5
1
330
0
100
AcDbSymbolTable
 70
     0
  0
BLOCK_RECORD
  5
2
330
1
100
AcDbSymbolTableRecord
100
AcDbBlockTableRecord
  2
*MODEL_SPACE
340
C
  0
BLOCK_RECORD
  5
E
330
1
100
AcDbSymbolTableRecord
100
AcDbBlockTableRecord
  2
*PAPER_SPACE
340
13
  0
ENDTAB
  0
ENDSEC
  0
SECTION
  2
BLOCKS
  0
BLOCK
  5
5
330
2
100
AcDbEntity
  8
0
100
AcDbBlockBegin
  2
*MODEL_SPACE
 70
     0
 10
0.0
 20
0.0
 30
0.0
  3
*MODEL_SPACE
  1

  4

  0
ENDBLK
  5
B
330
2
100
AcDbEntity
  8
0
100
AcDbBlockEnd
  0
BLOCK
  5
11
330
E
100
AcDbEntity
 67
     1
  8
0
100
AcDbBlockBegin
  2
*PAPER_SPACE
 70
     0
 10
0.0
 20
0.0
 30
0.0
  3
*PAPER_SPACE
  1

  4

  0
ENDBLK
  5
12
330
E
100
AcDbEntity
 67
     1
  8
0
100
AcDbBlockEnd
  0
ENDSEC
  0
SECTION
  2
ENTITIES
  0
LINE
  5
354
330
2
100
AcDbEntity
  8
0
100
AcDbLine
 10
0.5337091576929467
 20
14.94303958792938
 30
0.0
 11
0.5337091576929502
 21
0.0
 31
0.0
  0
LINE
  5
355
330
2
100
AcDbEntity
  8
0
100
AcDbLine
 10
0.5816781576929486
 20
0.0
 30
0.0
 11
0.5816781576929486
 21
14.89803958792938
 31
0.0
  0
LINE
  5
356
330
2
100
AcDbEntity
  8
0
100
AcDbLine
 10
0.5816781576929486
 20
13.6875
 30
0.0
 11
0.5816781576929486
 21
14.89703958792938
 31
0.0
  0
LINE
  5
357
330
2
100
AcDbEntity
  8
0
100
AcDbLine
 10
0.627678157692948
 20
13.6875
 30
0.0
 11
0.6276781576929444
 21
14.89703958792938
 31
0.0
  0
LINE
  5
358
330
2
100
AcDbEntity
  8
0
100
AcDbLine
 10
0.5337091576929502
 20
0.0
 30
0.0
 11
0.5816781576929486
 21
0.0
 31
0.0
  0
LINE
  5
359
330
2
100
AcDbEntity
  8
0
100
AcDbLine
 10
0.627678157692948
 20
13.6875
 30
0.0
 11
0.5816781576929486
 21
13.6875
 31
0.0
  0
LINE
  5
35A
330
2
100
AcDbEntity
  8
0
100
AcDbLine
 10
0.627678157692948
 20
13.9375
 30
0.0
 11
0.5816781576929486
 21
13.9375
 31
0.0
  0
LINE
  5
35B
330
2
100
AcDbEntity
  8
0
100
AcDbLine
 10
-0.3003039062096065
 20
20.02903244760971
 30
0.0
 11
-0.8263643062448693
 21
20.19920407918874
 31
0.0
  0
LINE
  5
35C
330
2
100
AcDbEntity
  8
0
100
AcDbLine
 10
-0.2935215663873834
 20
19.97767029918757
 30
0.0
 11
-0.8412908423070533
 21
20.1532649248831
 31
0.0
  0
LINE
  5
35D
330
2
100
AcDbEntity
  8
0
100
AcDbLine
 10
-0.4192309272056818
 20
18.0625
 30
0.0
 11
-0.6692309272056818
 21
17.8125
 31
0.0
  0
LINE
  5
35E
330
2
100
AcDbEntity
  8
0
100
AcDbLine
 10
0.3437031567795401
 20
15.34121017530501
 30
0.0
 11
-0.6692309272056818
 21
16.48501174946237
 31
0.0
  0
LINE
  5
35F
330
2
100
AcDbEntity
  8
0
100
AcDbLine
 10
0.5356781576929492
 20
14.94303958792938
 30
0.0
 11
-0.6684580272122638
 21
14.94303958792938
 31
0.0
  0
LINE
  5
360
330
2
100
AcDbEntity
  8
0
100
AcDbLine
 10
0.5356781576929421
 20
14.98903958792938
 30
0.0
 11
-0.6684580272122638
 21
14.98903958792938
 31
0.0
  0
LINE
  5
361
330
2
100
AcDbEntity
  8
0
100
AcDbLine
 10
0.5816781576929486
 20
18.0625
 30
0.0
 11
0.5816781576929486
 21
19.81843358086444
 31
0.0
  0
LINE
  5
362
330
2
100
AcDbEntity
  8
0
100
AcDbLine
 10
0.5337091576929467
 20
19.81351802958439
 30
0.0
 11
0.5337091576929467
 21
18.0625
 31
0.0
  0
LINE
  5
363
330
2
100
AcDbEntity
  8
0
100
AcDbLine
 10
0.5337091576929467
 20
18.0625
 30
0.0
 11
0.5337091576929467
 21
14.98903958792938
 31
0.0
  0
LINE
  5
364
330
2
100
AcDbEntity
  8
0
100
AcDbLine
 10
0.627678157692948
 20
14.89703958792938
 30
0.0
 11
0.627678157692948
 21
18.0625
 31
0.0
  0
LINE
  5
365
330
2
100
AcDbEntity
  8
0
100
AcDbLine
 10
0.5816781576929486
 20
14.9767139250775
 30
0.0
 11
0.5816781576929486
 21
18.0625
 31
0.0
  0
LINE
  5
366
330
2
100
AcDbEntity
  8
0
100
AcDbLine
 10
0.7095349973437877
 20
15.4055
 30
0.0
 11
0.6465349973437888
 21
15.4055
 31
0.0
  0
LINE
  5
367
330
2
100
AcDbEntity
  8
0
100
AcDbLine
 10
0.6465349973437888
 20
15.5945
 30
0.0
 11
0.7095349973437877
 21
15.5945
 31
0.0
  0
LINE
  5
368
330
2
100
AcDbEntity
  8
0
100
AcDbLine
 10
0.7095349973437877
 20
15.5945
 30
0.0
 11
0.7095349973437877
 21
15.4055
 31
0.0
  0
ARC
  5
369
330
2
100
AcDbEntity
  8
0
100
AcDbCircle
 10
0.2270612053545555
 20
15.1447653515323
 30
0.0
 40
0.2284642501997095
100
AcDbArc
 50
317.0296476099886
 51
59.2996656114588
  0
ARC
  5
36A
330
2
100
AcDbEntity
  8
0
100
AcDbCircle
 10
0.2225214575057954
 20
15.17150328521335
 30
0.0
 40
0.2284642501997095
100
AcDbArc
 50
306.9983188061198
 51
6.233431190233382
  0
ARC
  5
36B
330
2
100
AcDbEntity
  8
0
100
AcDbCircle
 10
0.5356781576929457
 20
14.89703958792938
 30
0.0
 40
0.092
100
AcDbArc
 50
0.0000000000001597
 51
90.00000000000003
  0
ARC
  5
36C
330
2
100
AcDbEntity
  8
0
100
AcDbCircle
 10
0.5356781576929528
 20
14.89703958792938
 30
0.0
 40
0.046
100
AcDbArc
 50
0.000000000000007
 51
90.00000000000011
  0
LINE
  5
36D
330
2
100
AcDbEntity
  8
0
100
AcDbLine
 10
0.5147119673306371
 20
15.4685
 30
0.0
 11
0.5147119673306371
 21
15.3425
 31
0.0
  0
LINE
  5
36E
330
2
100
AcDbEntity
  8
0
100
AcDbLine
 10
0.4669641495618926
 20
15.3425
 30
0.0
 11
0.466964149561889
 21
15.6575
 31
0.0
  0
LINE
  5
36F
330
2
100
AcDbEntity
  8
0
100
AcDbLine
 10
0.466964149561889
 20
15.6575
 30
0.0
 11
0.5147119673306335
 21
15.6575
 31
0.0
  0
LINE
  5
370
330
2
100
AcDbEntity
  8
0
100
AcDbLine
 10
0.5337091576929467
 20
15.4685
 30
0.0
 11
0.5147119673306371
 21
15.4685
 31
0.0
  0
LINE
  5
371
330
2
100
AcDbEntity
  8
0
100
AcDbLine
 10
0.5147119673306371
 20
15.5315
 30
0.0
 11
0.5337091576929467
 21
15.5315
 31
0.0
  0
LINE
  5
372
330
2
100
AcDbEntity
  8
0
100
AcDbLine
 10
0.5147119673306371
 20
15.6575
 30
0.0
 11
0.5147119673306371
 21
15.5315
 31
0.0
  0
LINE
  5
373
330
2
100
AcDbEntity
  8
0
100
AcDbLine
 10
0.5147119673306371
 20
15.3425
 30
0.0
 11
0.4669641495618926
 21
15.3425
 31
0.0
  0
LINE
  5
374
330
2
100
AcDbEntity
  8
0
100
AcDbLine
 10
0.6465349973437853
 20
15.4055
 30
0.0
 11
0.6465349973437888
 21
15.4685
 31
0.0
  0
LINE
  5
375
330
2
100
AcDbEntity
  8
0
100
AcDbLine
 10
0.6465349973437888
 20
15.4685
 30
0.0
 11
0.6276781576929444
 21
15.4685
 31
0.0
  0
LINE
  5
376
330
2
100
AcDbEntity
  8
0
100
AcDbLine
 10
0.6276781576929444
 20
15.5315
 30
0.0
 11
0.6465349973437888
 21
15.5315
 31
0.0
  0
LINE
  5
377
330
2
100
AcDbEntity
  8
0
100
AcDbLine
 10
0.6465349973437888
 20
15.5315
 30
0.0
 11
0.6465349973437853
 21
15.5945
 31
0.0
  0
LINE
  5
378
330
2
100
AcDbEntity
  8
0
100
AcDbLine
 10
-0.4184580272122638
 20
14.98903958792938
 30
0.0
 11
-0.4184580272122638
 21
14.94303958792938
 31
0.0
  0
LINE
  5
379
330
2
100
AcDbEntity
  8
0
100
AcDbLine
 10
0.6465349973437888
 20
17.8445
 30
0.0
 11
0.7095349973437877
 21
17.8445
 31
0.0
  0
LINE
  5
37A
330
2
100
AcDbEntity
  8
0
100
AcDbLine
 10
0.7095349973437877
 20
17.6555
 30
0.0
 11
0.6465349973437888
 21
17.6555
 31
0.0
  0
LINE
  5
37B
330
2
100
AcDbEntity
  8
0
100
AcDbLine
 10
0.7095349973437877
 20
17.8445
 30
0.0
 11
0.7095349973437877
 21
17.6555
 31
0.0
  0
CIRCLE
  5
37C
330
2
100
AcDbEntity
  8
0
100
AcDbCircle
 10
-0.4192309272056818
 20
17.62805039094164
 30
0.0
 40
0.0855
  0
LINE
  5
37D
330
2
100
AcDbEntity
  8
0
100
AcDbLine
 10
0.4669641495618926
 20
17.5925
 30
0.0
 11
0.466964149561889
 21
17.9075
 31
0.0
  0
LINE
  5
37E
330
2
100
AcDbEntity
  8
0
100
AcDbLine
 10
0.5147119673306371
 20
17.7185
 30
0.0
 11
0.5147119673306371
 21
17.5925
 31
0.0
  0
LINE
  5
37F
330
2
100
AcDbEntity
  8
0
100
AcDbLine
 10
0.5147119673306371
 20
17.5925
 30
0.0
 11
0.4669641495618926
 21
17.5925
 31
0.0
  0
LINE
  5
380
330
2
100
AcDbEntity
  8
0
100
AcDbLine
 10
-0.4192309272056818
 20
18.0625
 30
0.0
 11
0.5816781576929486
 21
18.0625
 31
0.0
  0
LINE
  5
381
330
2
100
AcDbEntity
  8
0
100
AcDbLine
 10
0.5147119673306371
 20
17.9075
 30
0.0
 11
0.5147119673306371
 21
17.7815
 31
0.0
  0
LINE
  5
382
330
2
100
AcDbEntity
  8
0
100
AcDbLine
 10
0.466964149561889
 20
17.9075
 30
0.0
 11
0.5147119673306335
 21
17.9075
 31
0.0
  0
LINE
  5
383
330
2
100
AcDbEntity
  8
0
100
AcDbLine
 10
0.5147119673306371
 20
17.7815
 30
0.0
 11
0.5337091576929467
 21
17.7815
 31
0.0
  0
LINE
  5
384
330
2
100
AcDbEntity
  8
0
100
AcDbLine
 10
0.5337091576929467
 20
17.7185
 30
0.0
 11
0.5147119673306371
 21
17.7185
 31
0.0
  0
LINE
  5
385
330
2
100
AcDbEntity
  8
0
100
AcDbLine
 10
0.5816781576929486
 20
18.0625
 30
0.0
 11
0.627678157692948
 21
18.0625
 31
0.0
  0
LINE
  5
386
330
2
100
AcDbEntity
  8
0
100
AcDbLine
 10
0.6465349973437888
 20
17.7815
 30
0.0
 11
0.6465349973437853
 21
17.8445
 31
0.0
  0
LINE
  5
387
330
2
100
AcDbEntity
  8
0
100
AcDbLine
 10
0.6276781576929444
 20
17.7815
 30
0.0
 11
0.6465349973437888
 21
17.7815
 31
0.0
  0
LINE
  5
388
330
2
100
AcDbEntity
  8
0
100
AcDbLine
 10
0.6465349973437888
 20
17.7185
 30
0.0
 11
0.6276781576929444
 21
17.7185
 31
0.0
  0
LINE
  5
389
330
2
100
AcDbEntity
  8
0
100
AcDbLine
 10
0.6465349973437853
 20
17.6555
 30
0.0
 11
0.6465349973437888
 21
17.7185
 31
0.0
  0
ARC
  5
38A
330
2
100
AcDbEntity
  8
0
100
AcDbCircle
 10
0.2848031576929451
 20
19.7687848933779
 30
0.0
 40
0.484375
100
AcDbArc
 50
0.000000000000007
 51
90.00000000000003
  0
ARC
  5
38B
330
2
100
AcDbEntity
  8
0
100
AcDbCircle
 10
0.5816781576929451
 20
18.937509
 30
0.0
 40
0.1875
100
AcDbArc
 50
270.0
 51
0.000000000000007
  0
LINE
  5
38C
330
2
100
AcDbEntity
  8
0
100
AcDbLine
 10
0.7691781576929486
 20
18.937509
 30
0.0
 11
0.7691781576929486
 21
19.7687848933779
 31
0.0
  0
LINE
  5
38D
330
2
100
AcDbEntity
  8
0
100
AcDbLine
 10
0.2848031576929486
 20
20.2531598933779
 30
0.0
 11
-0.1538218423070532
 21
20.2531598933779
 31
0.0
  0
LINE
  5
38E
330
2
100
AcDbEntity
  8
0
100
AcDbLine
 10
0.326696989440503
 20
20.0
 30
0.0
 11
-0.0888580605334539
 21
19.95651922791692
 31
0.0
  0
LINE
  5
38F
330
2
100
AcDbEntity
  8
0
100
AcDbLine
 10
0.3226932199280874
 20
20.0515129484374
 30
0.0
 11
-0.0939125215730101
 21
20.00752517947447
 31
0.0
  0
ARC
  5
390
330
2
100
AcDbEntity
  8
0
100
AcDbCircle
 10
0.3473031576929486
 20
19.81843358086444
 30
0.0
 40
0.234375
100
AcDbArc
 50
0.000000000000007
 51
96.02730489947702
  0
ARC
  5
391
330
2
100
AcDbEntity
  8
0
100
AcDbCircle
 10
0.3462091576929467
 20
19.81351802958439
 30
0.0
 40
0.1875
100
AcDbArc
 50
0.000000000000007
 51
95.97329398043256
  0
ARC
  5
392
330
2
100
AcDbEntity
  8
0
100
AcDbCircle
 10
-0.1408905092066384
 20
20.45380448235854
 30
0.0
 40
0.5
100
AcDbArc
 50
252.2260659756093
 51
275.9732939804324
  0
ARC
  5
393
330
2
100
AcDbEntity
  8
0
100
AcDbCircle
 10
-0.1464137221380462
 20
20.5047611636301
 30
0.0
 40
0.5
100
AcDbArc
 50
252.0744840309864
 51
276.027304899477
  0
ARC
  5
394
330
2
100
AcDbEntity
  8
0
100
AcDbCircle
 10
-0.1538218423070532
 20
20.06565989337789
 30
0.0
 40
0.1875
100
AcDbArc
 50
90.00000000000003
 51
180.0
  0
LINE
  5
395
330
2
100
AcDbEntity
  8
0
100
AcDbLine
 10
-0.3413218423070532
 20
20.0656598933779
 30
0.0
 11
-0.3413218423070532
 21
20.0423010553765
 31
0.0
  0
LINE
  5
396
330
2
100
AcDbEntity
  8
0
100
AcDbLine
 10
-0.6692309272056818
 20
16.48501174946237
 30
0.0
 11
-0.6692309272056818
 21
17.8125
 31
0.0
  0
LINE
  5
397
330
2
100
AcDbEntity
  8
0
100
AcDbLine
 10
-0.6684580272122638
 20
14.98903958792938
 30
0.0
 11
-0.6684580272122638
 21
14.94303958792938
 31
0.0
  0
LINE
  5
398
330
2
100
AcDbEntity
  8
0
100
AcDbLine
 10
-0.8263393084155553
 20
20.19928101459648
 30
0.0
 11
-0.8412908423070533
 21
20.1532649248831
 31
0.0
  0
LINE
  5
399
330
2
100
AcDbEntity
  8
0
100
AcDbLine
 10
-0.5934543084155557
 20
20.12394666056104
 30
0.0
 11
-0.6084058423070502
 21
20.07793057084766
 31
0.0
  0
ENDSEC
  0
SECTION
  2
OBJECTS
  0
DICTIONARY
  5
9
330
0
100
AcDbDictionary
281
     1
  3
ACAD_COLOR
350
425
  3
ACAD_GROUP
350
23
  3
ACAD_LAYOUT
350
D
  3
ACAD_MATERIAL
350
424
  3
ACAD_MLINESTYLE
350
24
  3
ACAD_PLOTSETTINGS
350
25
  3
ACAD_PLOTSTYLENAME
350
8
  3
ACAD_TABLESTYLE
350
426
  3
ACDBHEADERROUNDTRIPXREC
350
44B
  3
AcDbVariableDictionary
350
118
  0
DICTIONARY
  5
425
102
{ACAD_REACTORS
330
9
102
}
330
9
100
AcDbDictionary
281
     1
  0
DICTIONARY
  5
23
102
{ACAD_REACTORS
330
9
102
}
330
9
100
AcDbDictionary
281
     1
  0
DICTIONARY
  5
D
102
{ACAD_REACTORS
330
9
102
}
330
9
100
AcDbDictionary
281
     1
  3
Layout1
350
13
  3
Model
350
C
  0
DICTIONARY
  5
424
102
{ACAD_REACTORS
330
9
102
}
330
9
100
AcDbDictionary
281
     1
  0
DICTIONARY
  5
24
102
{ACAD_REACTORS
330
9
102
}
330
9
100
AcDbDictionary
281
     1
  3
STANDARD
350
27
  0
DICTIONARY
  5
25
102
{ACAD_REACTORS
330
9
102
}
330
9
100
AcDbDictionary
281
     1
  0
ACDBDICTIONARYWDFLT
  5
8
102
{ACAD_REACTORS
330
9
102
}
330
9
100
AcDbDictionary
281
     1
  3
Normal
350
7
100
AcDbDictionaryWithDefault
340
7
  0
DICTIONARY
  5
426
102
{ACAD_REACTORS
330
9
102
}
330
9
100
AcDbDictionary
281
     1
  3
Standard
350
427
  0
DICTIONARY
  5
44B
102
{ACAD_REACTORS
330
9
102
}
330
9
100
AcDbDictionary
281
     1
  3
COLORDICT
350
44C
  3
MATERIALDICT
350
44D
  0
DICTIONARY
  5
118
102
{ACAD_REACTORS
330
9
102
}
330
9
100
AcDbDictionary
281
     1
  3
CTABLESTYLE
350
439
  3
HIDETEXT
350
44A
  0
LAYOUT
  5
13
102
{ACAD_REACTORS
330
D
102
}
102
{ACAD_XDICTIONARY
360
44E
102
}
330
D
100
AcDbPlotSettings
  1

  2
HP LaserJet 2100 Series PS
  4

  6

 40
0.0
 41
0.0
 42
0.0
 43
0.0
 44
0.0
 45
0.0
 46
0.0
 47
0.0
 48
0.0
 49
0.0
140
0.0
141
0.0
142
1.0
143
1.0
 70
   688
 72
     0
 73
     0
 74
     5
  7

 75
    16
147
1.0
148
0.0
149
0.0
100
AcDbLayout
  1
Layout1
 70
     0
 71
     1
 10
0.0
 20
0.0
 11
12.0
 21
9.0
 12
0.0
 22
0.0
 32
0.0
 14
1.000000000000000E+20
 24
1.000000000000000E+20
 34
1.000000000000000E+20
 15
-1.000000000000000E+20
 25
-1.000000000000000E+20
 35
-1.000000000000000E+20
146
0.0
 13
0.0
 23
0.0
 33
0.0
 16
1.0
 26
0.0
 36
0.0
 17
0.0
 27
1.0
 37
0.0
 76
     0
330
E
  0
LAYOUT
  5
C
102
{ACAD_REACTORS
330
D
102
}
102
{ACAD_XDICTIONARY
360
450
102
}
330
D
100
AcDbPlotSettings
  1

  2
HP LaserJet 2100 Series PS
  4
Letter
  6

 40
5.365749835968018
 41
5.386905193328857
 42
5.386917114257813
 43
5.365753173828125
 44
215.8999938964844
 45
279.3999938964844
 46
0.0
 47
0.0
 48
0.0
 49
0.0
140
0.0
141
0.0
142
1.0
143
1.0
 70
 11952
 72
     0
 73
     1
 74
     0
  7

 75
     0
147
1.0
148
-270.9859750194433
149
21.12465764932233
100
AcDbLayout
  1
Model
 70
     1
 71
     0
 10
0.0
 20
0.0
 11
12.0
 21
9.0
 12
0.0
 22
0.0
 32
0.0
 14
0.0
 24
0.0
 34
0.0
 15
0.0
 25
0.0
 35
0.0
146
0.0
 13
0.0
 23
0.0
 33
0.0
 16
1.0
 26
0.0
 36
0.0
 17
0.0
 27
1.0
 37
0.0
 76
     0
330
2
  0
MLINESTYLE
  5
27
102
{ACAD_REACTORS
330
24
102
}
330
24
100
AcDbMlineStyle
  2
STANDARD
 70
     0
  3

 62
   256
 51
90.0
 52
90.0
 71
     2
 49
0.5
 62
   256
  6
BYLAYER
 49
-0.5
 62
   256
  6
BYLAYER
  0
ACDBPLACEHOLDER
  5
7
102
{ACAD_REACTORS
330
8
102
}
330
8
  0
ACAD_PROXY_OBJECT
  5
427
102
{ACAD_REACTORS
330
426
102
}
330
426
100
AcDbProxyObject
 90
      499
 91
      517
 95
   983063
 70
     0
 93
     1841
310
4214DD185B99185C9928B81E85EB51B8AE3F2E07A17AD46E2B8FC02B5E8DC0F42B1CFD028000000C1008070000C3001FDFF8000000C1003FBFF000000182007F7FE00000030400FEFFC00000060801FDFF8000000C1003FBFF00000018200000000000000681FA0B0000001820100E000186003FBFF000000182007F7FE000
310
00030400FEFFC00000060801FDFF8000000C1003FBFF000000182007F7FE000000304000AD7A3703D0AC73F4160000003040201C00030C007F7FE00000030400FEFFC00000060801FDFF8000000C1003FBFF000000182007F7FE00000030400FEFFC000000608000
340
16
340
16
340
16
 94
        0
  0
XRECORD
  5
44C
102
{ACAD_REACTORS
330
44B
102
}
330
44B
100
AcDbXrecord
340
425
  0
XRECORD
  5
44D
102
{ACAD_REACTORS
330
44B
102
}
330
44B
100
AcDbXrecord
340
424
  0
DICTIONARYVAR
  5
439
102
{ACAD_REACTORS
330
118
102
}
330
118
100
DictionaryVariables
280
     0
  1
STANDARD
  0
DICTIONARYVAR
  5
44A
102
{ACAD_REACTORS
330
118
102
}
330
118
100
DictionaryVariables
280
     0
  1
0
  0
DICTIONARY
  5
44E
330
13
100
AcDbDictionary
280
     1
281
     1
  3
ACAD_XREC_ROUNDTRIP
360
44F
  0
DICTIONARY
  5
450
330
C
100
AcDbDictionary
280
     1
281
     1
  3
ACAD_XREC_ROUNDTRIP
360
451
  0
XRECORD
  5
44F
102
{ACAD_REACTORS
330
44E
102
}
330
44E
100
AcDbXrecord
102
SHADEPLOT
 70
     0
102
SHADEPLOTRESLEVEL
 70
     2
102
SHADEPLOTCUSTOMDPI
 70
   300
  0
XRECORD
  5
451
102
{ACAD_REACTORS
330
450
102
}
330
450
100
AcDbXrecord
102
SHADEPLOT
 70
     0
102
SHADEPLOTRESLEVEL
 70
     2
102
SHADEPLOTCUSTOMDPI
 70
   300
  0
ENDSEC
  0
EOF
