  0
SECTION
  2
HEADER
  9
$ACADVER
  1
AC1015
  9
$ACADMAINTVER
 70
     6
  9
$DWGCODEPAGE
  3
ANSI_1252
  9
$INSBASE
 10
0.0
 20
0.0
 30
0.0
  9
$EXTMIN
 10
-9.706068348947603
 20
-0.0007840500480825
 30
-0.0015258207003583
  9
$EXTMAX
 10
9.706312658445839
 20
25.69449639019781
 30
0.0000000349246037
  9
$LIMMIN
 10
0.0
 20
0.0
  9
$LIMMAX
 10
31.5
 20
24.0
  9
$ORTHOMODE
 70
     1
  9
$REGENMODE
 70
     1
  9
$FILLMODE
 70
     1
  9
$QTEXTMODE
 70
     0
  9
$MIRRTEXT
 70
     0
  9
$LTSCALE
 40
0.5
  9
$ATTMODE
 70
     1
  9
$TEXTSIZE
 40
0.27
  9
$TRACEWID
 40
0.05
  9
$TEXTSTYLE
  7
STANDARD
  9
$CLAYER
  8
0
  9
$CELTYPE
  6
BYLAYER
  9
$CECOLOR
 62
   256
  9
$CELTSCALE
 40
1.0
  9
$DISPSILH
 70
     0
  9
$DIMSCALE
 40
1.0
  9
$DIMASZ
 40
0.375
  9
$DIMEXO
 40
0.0625
  9
$DIMDLI
 40
0.75
  9
$DIMRND
 40
0.0
  9
$DIMDLE
 40
0.0
  9
$DIMEXE
 40
0.18
  9
$DIMTP
 40
0.0
  9
$DIMTM
 40
0.0
  9
$DIMTXT
 40
0.27
  9
$DIMCEN
 40
-0.06
  9
$DIMTSZ
 40
0.0
  9
$DIMTOL
 70
     0
  9
$DIMLIM
 70
     0
  9
$DIMTIH
 70
     1
  9
$DIMTOH
 70
     1
  9
$DIMSE1
 70
     0
  9
$DIMSE2
 70
     0
  9
$DIMTAD
 70
     0
  9
$DIMZIN
 70
     0
  9
$DIMBLK
  1

  9
$DIMASO
 70
     0
  9
$DIMSHO
 70
     0
  9
$DIMPOST
  1

  9
$DIMAPOST
  1

  9
$DIMALT
 70
     0
  9
$DIMALTD
 70
     2
  9
$DIMALTF
 40
25.4
  9
$DIMLFAC
 40
1.0
  9
$DIMTOFL
 70
     0
  9
$DIMTVP
 40
0.0
  9
$DIMTIX
 70
     0
  9
$DIMSOXD
 70
     0
  9
$DIMSAH
 70
     0
  9
$DIMBLK1
  1

  9
$DIMBLK2
  1

  9
$DIMSTYLE
  2
STANDARD
  9
$DIMCLRD
 70
     0
  9
$DIMCLRE
 70
     0
  9
$DIMCLRT
 70
     0
  9
$DIMTFAC
 40
1.0
  9
$DIMGAP
 40
0.09
  9
$DIMJUST
 70
     0
  9
$DIMSD1
 70
     0
  9
$DIMSD2
 70
     0
  9
$DIMTOLJ
 70
     1
  9
$DIMTZIN
 70
     0
  9
$DIMALTZ
 70
     0
  9
$DIMALTTZ
 70
     0
  9
$DIMUPT
 70
     0
  9
$DIMDEC
 70
     4
  9
$DIMTDEC
 70
     4
  9
$DIMALTU
 70
     2
  9
$DIMALTTD
 70
     2
  9
$DIMTXSTY
  7
STANDARD
  9
$DIMAUNIT
 70
     0
  9
$DIMADEC
 70
     0
  9
$DIMALTRND
 40
0.0
  9
$DIMAZIN
 70
     0
  9
$DIMDSEP
 70
    46
  9
$DIMATFIT
 70
     3
  9
$DIMFRAC
 70
     0
  9
$DIMLDRBLK
  1

  9
$DIMLUNIT
 70
     2
  9
$DIMLWD
 70
    -2
  9
$DIMLWE
 70
    -2
  9
$DIMTMOVE
 70
     2
  9
$LUNITS
 70
     2
  9
$LUPREC
 70
     4
  9
$SKETCHINC
 40
0.1
  9
$FILLETRAD
 40
0.0
  9
$AUNITS
 70
     0
  9
$AUPREC
 70
     0
  9
$MENU
  1
ACAD
  9
$ELEVATION
 40
0.0
  9
$PELEVATION
 40
0.0
  9
$THICKNESS
 40
0.0
  9
$LIMCHECK
 70
     0
  9
$CHAMFERA
 40
0.0
  9
$CHAMFERB
 40
0.0
  9
$CHAMFERC
 40
0.0
  9
$CHAMFERD
 40
0.0
  9
$SKPOLY
 70
     0
  9
$TDCREATE
 40
2449443.971093634
  9
$TDUCREATE
 40
2449444.304426968
  9
$TDUPDATE
 40
2454175.920269688
  9
$TDUUPDATE
 40
2454176.253603021
  9
$TDINDWG
 40
0.150456794
  9
$TDUSRTIMER
 40
0.150456794
  9
$USRTIMER
 70
     1
  9
$ANGBASE
 50
0.0
  9
$ANGDIR
 70
     0
  9
$PDMODE
 70
     0
  9
$PDSIZE
 40
0.0
  9
$PLINEWID
 40
0.0
  9
$SPLFRAME
 70
     0
  9
$SPLINETYPE
 70
     6
  9
$SPLINESEGS
 70
     8
  9
$HANDSEED
  5
443
  9
$SURFTAB1
 70
     6
  9
$SURFTAB2
 70
     6
  9
$SURFTYPE
 70
     6
  9
$SURFU
 70
     6
  9
$SURFV
 70
     6
  9
$UCSBASE
  2

  9
$UCSNAME
  2

  9
$UCSORG
 10
0.0
 20
0.0
 30
0.0
  9
$UCSXDIR
 10
1.0
 20
0.0
 30
0.0
  9
$UCSYDIR
 10
0.0
 20
1.0
 30
0.0
  9
$UCSORTHOREF
  2

  9
$UCSORTHOVIEW
 70
     0
  9
$UCSORGTOP
 10
0.0
 20
0.0
 30
0.0
  9
$UCSORGBOTTOM
 10
0.0
 20
0.0
 30
0.0
  9
$UCSORGLEFT
 10
0.0
 20
0.0
 30
0.0
  9
$UCSORGRIGHT
 10
0.0
 20
0.0
 30
0.0
  9
$UCSORGFRONT
 10
0.0
 20
0.0
 30
0.0
  9
$UCSORGBACK
 10
0.0
 20
0.0
 30
0.0
  9
$PUCSBASE
  2

  9
$PUCSNAME
  2

  9
$PUCSORG
 10
0.0
 20
0.0
 30
0.0
  9
$PUCSXDIR
 10
1.0
 20
0.0
 30
0.0
  9
$PUCSYDIR
 10
0.0
 20
1.0
 30
0.0
  9
$PUCSORTHOREF
  2

  9
$PUCSORTHOVIEW
 70
     0
  9
$PUCSORGTOP
 10
0.0
 20
0.0
 30
0.0
  9
$PUCSORGBOTTOM
 10
0.0
 20
0.0
 30
0.0
  9
$PUCSORGLEFT
 10
0.0
 20
0.0
 30
0.0
  9
$PUCSORGRIGHT
 10
0.0
 20
0.0
 30
0.0
  9
$PUCSORGFRONT
 10
0.0
 20
0.0
 30
0.0
  9
$PUCSORGBACK
 10
0.0
 20
0.0
 30
0.0
  9
$USERI1
 70
     0
  9
$USERI2
 70
     0
  9
$USERI3
 70
     0
  9
$USERI4
 70
     0
  9
$USERI5
 70
     0
  9
$USERR1
 40
0.0
  9
$USERR2
 40
0.0
  9
$USERR3
 40
0.0
  9
$USERR4
 40
0.0
  9
$USERR5
 40
0.0
  9
$WORLDVIEW
 70
     1
  9
$SHADEDGE
 70
     3
  9
$SHADEDIF
 70
    70
  9
$TILEMODE
 70
     1
  9
$MAXACTVP
 70
    16
  9
$PINSBASE
 10
0.0
 20
0.0
 30
0.0
  9
$PLIMCHECK
 70
     0
  9
$PEXTMIN
 10
1.000000000000000E+20
 20
1.000000000000000E+20
 30
1.000000000000000E+20
  9
$PEXTMAX
 10
-1.000000000000000E+20
 20
-1.000000000000000E+20
 30
-1.000000000000000E+20
  9
$PLIMMIN
 10
0.0
 20
0.0
  9
$PLIMMAX
 10
12.0
 20
9.0
  9
$UNITMODE
 70
     0
  9
$VISRETAIN
 70
     0
  9
$PLINEGEN
 70
     0
  9
$PSLTSCALE
 70
     0
  9
$TREEDEPTH
 70
  3020
  9
$CMLSTYLE
  2
STANDARD
  9
$CMLJUST
 70
     0
  9
$CMLSCALE
 40
1.0
  9
$PROXYGRAPHICS
 70
     1
  9
$MEASUREMENT
 70
     0
  9
$CELWEIGHT
370
    -1
  9
$ENDCAPS
280
     0
  9
$JOINSTYLE
280
     0
  9
$LWDISPLAY
290
     0
  9
$INSUNITS
 70
     0
  9
$HYPERLINKBASE
  1

  9
$STYLESHEET
  1

  9
$XEDIT
290
     1
  9
$CEPSNTYPE
380
     0
  9
$PSTYLEMODE
290
     1
  9
$FINGERPRINTGUID
  2
{DEC6D521-4AE0-11D5-BE3F-00508B5FCD51}
  9
$VERSIONGUID
  2
{3A25F96D-A3DF-4189-9DE1-83C2B9F7CD5F}
  9
$EXTNAMES
290
     1
  9
$PSVPSCALE
 40
0.0
  9
$OLESTARTUP
290
     0
  0
ENDSEC
  0
SECTION
  2
CLASSES
  0
CLASS
  1
DICTIONARYVAR
  2
AcDbDictionaryVar
  3
AutoCAD 2000
 90
        0
280
     0
281
     0
  0
CLASS
  1
LWPOLYLINE
  2
AcDbPolyline
  3
AutoCAD 2000
 90
        0
280
     0
281
     1
  0
CLASS
  1
ACDBDICTIONARYWDFLT
  2
AcDbDictionaryWithDefault
  3
AutoCAD 2000
 90
        0
280
     0
281
     0
  0
CLASS
  1
ACDBPLACEHOLDER
  2
AcDbPlaceHolder
  3
ObjectDBX Classes
 90
        0
280
     0
281
     0
  0
CLASS
  1
LAYOUT
  2
AcDbLayout
  3
ObjectDBX Classes
 90
        0
280
     0
281
     0
  0
CLASS
  1
LONG_TRANSACTION
  2
AcDbLongTransaction
  3
ObjectDBX Classes
 90
   -65536
280
     1
281
     0
  0
CLASS
  1
LWPOLYLINE
  2
AcDbPolyline
  3
AutoCAD 2000
 90
        0
280
     0
281
     1
  0
CLASS
  1
HATCH
  2
AcDbHatch
  3
AutoCAD 2000
 90
        0
280
     0
281
     1
  0
CLASS
  1
XRECORD
  2
AcDbXrecord
  3
AutoCAD 2000
 90
        0
280
     0
281
     0
  0
CLASS
  1
LONG_TRANSACTION
  2
AcDbLongTransaction
  3
ObjectDBX Classes
 90
   -65536
280
     1
281
     0
  0
CLASS
  1
LWPOLYLINE
  2
AcDbPolyline
  3
AutoCAD 2000
 90
        0
280
     0
281
     1
  0
CLASS
  1
HATCH
  2
AcDbHatch
  3
AutoCAD 2000
 90
        0
280
     0
281
     1
  0
CLASS
  1
XRECORD
  2
AcDbXrecord
  3
AutoCAD 2000
 90
        0
280
     0
281
     0
  0
CLASS
  1
LONG_TRANSACTION
  2
AcDbLongTransaction
  3
ObjectDBX Classes
 90
   -65536
280
     1
281
     0
  0
CLASS
  1
LWPOLYLINE
  2
AcDbPolyline
  3
AutoCAD 2000
 90
        0
280
     0
281
     1
  0
CLASS
  1
HATCH
  2
AcDbHatch
  3
AutoCAD 2000
 90
        0
280
     0
281
     1
  0
CLASS
  1
XRECORD
  2
AcDbXrecord
  3
AutoCAD 2000
 90
        0
280
     0
281
     0
  0
CLASS
  1
TABLESTYLE
  2
AcDbTableStyle
  3
ObjectDBX Classes
 90
     2047
280
     1
281
     0
  0
ENDSEC
  0
SECTION
  2
TABLES
  0
TABLE
  2
VPORT
  5
1D
330
0
100
AcDbSymbolTable
 70
     3
  0
VPORT
  5
433
330
1D
100
AcDbSymbolTableRecord
100
AcDbViewportTableRecord
  2
*Active
 70
     0
 10
0.0
 20
0.0
 11
1.0
 21
1.0
 12
10.8969658255262
 22
12.84685617007486
 13
0.0
 23
0.0
 14
0.0625
 24
0.0625
 15
0.5
 25
0.5
 16
0.0
 26
0.0
 36
1.0
 17
0.0
 27
0.0
 37
0.0
 40
26.01580368898077
 41
1.814583333333333
 42
50.0
 43
0.0
 44
0.0
 50
0.0
 51
0.0
 71
     0
 72
   100
 73
     1
 74
     0
 75
     0
 76
     0
 77
     0
 78
     0
281
     0
 65
     1
110
0.0
120
0.0
130
0.0
111
1.0
121
0.0
131
0.0
112
0.0
122
1.0
132
0.0
 79
     0
146
0.0
  0
ENDTAB
  0
TABLE
  2
LTYPE
  5
18
330
0
100
AcDbSymbolTable
 70
     1
  0
LTYPE
  5
19
330
18
100
AcDbSymbolTableRecord
100
AcDbLinetypeTableRecord
  2
BYBLOCK
 70
     0
  3

 72
    65
 73
     0
 40
0.0
  0
LTYPE
  5
1A
330
18
100
AcDbSymbolTableRecord
100
AcDbLinetypeTableRecord
  2
BYLAYER
 70
     0
  3

 72
    65
 73
     0
 40
0.0
  0
LTYPE
  5
A
330
18
100
AcDbSymbolTableRecord
100
AcDbLinetypeTableRecord
  2
CONTINUOUS
 70
     0
  3
Solid line
 72
    65
 73
     0
 40
0.0
  0
ENDTAB
  0
TABLE
  2
LAYER
  5
14
330
0
100
AcDbSymbolTable
 70
     2
  0
LAYER
  5
6
330
14
100
AcDbSymbolTableRecord
100
AcDbLayerTableRecord
  2
0
 70
     0
 62
     7
  6
CONTINUOUS
370
    -3
390
7
  0
ENDTAB
  0
TABLE
  2
STYLE
  5
15
330
0
100
AcDbSymbolTable
 70
     1
  0
STYLE
  5
16
330
15
100
AcDbSymbolTableRecord
100
AcDbTextStyleTableRecord
  2
STANDARD
 70
     0
 40
0.0
 41
1.0
 50
0.0
 71
     0
 42
0.27
  3
TXT
  4

  0
ENDTAB
  0
TABLE
  2
VIEW
  5
1B
330
0
100
AcDbSymbolTable
 70
     0
  0
ENDTAB
  0
TABLE
  2
UCS
  5
1C
330
0
100
AcDbSymbolTable
 70
     0
  0
ENDTAB
  0
TABLE
  2
APPID
  5
1F
330
0
100
AcDbSymbolTable
 70
     1
  0
APPID
  5
20
330
1F
100
AcDbSymbolTableRecord
100
AcDbRegAppTableRecord
  2
ACAD
 70
     0
  0
ENDTAB
  0
TABLE
  2
DIMSTYLE
  5
21
330
0
100
AcDbSymbolTable
 70
     1
100
AcDbDimStyleTable
  0
DIMSTYLE
105
28
330
21
100
AcDbSymbolTableRecord
100
AcDbDimStyleTableRecord
  2
STANDARD
 70
     0
  3

  4

340
16
  0
ENDTAB
  0
TABLE
  2
BLOCK_RECORD
  5
1
330
0
100
AcDbSymbolTable
 70
     0
  0
BLOCK_RECORD
  5
2
330
1
100
AcDbSymbolTableRecord
100
AcDbBlockTableRecord
  2
*MODEL_SPACE
340
C
  0
BLOCK_RECORD
  5
E
330
1
100
AcDbSymbolTableRecord
100
AcDbBlockTableRecord
  2
*PAPER_SPACE
340
13
  0
ENDTAB
  0
ENDSEC
  0
SECTION
  2
BLOCKS
  0
BLOCK
  5
5
330
2
100
AcDbEntity
  8
0
100
AcDbBlockBegin
  2
*MODEL_SPACE
 70
     0
 10
0.0
 20
0.0
 30
0.0
  3
*MODEL_SPACE
  1

  4

  0
ENDBLK
  5
B
330
2
100
AcDbEntity
  8
0
100
AcDbBlockEnd
  0
BLOCK
  5
11
330
E
100
AcDbEntity
 67
     1
  8
0
100
AcDbBlockBegin
  2
*PAPER_SPACE
 70
     0
 10
0.0
 20
0.0
 30
0.0
  3
*PAPER_SPACE
  1

  4

  0
ENDBLK
  5
12
330
E
100
AcDbEntity
 67
     1
  8
0
100
AcDbBlockEnd
  0
ENDSEC
  0
SECTION
  2
ENTITIES
  0
LINE
  5
2E5
330
2
100
AcDbEntity
  8
0
100
AcDbLine
 10
-0.5625
 20
13.375
 30
0.0
 11
-0.5625
 21
20.14510112860018
 31
0.0
  0
LINE
  5
2E6
330
2
100
AcDbEntity
  8
0
100
AcDbLine
 10
0.5625
 20
13.375
 30
0.0
 11
0.5625
 21
20.14510112860018
 31
0.0
  0
LINE
  5
2E7
330
2
100
AcDbEntity
  8
0
100
AcDbLine
 10
-3.750000000000004
 20
14.9835
 30
0.0
 11
-3.750000000000004
 21
13.9375
 31
0.0
  0
TEXT
  5
2E8
330
2
100
AcDbEntity
  8
0
100
AcDbText
 10
-0.384201809233641
 20
15.46481088910994
 30
0.0
 40
0.131486625
  1
EMBEDMENT LINE  
 50
270.0
100
AcDbText
  0
LINE
  5
2E9
330
2
100
AcDbEntity
  8
0
100
AcDbLine
 10
3.751809084898625
 20
14.9835
 30
0.0
 11
3.751809084898625
 21
13.9375
 31
0.0
  0
LINE
  5
2EA
330
2
100
AcDbEntity
  8
0
100
AcDbLine
 10
-3.500000000000004
 20
13.6875
 30
0.0
 11
-0.5625
 21
13.6875
 31
0.0
  0
LINE
  5
2EB
330
2
100
AcDbEntity
  8
0
100
AcDbLine
 10
-3.750000000000004
 20
13.9375
 30
0.0
 11
-3.500000000000004
 21
13.6875
 31
0.0
  0
CIRCLE
  5
2EC
330
2
100
AcDbEntity
  8
0
100
AcDbCircle
 10
-3.437500000000004
 20
14.0
 30
0.0
 40
0.0855
  0
LINE
  5
2ED
330
2
100
AcDbEntity
  8
0
100
AcDbLine
 10
-0.5625
 20
0.0
 30
0.0
 11
-0.5625
 21
12.875
 31
0.0
  0
LINE
  5
2EE
330
2
100
AcDbEntity
  8
0
100
AcDbLine
 10
0.5625
 20
12.875
 30
0.0
 11
0.5625
 21
0.0
 31
0.0
  0
CIRCLE
  5
2EF
330
2
100
AcDbEntity
  8
0
100
AcDbCircle
 10
-0.0000000000000036
 20
0.7499999999999982
 30
0.0
 40
0.0855
  0
LINE
  5
2F0
330
2
100
AcDbEntity
  8
0
100
AcDbLine
 10
-0.5625
 20
0.0
 30
0.0
 11
0.5625
 21
0.0
 31
0.0
  0
CIRCLE
  5
2F1
330
2
100
AcDbEntity
  8
0
100
AcDbCircle
 10
-0.3125000000000036
 20
0.3437339999999995
 30
0.0
 40
0.0855
  0
CIRCLE
  5
2F2
330
2
100
AcDbEntity
  8
0
100
AcDbCircle
 10
0.3124999999999965
 20
1.562484
 30
0.0
 40
0.0855
  0
POINT
  5
2F3
330
2
100
AcDbEntity
  8
0
100
AcDbPoint
 10
0.5625
 20
1.5625
 30
0.0
  0
CIRCLE
  5
2F4
330
2
100
AcDbEntity
  8
0
100
AcDbCircle
 10
-0.3125000000000036
 20
2.781234
 30
0.0
 40
0.0855
  0
CIRCLE
  5
2F5
330
2
100
AcDbEntity
  8
0
100
AcDbCircle
 10
0.3124999999999965
 20
3.999984000000001
 30
0.0
 40
0.0855
  0
CIRCLE
  5
2F6
330
2
100
AcDbEntity
  8
0
100
AcDbCircle
 10
-0.0000000000000036
 20
4.75
 30
0.0
 40
0.0855
  0
CIRCLE
  5
2F7
330
2
100
AcDbEntity
  8
0
100
AcDbCircle
 10
-0.3125000000000036
 20
5.218734000000001
 30
0.0
 40
0.0855
  0
CIRCLE
  5
2F8
330
2
100
AcDbEntity
  8
0
100
AcDbCircle
 10
0.3124999999999965
 20
6.437484000000001
 30
0.0
 40
0.0855
  0
CIRCLE
  5
2F9
330
2
100
AcDbEntity
  8
0
100
AcDbCircle
 10
-0.0000000000000036
 20
6.75
 30
0.0
 40
0.0855
  0
LINE
  5
2FA
330
2
100
AcDbEntity
  8
0
100
AcDbLine
 10
0.5625
 20
13.6875
 30
0.0
 11
3.501809084898625
 21
13.6875
 31
0.0
  0
CIRCLE
  5
2FC
330
2
100
AcDbEntity
  8
0
100
AcDbCircle
 10
-0.3125000000000036
 20
7.656234000000001
 30
0.0
 40
0.0855
  0
CIRCLE
  5
2FD
330
2
100
AcDbEntity
  8
0
100
AcDbCircle
 10
0.3124999999999965
 20
8.874984000000001
 30
0.0
 40
0.0855
  0
CIRCLE
  5
2FE
330
2
100
AcDbEntity
  8
0
100
AcDbCircle
 10
-0.3125000000000036
 20
10.093734
 30
0.0
 40
0.0855
  0
CIRCLE
  5
2FF
330
2
100
AcDbEntity
  8
0
100
AcDbCircle
 10
-0.0000000000000036
 20
10.5
 30
0.0
 40
0.0855
  0
LINE
  5
300
330
2
100
AcDbEntity
  8
0
100
AcDbLine
 10
-0.5
 20
12.9375
 30
0.0
 11
-0.5
 21
13.3125
 31
0.0
  0
LINE
  5
301
330
2
100
AcDbEntity
  8
0
100
AcDbLine
 10
0.5
 20
13.3125
 30
0.0
 11
0.5
 21
12.9375
 31
0.0
  0
CIRCLE
  5
302
330
2
100
AcDbEntity
  8
0
100
AcDbCircle
 10
0.3124999999999965
 20
11.312484
 30
0.0
 40
0.0855
  0
CIRCLE
  5
303
330
2
100
AcDbEntity
  8
0
100
AcDbCircle
 10
-0.0000000000000036
 20
12.25
 30
0.0
 40
0.0855
  0
ARC
  5
304
330
2
100
AcDbEntity
  8
0
100
AcDbCircle
 10
-0.5625000000000036
 20
12.9375
 30
0.0
 40
0.0625
100
AcDbArc
 50
270.0
 51
0.0
  0
ARC
  5
305
330
2
100
AcDbEntity
  8
0
100
AcDbCircle
 10
0.5624999999999965
 20
12.9375
 30
0.0
 40
0.0625
100
AcDbArc
 50
180.0
 51
270.0
  0
CIRCLE
  5
306
330
2
100
AcDbEntity
  8
0
100
AcDbCircle
 10
-1.500000000000004
 20
14.3125
 30
0.0
 40
0.0855
  0
ARC
  5
308
330
2
100
AcDbEntity
  8
0
100
AcDbCircle
 10
-0.5625000000000036
 20
13.3125
 30
0.0
 40
0.0625
100
AcDbArc
 50
0.0
 51
89.99999999999999
  0
ARC
  5
309
330
2
100
AcDbEntity
  8
0
100
AcDbCircle
 10
0.5624999999999965
 20
13.3125
 30
0.0
 40
0.0625
100
AcDbArc
 50
89.99999999999999
 51
180.0
  0
CIRCLE
  5
30A
330
2
100
AcDbEntity
  8
0
100
AcDbCircle
 10
-0.0000000000000036
 20
14.0
 30
0.0
 40
0.0855
  0
CIRCLE
  5
30B
330
2
100
AcDbEntity
  8
0
100
AcDbCircle
 10
-0.0000000000000036
 20
14.0
 30
0.0
 40
0.0855
  0
CIRCLE
  5
30C
330
2
100
AcDbEntity
  8
0
100
AcDbCircle
 10
1.499999999999996
 20
14.3125
 30
0.0
 40
0.0855
  0
LINE
  5
30D
330
2
100
AcDbEntity
  8
0
100
AcDbLine
 10
3.501809084898625
 20
13.6875
 30
0.0
 11
3.751809084898625
 21
13.9375
 31
0.0
  0
CIRCLE
  5
30E
330
2
100
AcDbEntity
  8
0
100
AcDbCircle
 10
3.437499999999996
 20
14.0
 30
0.0
 40
0.0855
  0
LINE
  5
30F
330
2
100
AcDbEntity
  8
0
100
AcDbLine
 10
-3.750000000000004
 20
14.9835
 30
0.0
 11
-1.170090915101376
 21
14.9835
 31
0.0
  0
LINE
  5
310
330
2
100
AcDbEntity
  8
0
100
AcDbLine
 10
-3.750000000000004
 20
14.9375
 30
0.0
 11
-1.124090915101377
 21
14.9375
 31
0.0
  0
LINE
  5
311
330
2
100
AcDbEntity
  8
0
100
AcDbLine
 10
-3.500000000000004
 20
14.9835
 30
0.0
 11
-3.500000000000004
 21
14.9375
 31
0.0
  0
LINE
  5
312
330
2
100
AcDbEntity
  8
0
100
AcDbLine
 10
3.751809084898625
 20
14.9835
 30
0.0
 11
1.171899999999994
 21
14.9835
 31
0.0
  0
LINE
  5
313
330
2
100
AcDbEntity
  8
0
100
AcDbLine
 10
3.751809084898625
 20
14.9375
 30
0.0
 11
1.125899999999994
 21
14.9375
 31
0.0
  0
LINE
  5
314
330
2
100
AcDbEntity
  8
0
100
AcDbLine
 10
0.5625
 20
15.95514970637909
 30
0.0
 11
0.7466030893537621
 21
15.44933062552778
 31
0.0
  0
LINE
  5
316
330
2
100
AcDbEntity
  8
0
100
AcDbLine
 10
-0.795090915101369
 20
18.0625
 30
0.0
 11
-0.7950909151013761
 21
15.3585
 31
0.0
  0
LINE
  5
317
330
2
100
AcDbEntity
  8
0
100
AcDbLine
 10
-0.7490909151013696
 20
18.0625
 30
0.0
 11
-0.7490909151013767
 21
15.3125
 31
0.0
  0
ARC
  5
318
330
2
100
AcDbEntity
  8
0
100
AcDbCircle
 10
-1.170090915101373
 20
15.3585
 30
0.0
 40
0.375
100
AcDbArc
 50
270.0000000000001
 51
359.9999999999999
  0
ARC
  5
319
330
2
100
AcDbEntity
  8
0
100
AcDbCircle
 10
-1.124090915101373
 20
15.3125
 30
0.0
 40
0.375
100
AcDbArc
 50
270.0
 51
359.9999999999999
  0
LINE
  5
31A
330
2
100
AcDbEntity
  8
0
100
AcDbLine
 10
-0.3125000000000071
 20
15.59451059965128
 30
0.0
 11
-0.3125000000000071
 21
15.89085944886443
 31
0.0
  0
CIRCLE
  5
31B
330
2
100
AcDbEntity
  8
0
100
AcDbCircle
 10
-0.0000000000000036
 20
15.5
 30
0.0
 40
0.15625
  0
CIRCLE
  5
31C
330
2
100
AcDbEntity
  8
0
100
AcDbCircle
 10
-0.0000000000000036
 20
15.5
 30
0.0
 40
0.0855
  0
CIRCLE
  5
31D
330
2
100
AcDbEntity
  8
0
100
AcDbCircle
 10
-0.0000000000000036
 20
15.5
 30
0.0
 40
0.0855
  0
CIRCLE
  5
31E
330
2
100
AcDbEntity
  8
0
100
AcDbCircle
 10
-0.0000000000000036
 20
15.5
 30
0.0
 40
0.0315
  0
LINE
  5
31F
330
2
100
AcDbEntity
  8
0
100
AcDbLine
 10
-0.3125000000000071
 20
15.89085944886443
 30
0.0
 11
-0.2546698618444765
 21
15.7705293107089
 31
0.0
  0
SOLID
  5
320
330
2
100
AcDbEntity
  8
0
100
AcDbTrace
 10
-0.1562500000000036
 20
16.015625
 30
0.0
 11
-0.1562500000000036
 21
16.0
 31
0.0
 12
-0.4687500000000036
 22
16.015625
 32
0.0
 13
-0.4687500000000036
 23
16.0
 33
0.0
  0
LINE
  5
321
330
2
100
AcDbEntity
  8
0
100
AcDbLine
 10
-0.1562500000000071
 20
16.015625
 30
0.0
 11
-0.4687500000000071
 21
16.015625
 31
0.0
  0
LINE
  5
322
330
2
100
AcDbEntity
  8
0
100
AcDbLine
 10
-0.1562500000000071
 20
16.0
 30
0.0
 11
-0.4687500000000071
 21
16.0
 31
0.0
  0
LINE
  5
323
330
2
100
AcDbEntity
  8
0
100
AcDbLine
 10
-0.1562500000000071
 20
16.0
 30
0.0
 11
-0.4687500000000071
 21
16.0
 31
0.0
  0
LINE
  5
324
330
2
100
AcDbEntity
  8
0
100
AcDbLine
 10
-0.3125000000000071
 20
15.89085944886443
 30
0.0
 11
-0.3703301381555306
 21
15.7705293107089
 31
0.0
  0
LINE
  5
325
330
2
100
AcDbEntity
  8
0
100
AcDbLine
 10
-0.4687500000000071
 20
16.015625
 30
0.0
 11
-0.4687500000000071
 21
16.0
 31
0.0
  0
LINE
  5
326
330
2
100
AcDbEntity
  8
0
100
AcDbLine
 10
-0.1562500000000071
 20
16.015625
 30
0.0
 11
-0.1562500000000071
 21
16.0
 31
0.0
  0
LINE
  5
329
330
2
100
AcDbEntity
  8
0
100
AcDbLine
 10
-0.5625
 20
18.0625
 30
0.0
 11
-0.795090915101369
 21
18.0625
 31
0.0
  0
LINE
  5
32A
330
2
100
AcDbEntity
  8
0
100
AcDbLine
 10
-0.7490909151013696
 20
17.8125
 30
0.0
 11
-0.7950909151013761
 21
17.8125
 31
0.0
  0
CIRCLE
  5
32B
330
2
100
AcDbEntity
  8
0
100
AcDbCircle
 10
0.1875
 20
17.75
 30
0.0
 40
0.15625
  0
CIRCLE
  5
32E
330
2
100
AcDbEntity
  8
0
100
AcDbCircle
 10
0.1875
 20
17.75
 30
0.0
 40
0.0855
  0
CIRCLE
  5
32F
330
2
100
AcDbEntity
  8
0
100
AcDbCircle
 10
0.1875
 20
17.75
 30
0.0
 40
0.0855
  0
CIRCLE
  5
330
330
2
100
AcDbEntity
  8
0
100
AcDbCircle
 10
0.1875
 20
17.75
 30
0.0
 40
0.0315
  0
ARC
  5
331
330
2
100
AcDbEntity
  8
0
100
AcDbCircle
 10
1.171899999999997
 20
15.3585
 30
0.0
 40
0.375
100
AcDbArc
 50
180.0000000000001
 51
269.9999999999999
  0
ARC
  5
332
330
2
100
AcDbEntity
  8
0
100
AcDbCircle
 10
1.125899999999998
 20
15.3125
 30
0.0
 40
0.375
100
AcDbArc
 50
180.0000000000001
 51
270.0
  0
LINE
  5
333
330
2
100
AcDbEntity
  8
0
100
AcDbLine
 10
0.7508999999999944
 20
15.44006610619502
 30
0.0
 11
0.7508999999999944
 21
15.3125
 31
0.0
  0
ARC
  5
334
330
2
100
AcDbEntity
  8
0
100
AcDbCircle
 10
1.09005951434818
 20
15.75260191002141
 30
0.0
 40
0.4629386865395427
100
AcDbArc
 50
224.565151428518
 51
230.7091149780875
  0
ARC
  5
335
330
2
100
AcDbEntity
  8
0
100
AcDbCircle
 10
0.8029846466009225
 20
15.46985183412733
 30
0.0
 40
0.06
100
AcDbArc
 50
200.0000000000003
 51
224.5651514285185
  0
LINE
  5
336
330
2
100
AcDbEntity
  8
0
100
AcDbLine
 10
0.7968999999999937
 20
15.39431469751991
 30
0.0
 11
0.7968999999999937
 21
15.3585
 31
0.0
  0
LINE
  5
337
330
2
100
AcDbEntity
  8
0
100
AcDbLine
 10
0.2864110000000011
 20
20.00011
 30
0.0
 11
0.2864110000000011
 21
19.092916
 31
0.0
  0
LINE
  5
338
330
2
100
AcDbEntity
  8
0
100
AcDbLine
 10
-0.286410999999994
 20
20.00011
 30
0.0
 11
-0.286410999999994
 21
19.092916
 31
0.0
  0
LINE
  5
339
330
2
100
AcDbEntity
  8
0
100
AcDbLine
 10
0.0364110000000011
 20
19.65958032656949
 30
0.0
 11
0.0364110000000011
 21
19.2917915405266
 31
0.0
  0
LINE
  5
33A
330
2
100
AcDbEntity
  8
0
100
AcDbLine
 10
-0.036410999999994
 20
19.65488015039002
 30
0.0
 11
-0.036410999999994
 21
19.40107063669909
 31
0.0
  0
LINE
  5
33B
330
2
100
AcDbEntity
  8
0
100
AcDbLine
 10
-0.223910999999994
 20
20.02774446649445
 30
0.0
 11
-0.223910999999994
 21
19.09374419932047
 31
0.0
  0
LINE
  5
33C
330
2
100
AcDbEntity
  8
0
100
AcDbLine
 10
0.2239110000000011
 20
20.02774446649446
 30
0.0
 11
0.2239110000000011
 21
19.09374419932045
 31
0.0
  0
ARC
  5
33D
330
2
100
AcDbEntity
  8
0
100
AcDbCircle
 10
0.0
 20
19.100058
 30
0.0
 40
0.2865
100
AcDbArc
 50
178.571672
 51
1.428327999999992
  0
ARC
  5
33E
330
2
100
AcDbEntity
  8
0
100
AcDbCircle
 10
0.0
 20
19.100058
 30
0.0
 40
0.224
100
AcDbArc
 50
178.571672
 51
1.428327999999992
  0
LINE
  5
33F
330
2
100
AcDbEntity
  8
0
100
AcDbLine
 10
0.0364110000000011
 20
19.20248819311683
 30
0.0
 11
0.0364110000000011
 21
19.092916
 31
0.0
  0
LINE
  5
340
330
2
100
AcDbEntity
  8
0
100
AcDbLine
 10
-0.036410999999994
 20
19.33879330232122
 30
0.0
 11
-0.036410999999994
 21
19.092916
 31
0.0
  0
ARC
  5
341
330
2
100
AcDbEntity
  8
0
100
AcDbCircle
 10
0.0
 20
19.100058
 30
0.0
 40
0.0365
100
AcDbArc
 50
178.571672
 51
1.428327999999992
  0
ARC
  5
342
330
2
100
AcDbEntity
  8
0
100
AcDbCircle
 10
0.0
 20
19.43683765913842
 30
0.0
 40
0.6319074227295306
100
AcDbArc
 50
63.02571624592445
 51
116.9742837540755
  0
LINE
  5
343
330
2
100
AcDbEntity
  8
0
100
AcDbLine
 10
0.3117217542575546
 20
20.14510112860018
 30
0.0
 11
-0.2427020391221078
 21
20.14510112860018
 31
0.0
  0
LINE
  5
344
330
2
100
AcDbEntity
  8
0
100
AcDbLine
 10
0.3125
 20
20.19590112860018
 30
0.0
 11
-0.2021280236094185
 21
20.19590112860018
 31
0.0
  0
ARC
  5
345
330
2
100
AcDbEntity
  8
0
100
AcDbCircle
 10
0.0
 20
19.992858
 30
0.0
 40
0.2865
100
AcDbArc
 50
45.12940596669645
 51
134.8705940333036
  0
LINE
  5
346
330
2
100
AcDbEntity
  8
0
100
AcDbLine
 10
0.0364110000000011
 20
20.02795716563126
 30
0.0
 11
0.0364110000000011
 21
19.71715779588234
 31
0.0
  0
LINE
  5
347
330
2
100
AcDbEntity
  8
0
100
AcDbLine
 10
-0.036410999999994
 20
20.04088233901034
 30
0.0
 11
-0.036410999999994
 21
19.73478314544088
 31
0.0
  0
LINE
  5
348
330
2
100
AcDbEntity
  8
0
100
AcDbLine
 10
-0.2427020391221006
 20
20.14510112860018
 30
0.0
 11
-0.3132782457424455
 21
20.14510112860018
 31
0.0
  0
LINE
  5
349
330
2
100
AcDbEntity
  8
0
100
AcDbLine
 10
-0.2021280236094185
 20
20.19590112860018
 30
0.0
 11
-0.3125
 21
20.19590112860018
 31
0.0
  0
LINE
  5
34A
330
2
100
AcDbEntity
  8
0
100
AcDbLine
 10
-0.3132782457424455
 20
20.14510112860018
 30
0.0
 11
-0.5625
 21
20.09430112860018
 31
0.0
  0
LINE
  5
34B
330
2
100
AcDbEntity
  8
0
100
AcDbLine
 10
-0.3125
 20
20.19590112860018
 30
0.0
 11
-0.5625
 21
20.14510112860018
 31
0.0
  0
LINE
  5
34C
330
2
100
AcDbEntity
  8
0
100
AcDbLine
 10
-0.3125
 20
20.19590112860018
 30
0.0
 11
-0.3132782457424455
 21
20.14510112860018
 31
0.0
  0
LINE
  5
34D
330
2
100
AcDbEntity
  8
0
100
AcDbLine
 10
-0.5625
 20
20.0
 30
0.0
 11
-0.2866272295787766
 21
20.0
 31
0.0
  0
LINE
  5
34E
330
2
100
AcDbEntity
  8
0
100
AcDbLine
 10
0.5625
 20
20.09430112860018
 30
0.0
 11
0.3117217542575546
 21
20.14510112860018
 31
0.0
  0
LINE
  5
34F
330
2
100
AcDbEntity
  8
0
100
AcDbLine
 10
0.5625
 20
20.14510112860018
 30
0.0
 11
0.3125
 21
20.19590112860018
 31
0.0
  0
LINE
  5
350
330
2
100
AcDbEntity
  8
0
100
AcDbLine
 10
0.2866272295787766
 20
20.0
 30
0.0
 11
0.5625000000000071
 21
20.0
 31
0.0
  0
LINE
  5
351
330
2
100
AcDbEntity
  8
0
100
AcDbLine
 10
0.3125
 20
20.19590112860018
 30
0.0
 11
0.3117217542575546
 21
20.14510112860018
 31
0.0
  0
LINE
  5
352
330
2
100
AcDbEntity
  8
0
100
AcDbLine
 10
3.501809084898625
 20
14.9835
 30
0.0
 11
3.501809084898625
 21
14.9375
 31
0.0
  0
LINE
  5
353
330
2
100
AcDbEntity
  8
0
100
AcDbLine
 10
3.751809084898625
 20
14.9835
 30
0.0
 11
3.732677805416699
 21
14.9835
 31
0.0
  0
LINE
  5
354
330
2
100
AcDbEntity
  8
0
100
AcDbLine
 10
9.368938625517522
 20
14.94303958792938
 30
0.0
 11
9.368938625517526
 21
0.0
 31
0.0
  0
LINE
  5
355
330
2
100
AcDbEntity
  8
0
100
AcDbLine
 10
9.416907625517524
 20
0.0
 30
0.0
 11
9.416907625517524
 21
14.89803958792938
 31
0.0
  0
LINE
  5
356
330
2
100
AcDbEntity
  8
0
100
AcDbLine
 10
9.416907625517524
 20
13.6875
 30
0.0
 11
9.416907625517524
 21
14.89703958792938
 31
0.0
  0
LINE
  5
357
330
2
100
AcDbEntity
  8
0
100
AcDbLine
 10
9.462907625517524
 20
13.6875
 30
0.0
 11
9.46290762551752
 21
14.89703958792938
 31
0.0
  0
LINE
  5
358
330
2
100
AcDbEntity
  8
0
100
AcDbLine
 10
9.368938625517526
 20
0.0
 30
0.0
 11
9.416907625517524
 21
0.0
 31
0.0
  0
LINE
  5
359
330
2
100
AcDbEntity
  8
0
100
AcDbLine
 10
9.462907625517524
 20
13.6875
 30
0.0
 11
9.416907625517524
 21
13.6875
 31
0.0
  0
LINE
  5
35A
330
2
100
AcDbEntity
  8
0
100
AcDbLine
 10
9.462907625517524
 20
13.9375
 30
0.0
 11
9.416907625517524
 21
13.9375
 31
0.0
  0
LINE
  5
35B
330
2
100
AcDbEntity
  8
0
100
AcDbLine
 10
8.534925561614969
 20
20.02903244760971
 30
0.0
 11
8.008865161579706
 21
20.19920407918874
 31
0.0
  0
LINE
  5
35C
330
2
100
AcDbEntity
  8
0
100
AcDbLine
 10
8.541707901437192
 20
19.97767029918757
 30
0.0
 11
7.993938625517522
 21
20.1532649248831
 31
0.0
  0
LINE
  5
35D
330
2
100
AcDbEntity
  8
0
100
AcDbLine
 10
8.415998540618894
 20
18.0625
 30
0.0
 11
8.165998540618894
 21
17.8125
 31
0.0
  0
LINE
  5
35E
330
2
100
AcDbEntity
  8
0
100
AcDbLine
 10
9.178932624604116
 20
15.34121017530501
 30
0.0
 11
8.165998540618894
 21
16.48501174946237
 31
0.0
  0
LINE
  5
35F
330
2
100
AcDbEntity
  8
0
100
AcDbLine
 10
9.370907625517525
 20
14.94303958792938
 30
0.0
 11
8.166771440612312
 21
14.94303958792938
 31
0.0
  0
LINE
  5
360
330
2
100
AcDbEntity
  8
0
100
AcDbLine
 10
9.370907625517518
 20
14.98903958792938
 30
0.0
 11
8.166771440612312
 21
14.98903958792938
 31
0.0
  0
LINE
  5
361
330
2
100
AcDbEntity
  8
0
100
AcDbLine
 10
9.416907625517524
 20
18.0625
 30
0.0
 11
9.416907625517524
 21
19.81843358086444
 31
0.0
  0
LINE
  5
362
330
2
100
AcDbEntity
  8
0
100
AcDbLine
 10
9.368938625517522
 20
19.81351802958439
 30
0.0
 11
9.368938625517522
 21
18.0625
 31
0.0
  0
LINE
  5
363
330
2
100
AcDbEntity
  8
0
100
AcDbLine
 10
9.368938625517522
 20
18.0625
 30
0.0
 11
9.368938625517522
 21
14.98903958792938
 31
0.0
  0
LINE
  5
364
330
2
100
AcDbEntity
  8
0
100
AcDbLine
 10
9.462907625517524
 20
14.89703958792938
 30
0.0
 11
9.462907625517524
 21
18.0625
 31
0.0
  0
LINE
  5
365
330
2
100
AcDbEntity
  8
0
100
AcDbLine
 10
9.416907625517524
 20
14.9767139250775
 30
0.0
 11
9.416907625517524
 21
18.0625
 31
0.0
  0
LINE
  5
366
330
2
100
AcDbEntity
  8
0
100
AcDbLine
 10
9.544764465168363
 20
15.4055
 30
0.0
 11
9.481764465168364
 21
15.4055
 31
0.0
  0
LINE
  5
367
330
2
100
AcDbEntity
  8
0
100
AcDbLine
 10
9.481764465168364
 20
15.5945
 30
0.0
 11
9.544764465168363
 21
15.5945
 31
0.0
  0
LINE
  5
368
330
2
100
AcDbEntity
  8
0
100
AcDbLine
 10
9.544764465168363
 20
15.5945
 30
0.0
 11
9.544764465168363
 21
15.4055
 31
0.0
  0
ARC
  5
369
330
2
100
AcDbEntity
  8
0
100
AcDbCircle
 10
9.062290673179131
 20
15.1447653515323
 30
0.0
 40
0.2284642501997095
100
AcDbArc
 50
317.0296476099886
 51
59.2996656114588
  0
ARC
  5
36A
330
2
100
AcDbEntity
  8
0
100
AcDbCircle
 10
9.057750925330371
 20
15.17150328521335
 30
0.0
 40
0.2284642501997095
100
AcDbArc
 50
306.9983188061198
 51
6.233431190233382
  0
ARC
  5
36B
330
2
100
AcDbEntity
  8
0
100
AcDbCircle
 10
9.370907625517521
 20
14.89703958792938
 30
0.0
 40
0.092
100
AcDbArc
 50
0.0000000000001597
 51
90.00000000000003
  0
ARC
  5
36C
330
2
100
AcDbEntity
  8
0
100
AcDbCircle
 10
9.370907625517528
 20
14.89703958792938
 30
0.0
 40
0.046
100
AcDbArc
 50
0.000000000000007
 51
90.00000000000011
  0
LINE
  5
36D
330
2
100
AcDbEntity
  8
0
100
AcDbLine
 10
9.349941435155213
 20
15.4685
 30
0.0
 11
9.349941435155213
 21
15.3425
 31
0.0
  0
LINE
  5
36E
330
2
100
AcDbEntity
  8
0
100
AcDbLine
 10
9.302193617386468
 20
15.3425
 30
0.0
 11
9.302193617386465
 21
15.6575
 31
0.0
  0
LINE
  5
36F
330
2
100
AcDbEntity
  8
0
100
AcDbLine
 10
9.302193617386465
 20
15.6575
 30
0.0
 11
9.349941435155209
 21
15.6575
 31
0.0
  0
LINE
  5
370
330
2
100
AcDbEntity
  8
0
100
AcDbLine
 10
9.368938625517522
 20
15.4685
 30
0.0
 11
9.349941435155213
 21
15.4685
 31
0.0
  0
LINE
  5
371
330
2
100
AcDbEntity
  8
0
100
AcDbLine
 10
9.349941435155213
 20
15.5315
 30
0.0
 11
9.368938625517522
 21
15.5315
 31
0.0
  0
LINE
  5
372
330
2
100
AcDbEntity
  8
0
100
AcDbLine
 10
9.349941435155213
 20
15.6575
 30
0.0
 11
9.349941435155213
 21
15.5315
 31
0.0
  0
LINE
  5
373
330
2
100
AcDbEntity
  8
0
100
AcDbLine
 10
9.349941435155213
 20
15.3425
 30
0.0
 11
9.302193617386468
 21
15.3425
 31
0.0
  0
LINE
  5
374
330
2
100
AcDbEntity
  8
0
100
AcDbLine
 10
9.481764465168361
 20
15.4055
 30
0.0
 11
9.481764465168364
 21
15.4685
 31
0.0
  0
LINE
  5
375
330
2
100
AcDbEntity
  8
0
100
AcDbLine
 10
9.481764465168364
 20
15.4685
 30
0.0
 11
9.46290762551752
 21
15.4685
 31
0.0
  0
LINE
  5
376
330
2
100
AcDbEntity
  8
0
100
AcDbLine
 10
9.46290762551752
 20
15.5315
 30
0.0
 11
9.481764465168364
 21
15.5315
 31
0.0
  0
LINE
  5
377
330
2
100
AcDbEntity
  8
0
100
AcDbLine
 10
9.481764465168364
 20
15.5315
 30
0.0
 11
9.481764465168361
 21
15.5945
 31
0.0
  0
LINE
  5
378
330
2
100
AcDbEntity
  8
0
100
AcDbLine
 10
8.416771440612312
 20
14.98903958792938
 30
0.0
 11
8.416771440612312
 21
14.94303958792938
 31
0.0
  0
LINE
  5
379
330
2
100
AcDbEntity
  8
0
100
AcDbLine
 10
9.481764465168364
 20
17.8445
 30
0.0
 11
9.544764465168363
 21
17.8445
 31
0.0
  0
LINE
  5
37A
330
2
100
AcDbEntity
  8
0
100
AcDbLine
 10
9.544764465168363
 20
17.6555
 30
0.0
 11
9.481764465168364
 21
17.6555
 31
0.0
  0
LINE
  5
37B
330
2
100
AcDbEntity
  8
0
100
AcDbLine
 10
9.544764465168363
 20
17.8445
 30
0.0
 11
9.544764465168363
 21
17.6555
 31
0.0
  0
CIRCLE
  5
37C
330
2
100
AcDbEntity
  8
0
100
AcDbCircle
 10
8.415998540618894
 20
17.62805039094164
 30
0.0
 40
0.0855
  0
LINE
  5
37D
330
2
100
AcDbEntity
  8
0
100
AcDbLine
 10
9.302193617386468
 20
17.5925
 30
0.0
 11
9.302193617386465
 21
17.9075
 31
0.0
  0
LINE
  5
37E
330
2
100
AcDbEntity
  8
0
100
AcDbLine
 10
9.349941435155213
 20
17.7185
 30
0.0
 11
9.349941435155213
 21
17.5925
 31
0.0
  0
LINE
  5
37F
330
2
100
AcDbEntity
  8
0
100
AcDbLine
 10
9.349941435155213
 20
17.5925
 30
0.0
 11
9.302193617386468
 21
17.5925
 31
0.0
  0
LINE
  5
380
330
2
100
AcDbEntity
  8
0
100
AcDbLine
 10
8.415998540618894
 20
18.0625
 30
0.0
 11
9.416907625517524
 21
18.0625
 31
0.0
  0
LINE
  5
381
330
2
100
AcDbEntity
  8
0
100
AcDbLine
 10
9.349941435155213
 20
17.9075
 30
0.0
 11
9.349941435155213
 21
17.7815
 31
0.0
  0
LINE
  5
382
330
2
100
AcDbEntity
  8
0
100
AcDbLine
 10
9.302193617386465
 20
17.9075
 30
0.0
 11
9.349941435155209
 21
17.9075
 31
0.0
  0
LINE
  5
383
330
2
100
AcDbEntity
  8
0
100
AcDbLine
 10
9.349941435155213
 20
17.7815
 30
0.0
 11
9.368938625517522
 21
17.7815
 31
0.0
  0
LINE
  5
384
330
2
100
AcDbEntity
  8
0
100
AcDbLine
 10
9.368938625517522
 20
17.7185
 30
0.0
 11
9.349941435155213
 21
17.7185
 31
0.0
  0
LINE
  5
385
330
2
100
AcDbEntity
  8
0
100
AcDbLine
 10
9.416907625517524
 20
18.0625
 30
0.0
 11
9.462907625517524
 21
18.0625
 31
0.0
  0
LINE
  5
386
330
2
100
AcDbEntity
  8
0
100
AcDbLine
 10
9.481764465168364
 20
17.7815
 30
0.0
 11
9.481764465168361
 21
17.8445
 31
0.0
  0
LINE
  5
387
330
2
100
AcDbEntity
  8
0
100
AcDbLine
 10
9.46290762551752
 20
17.7815
 30
0.0
 11
9.481764465168364
 21
17.7815
 31
0.0
  0
LINE
  5
388
330
2
100
AcDbEntity
  8
0
100
AcDbLine
 10
9.481764465168364
 20
17.7185
 30
0.0
 11
9.46290762551752
 21
17.7185
 31
0.0
  0
LINE
  5
389
330
2
100
AcDbEntity
  8
0
100
AcDbLine
 10
9.481764465168361
 20
17.6555
 30
0.0
 11
9.481764465168364
 21
17.7185
 31
0.0
  0
ARC
  5
38A
330
2
100
AcDbEntity
  8
0
100
AcDbCircle
 10
9.120032625517521
 20
19.7687848933779
 30
0.0
 40
0.484375
100
AcDbArc
 50
0.000000000000007
 51
90.00000000000003
  0
ARC
  5
38B
330
2
100
AcDbEntity
  8
0
100
AcDbCircle
 10
9.416907625517521
 20
18.937509
 30
0.0
 40
0.1875
100
AcDbArc
 50
270.0
 51
0.000000000000007
  0
LINE
  5
38C
330
2
100
AcDbEntity
  8
0
100
AcDbLine
 10
9.604407625517524
 20
18.937509
 30
0.0
 11
9.604407625517524
 21
19.7687848933779
 31
0.0
  0
LINE
  5
38D
330
2
100
AcDbEntity
  8
0
100
AcDbLine
 10
9.120032625517524
 20
20.2531598933779
 30
0.0
 11
8.681407625517522
 21
20.2531598933779
 31
0.0
  0
LINE
  5
38E
330
2
100
AcDbEntity
  8
0
100
AcDbLine
 10
9.161926457265079
 20
20.0
 30
0.0
 11
8.746371407291122
 21
19.95651922791692
 31
0.0
  0
LINE
  5
38F
330
2
100
AcDbEntity
  8
0
100
AcDbLine
 10
9.157922687752663
 20
20.0515129484374
 30
0.0
 11
8.741316946251565
 21
20.00752517947447
 31
0.0
  0
ARC
  5
390
330
2
100
AcDbEntity
  8
0
100
AcDbCircle
 10
9.182532625517524
 20
19.81843358086444
 30
0.0
 40
0.234375
100
AcDbArc
 50
0.000000000000007
 51
96.02730489947702
  0
ARC
  5
391
330
2
100
AcDbEntity
  8
0
100
AcDbCircle
 10
9.181438625517522
 20
19.81351802958439
 30
0.0
 40
0.1875
100
AcDbArc
 50
0.000000000000007
 51
95.97329398043256
  0
ARC
  5
392
330
2
100
AcDbEntity
  8
0
100
AcDbCircle
 10
8.694338958617937
 20
20.45380448235854
 30
0.0
 40
0.5
100
AcDbArc
 50
252.2260659756093
 51
275.9732939804324
  0
ARC
  5
393
330
2
100
AcDbEntity
  8
0
100
AcDbCircle
 10
8.688815745686529
 20
20.5047611636301
 30
0.0
 40
0.5
100
AcDbArc
 50
252.0744840309864
 51
276.027304899477
  0
ARC
  5
394
330
2
100
AcDbEntity
  8
0
100
AcDbCircle
 10
8.681407625517522
 20
20.06565989337789
 30
0.0
 40
0.1875
100
AcDbArc
 50
90.00000000000003
 51
180.0
  0
LINE
  5
395
330
2
100
AcDbEntity
  8
0
100
AcDbLine
 10
8.493907625517522
 20
20.0656598933779
 30
0.0
 11
8.493907625517522
 21
20.0423010553765
 31
0.0
  0
LINE
  5
396
330
2
100
AcDbEntity
  8
0
100
AcDbLine
 10
8.165998540618894
 20
16.48501174946237
 30
0.0
 11
8.165998540618894
 21
17.8125
 31
0.0
  0
LINE
  5
397
330
2
100
AcDbEntity
  8
0
100
AcDbLine
 10
8.166771440612312
 20
14.98903958792938
 30
0.0
 11
8.166771440612312
 21
14.94303958792938
 31
0.0
  0
LINE
  5
398
330
2
100
AcDbEntity
  8
0
100
AcDbLine
 10
8.00889015940902
 20
20.19928101459648
 30
0.0
 11
7.993938625517522
 21
20.1532649248831
 31
0.0
  0
LINE
  5
399
330
2
100
AcDbEntity
  8
0
100
AcDbLine
 10
8.24177515940902
 20
20.12394666056104
 30
0.0
 11
8.226823625517525
 21
20.07793057084766
 31
0.0
  0
CIRCLE
  5
39A
330
2
100
AcDbEntity
  8
0
100
AcDbCircle
 10
-3.350000000000007
 20
24.48411222566841
 30
0.0
 40
0.0855
  0
LINE
  5
39C
330
2
100
AcDbEntity
  8
0
100
AcDbLine
 10
0.5624999999999965
 20
24.29527522050405
 30
0.0
 11
0.5624999999999965
 21
25.48277522050405
 31
0.0
  0
LINE
  5
39D
330
2
100
AcDbEntity
  8
0
100
AcDbLine
 10
-0.5625000000000036
 20
25.48277522050405
 30
0.0
 11
-0.5625000000000036
 21
24.29527522050405
 31
0.0
  0
LINE
  5
3A1
330
2
100
AcDbEntity
  8
0
100
AcDbLine
 10
0.5624999999999965
 20
25.48277522050405
 30
0.0
 11
0.3124999999999965
 21
25.48277522050405
 31
0.0
  0
ARC
  5
3A2
330
2
100
AcDbEntity
  8
0
100
AcDbCircle
 10
-0.0000000000000053
 20
25.34215022050405
 30
0.0
 40
0.351562
100
AcDbArc
 50
23.57817799999998
 51
156.421822
  0
LINE
  5
3A3
330
2
100
AcDbEntity
  8
0
100
AcDbLine
 10
-0.3125000000000036
 20
25.48277522050405
 30
0.0
 11
-0.5625000000000036
 21
25.48277522050405
 31
0.0
  0
ARC
  5
3A9
330
2
100
AcDbEntity
  8
0
100
AcDbCircle
 10
-0.6935863896279582
 20
25.43491687311788
 30
0.0
 40
0.0489136103720469
100
AcDbArc
 50
101.9230405038543
 51
179.9999999999998
  0
ARC
  5
3AA
330
2
100
AcDbEntity
  8
0
100
AcDbCircle
 10
-0.7355863896279598
 20
25.47691687311788
 30
0.0
 40
0.0489136103720469
100
AcDbArc
 50
101.9230405038543
 51
179.9999999999998
  0
LINE
  5
3AB
330
2
100
AcDbEntity
  8
0
100
AcDbLine
 10
0.3124999999999965
 20
24.91777522050405
 30
0.0
 11
0.3124999999999965
 21
25.48277522050405
 31
0.0
  0
LINE
  5
3AC
330
2
100
AcDbEntity
  8
0
100
AcDbLine
 10
-0.3125000000000036
 20
25.48277522050405
 30
0.0
 11
-0.3125000000000036
 21
24.91777522050405
 31
0.0
  0
ARC
  5
3AD
330
2
100
AcDbEntity
  8
0
100
AcDbCircle
 10
-0.0025000000000031
 20
24.91777522050405
 30
0.0
 40
0.31
100
AcDbArc
 50
180.0
 51
270.0
  0
ARC
  5
3AE
330
2
100
AcDbEntity
  8
0
100
AcDbCircle
 10
0.0024999999999924
 20
24.91777522050405
 30
0.0
 40
0.31
100
AcDbArc
 50
270.0
 51
0.0
  0
LINE
  5
3AF
330
2
100
AcDbEntity
  8
0
100
AcDbLine
 10
-0.0025000000000013
 20
24.60777522050405
 30
0.0
 11
0.0025000000000013
 21
24.60777522050405
 31
0.0
  0
CIRCLE
  5
3B0
330
2
100
AcDbEntity
  8
0
100
AcDbCircle
 10
3.359711896467696
 20
24.47750662079963
 30
0.0
 40
0.0855
  0
LINE
  5
3B1
330
2
100
AcDbEntity
  8
0
100
AcDbLine
 10
0.3124999999999965
 20
24.04527522050405
 30
0.0
 11
0.5624999999999965
 21
24.29527522050405
 31
0.0
  0
LINE
  5
3B2
330
2
100
AcDbEntity
  8
0
100
AcDbLine
 10
-0.3125000000000036
 20
24.04527522050405
 30
0.0
 11
-0.5625000000000036
 21
24.29527522050405
 31
0.0
  0
LINE
  5
3B3
330
2
100
AcDbEntity
  8
0
100
AcDbLine
 10
-0.3125000000000036
 20
24.04527522050405
 30
0.0
 11
0.3124999999999965
 21
24.04527522050405
 31
0.0
  0
LINE
  5
3B4
330
2
100
AcDbEntity
  8
0
100
AcDbLine
 10
-0.7425000000000033
 20
24.23277522050405
 30
0.0
 11
-0.7845000000000049
 21
24.23277522050405
 31
0.0
  0
LINE
  5
3B5
330
2
100
AcDbEntity
  8
0
100
AcDbLine
 10
-0.7845000000000049
 20
24.23277522050405
 30
0.0
 11
-0.7845000000000049
 21
25.39837049875026
 31
0.0
  0
LINE
  5
3B6
330
2
100
AcDbEntity
  8
0
100
AcDbLine
 10
-0.7425000000000033
 20
25.43491687311788
 30
0.0
 11
-0.7425000000000033
 21
24.23277522050405
 31
0.0
  0
LINE
  5
3B7
330
2
100
AcDbEntity
  8
0
100
AcDbLine
 10
0.5624999999999965
 20
25.48277522050405
 30
0.0
 11
0.6979467358900529
 21
25.48277522050405
 31
0.0
  0
ARC
  5
3B8
330
2
100
AcDbEntity
  8
0
100
AcDbCircle
 10
0.6979467358900582
 20
25.35777522050405
 30
0.0
 40
0.125
100
AcDbArc
 50
48.97178182337718
 51
90.00000000000321
  0
LINE
  5
3B9
330
2
100
AcDbEntity
  8
0
100
AcDbLine
 10
0.7800005663834035
 20
25.45207351795087
 30
0.0
 11
2.179711896467698
 21
24.23411222566841
 31
0.0
  0
LINE
  5
3BA
330
2
100
AcDbEntity
  8
0
100
AcDbLine
 10
2.179711896467698
 20
24.23411222566841
 30
0.0
 11
3.509711896467696
 21
24.23411222566841
 31
0.0
  0
LINE
  5
3BB
330
2
100
AcDbEntity
  8
0
100
AcDbLine
 10
3.509711896467696
 20
24.23411222566841
 30
0.0
 11
3.759711896467696
 21
24.43411222566841
 31
0.0
  0
LINE
  5
3BC
330
2
100
AcDbEntity
  8
0
100
AcDbLine
 10
3.759711896467696
 20
24.43411222566841
 30
0.0
 11
3.759711896467696
 21
24.43411222566841
 31
0.0
  0
LINE
  5
3BD
330
2
100
AcDbEntity
  8
0
100
AcDbLine
 10
3.759711896467696
 20
24.43411222566841
 30
0.0
 11
3.759711896467696
 21
25.5241122256684
 31
0.0
  0
LINE
  5
3BE
330
2
100
AcDbEntity
  8
0
100
AcDbLine
 10
3.759711896467696
 20
25.5241122256684
 30
0.0
 11
0.3008083584619392
 21
25.52411222566841
 31
0.0
  0
LINE
  5
3BF
330
2
100
AcDbEntity
  8
0
100
AcDbLine
 10
-0.748437069658987
 20
25.52411222566841
 30
0.0
 11
-3.750000000000004
 21
25.52411222566841
 31
0.0
  0
LINE
  5
3C0
330
2
100
AcDbEntity
  8
0
100
AcDbLine
 10
-3.750000000000004
 20
25.52411222566841
 30
0.0
 11
-3.750000000000004
 21
24.43411222566841
 31
0.0
  0
LINE
  5
3C1
330
2
100
AcDbEntity
  8
0
100
AcDbLine
 10
-3.750000000000004
 20
24.43411222566841
 30
0.0
 11
-3.750000000000004
 21
24.43411222566841
 31
0.0
  0
LINE
  5
3C2
330
2
100
AcDbEntity
  8
0
100
AcDbLine
 10
-3.750000000000004
 20
24.43411222566841
 30
0.0
 11
-3.500000000000004
 21
24.23411222566841
 31
0.0
  0
LINE
  5
3C3
330
2
100
AcDbEntity
  8
0
100
AcDbLine
 10
-3.500000000000004
 20
24.23411222566841
 30
0.0
 11
-2.170000000000005
 21
24.23411222566841
 31
0.0
  0
LINE
  5
3C4
330
2
100
AcDbEntity
  8
0
100
AcDbLine
 10
-2.170000000000005
 20
24.23411222566841
 30
0.0
 11
-0.7845000000000049
 21
25.43970750391462
 31
0.0
  0
LINE
  5
3C5
330
2
100
AcDbEntity
  8
0
100
AcDbLine
 10
-0.7845000000000049
 20
25.39837049875026
 30
0.0
 11
-0.7845000000000049
 21
25.47691687311788
 31
0.0
  0
LINE
  5
3C6
330
2
100
AcDbEntity
  8
0
100
AcDbLine
 10
-0.5625000000000036
 20
25.48277522050405
 30
0.0
 11
-0.7036918270303225
 21
25.48277522050405
 31
0.0
  0
LINE
  5
3C7
330
2
100
AcDbEntity
  8
0
100
AcDbLine
 10
-0.6872828790188201
 20
25.48277522050405
 30
0.0
 11
-0.7036918270303225
 21
25.48277522050405
 31
0.0
  0
LINE
  5
3C8
330
2
100
AcDbEntity
  8
0
100
AcDbLine
 10
-0.5625000000000036
 20
25.48277522050405
 30
0.0
 11
-0.6875000000000036
 21
25.48277522050405
 31
0.0
  0
LINE
  5
3C9
330
2
100
AcDbEntity
  8
0
100
AcDbLine
 10
-0.3004063068895171
 20
25.52477522050405
 30
0.0
 11
-0.7456918270303241
 21
25.52477522050405
 31
0.0
  0
LINE
  5
3DB
330
2
100
AcDbEntity
  8
0
100
AcDbLine
 10
-9.416907625517524
 20
0.0
 30
0.0
 11
-9.416907625517524
 21
14.89803958792938
 31
0.0
  0
LINE
  5
3DC
330
2
100
AcDbEntity
  8
0
100
AcDbLine
 10
-9.368938625517522
 20
14.94303958792938
 30
0.0
 11
-9.368938625517526
 21
0.0
 31
0.0
  0
LINE
  5
3DD
330
2
100
AcDbEntity
  8
0
100
AcDbLine
 10
-9.368938625517526
 20
0.0
 30
0.0
 11
-9.416907625517524
 21
0.0
 31
0.0
  0
LINE
  5
3DE
330
2
100
AcDbEntity
  8
0
100
AcDbLine
 10
-8.165998540618894
 20
16.48501174946237
 30
0.0
 11
-8.165998540618894
 21
17.8125
 31
0.0
  0
LINE
  5
3DF
330
2
100
AcDbEntity
  8
0
100
AcDbLine
 10
-9.416907625517524
 20
14.9767139250775
 30
0.0
 11
-9.416907625517524
 21
18.0625
 31
0.0
  0
LINE
  5
3E0
330
2
100
AcDbEntity
  8
0
100
AcDbLine
 10
-9.462907625517524
 20
14.89703958792938
 30
0.0
 11
-9.462907625517524
 21
18.0625
 31
0.0
  0
LINE
  5
3E1
330
2
100
AcDbEntity
  8
0
100
AcDbLine
 10
-9.368938625517522
 20
18.0625
 30
0.0
 11
-9.368938625517522
 21
14.98903958792938
 31
0.0
  0
LINE
  5
3E2
330
2
100
AcDbEntity
  8
0
100
AcDbLine
 10
-9.462907625517524
 20
13.6875
 30
0.0
 11
-9.46290762551752
 21
14.89703958792938
 31
0.0
  0
LINE
  5
3E3
330
2
100
AcDbEntity
  8
0
100
AcDbLine
 10
-9.416907625517524
 20
13.6875
 30
0.0
 11
-9.416907625517524
 21
14.89703958792938
 31
0.0
  0
LINE
  5
3E4
330
2
100
AcDbEntity
  8
0
100
AcDbLine
 10
-9.462907625517524
 20
13.6875
 30
0.0
 11
-9.416907625517524
 21
13.6875
 31
0.0
  0
LINE
  5
3E5
330
2
100
AcDbEntity
  8
0
100
AcDbLine
 10
-9.462907625517524
 20
13.9375
 30
0.0
 11
-9.416907625517524
 21
13.9375
 31
0.0
  0
LINE
  5
3E6
330
2
100
AcDbEntity
  8
0
100
AcDbLine
 10
-9.370907625517518
 20
14.98903958792938
 30
0.0
 11
-8.166771440612312
 21
14.98903958792938
 31
0.0
  0
LINE
  5
3E7
330
2
100
AcDbEntity
  8
0
100
AcDbLine
 10
-9.370907625517525
 20
14.94303958792938
 30
0.0
 11
-8.166771440612312
 21
14.94303958792938
 31
0.0
  0
LINE
  5
3E8
330
2
100
AcDbEntity
  8
0
100
AcDbLine
 10
-9.178932624604116
 20
15.34121017530501
 30
0.0
 11
-8.165998540618894
 21
16.48501174946237
 31
0.0
  0
LINE
  5
3E9
330
2
100
AcDbEntity
  8
0
100
AcDbLine
 10
-8.166771440612312
 20
14.98903958792938
 30
0.0
 11
-8.166771440612312
 21
14.94303958792938
 31
0.0
  0
LINE
  5
3EA
330
2
100
AcDbEntity
  8
0
100
AcDbLine
 10
-8.416771440612312
 20
14.98903958792938
 30
0.0
 11
-8.416771440612312
 21
14.94303958792938
 31
0.0
  0
LINE
  5
3EB
330
2
100
AcDbEntity
  8
0
100
AcDbLine
 10
-9.302193617386468
 20
15.3425
 30
0.0
 11
-9.302193617386465
 21
15.6575
 31
0.0
  0
LINE
  5
3EC
330
2
100
AcDbEntity
  8
0
100
AcDbLine
 10
-9.349941435155213
 20
15.4685
 30
0.0
 11
-9.349941435155213
 21
15.3425
 31
0.0
  0
ARC
  5
3ED
330
2
100
AcDbEntity
  8
0
100
AcDbCircle
 10
-9.370907625517521
 20
14.89703958792938
 30
0.0
 40
0.092
100
AcDbArc
 50
89.99999999999999
 51
179.9999999999999
  0
LINE
  5
3EE
330
2
100
AcDbEntity
  8
0
100
AcDbLine
 10
-9.349941435155213
 20
15.3425
 30
0.0
 11
-9.302193617386468
 21
15.3425
 31
0.0
  0
ARC
  5
3EF
330
2
100
AcDbEntity
  8
0
100
AcDbCircle
 10
-9.370907625517528
 20
14.89703958792938
 30
0.0
 40
0.046
100
AcDbArc
 50
89.9999999999999
 51
180.0
  0
ARC
  5
3F0
330
2
100
AcDbEntity
  8
0
100
AcDbCircle
 10
-9.057750925330371
 20
15.17150328521335
 30
0.0
 40
0.2284642501997095
100
AcDbArc
 50
173.7665688097666
 51
233.0016811938802
  0
ARC
  5
3F1
330
2
100
AcDbEntity
  8
0
100
AcDbCircle
 10
-9.062290673179131
 20
15.1447653515323
 30
0.0
 40
0.2284642501997095
100
AcDbArc
 50
120.7003343885412
 51
222.9703523900114
  0
LINE
  5
3F2
330
2
100
AcDbEntity
  8
0
100
AcDbLine
 10
-9.349941435155213
 20
15.6575
 30
0.0
 11
-9.349941435155213
 21
15.5315
 31
0.0
  0
LINE
  5
3F3
330
2
100
AcDbEntity
  8
0
100
AcDbLine
 10
-9.349941435155213
 20
15.5315
 30
0.0
 11
-9.368938625517522
 21
15.5315
 31
0.0
  0
LINE
  5
3F4
330
2
100
AcDbEntity
  8
0
100
AcDbLine
 10
-9.368938625517522
 20
15.4685
 30
0.0
 11
-9.349941435155213
 21
15.4685
 31
0.0
  0
LINE
  5
3F5
330
2
100
AcDbEntity
  8
0
100
AcDbLine
 10
-9.302193617386465
 20
15.6575
 30
0.0
 11
-9.349941435155209
 21
15.6575
 31
0.0
  0
LINE
  5
3F6
330
2
100
AcDbEntity
  8
0
100
AcDbLine
 10
-9.481764465168364
 20
15.5315
 30
0.0
 11
-9.481764465168361
 21
15.5945
 31
0.0
  0
LINE
  5
3F7
330
2
100
AcDbEntity
  8
0
100
AcDbLine
 10
-9.46290762551752
 20
15.5315
 30
0.0
 11
-9.481764465168364
 21
15.5315
 31
0.0
  0
LINE
  5
3F8
330
2
100
AcDbEntity
  8
0
100
AcDbLine
 10
-9.481764465168364
 20
15.4685
 30
0.0
 11
-9.46290762551752
 21
15.4685
 31
0.0
  0
LINE
  5
3F9
330
2
100
AcDbEntity
  8
0
100
AcDbLine
 10
-9.481764465168361
 20
15.4055
 30
0.0
 11
-9.481764465168364
 21
15.4685
 31
0.0
  0
LINE
  5
3FA
330
2
100
AcDbEntity
  8
0
100
AcDbLine
 10
-9.544764465168363
 20
15.5945
 30
0.0
 11
-9.544764465168363
 21
15.4055
 31
0.0
  0
LINE
  5
3FB
330
2
100
AcDbEntity
  8
0
100
AcDbLine
 10
-9.481764465168364
 20
15.5945
 30
0.0
 11
-9.544764465168363
 21
15.5945
 31
0.0
  0
LINE
  5
3FC
330
2
100
AcDbEntity
  8
0
100
AcDbLine
 10
-9.544764465168363
 20
15.4055
 30
0.0
 11
-9.481764465168364
 21
15.4055
 31
0.0
  0
ARC
  5
3FD
330
2
100
AcDbEntity
  8
0
100
AcDbCircle
 10
-9.416907625517521
 20
18.937509
 30
0.0
 40
0.1875
100
AcDbArc
 50
180.0
 51
270.0
  0
LINE
  5
3FE
330
2
100
AcDbEntity
  8
0
100
AcDbLine
 10
-9.368938625517522
 20
19.81351802958439
 30
0.0
 11
-9.368938625517522
 21
18.0625
 31
0.0
  0
LINE
  5
3FF
330
2
100
AcDbEntity
  8
0
100
AcDbLine
 10
-9.416907625517524
 20
18.0625
 30
0.0
 11
-9.416907625517524
 21
19.81843358086444
 31
0.0
  0
LINE
  5
400
330
2
100
AcDbEntity
  8
0
100
AcDbLine
 10
-8.415998540618894
 20
18.0625
 30
0.0
 11
-9.416907625517524
 21
18.0625
 31
0.0
  0
LINE
  5
401
330
2
100
AcDbEntity
  8
0
100
AcDbLine
 10
-8.415998540618894
 20
18.0625
 30
0.0
 11
-8.165998540618894
 21
17.8125
 31
0.0
  0
CIRCLE
  5
402
330
2
100
AcDbEntity
  8
0
100
AcDbCircle
 10
-8.415998540618894
 20
17.62805039094164
 30
0.0
 40
0.0855
  0
LINE
  5
403
330
2
100
AcDbEntity
  8
0
100
AcDbLine
 10
-9.349941435155213
 20
17.9075
 30
0.0
 11
-9.349941435155213
 21
17.7815
 31
0.0
  0
LINE
  5
404
330
2
100
AcDbEntity
  8
0
100
AcDbLine
 10
-9.302193617386468
 20
17.5925
 30
0.0
 11
-9.302193617386465
 21
17.9075
 31
0.0
  0
LINE
  5
405
330
2
100
AcDbEntity
  8
0
100
AcDbLine
 10
-9.368938625517522
 20
17.7185
 30
0.0
 11
-9.349941435155213
 21
17.7185
 31
0.0
  0
LINE
  5
406
330
2
100
AcDbEntity
  8
0
100
AcDbLine
 10
-9.349941435155213
 20
17.7815
 30
0.0
 11
-9.368938625517522
 21
17.7815
 31
0.0
  0
LINE
  5
407
330
2
100
AcDbEntity
  8
0
100
AcDbLine
 10
-9.349941435155213
 20
17.5925
 30
0.0
 11
-9.302193617386468
 21
17.5925
 31
0.0
  0
LINE
  5
408
330
2
100
AcDbEntity
  8
0
100
AcDbLine
 10
-9.349941435155213
 20
17.7185
 30
0.0
 11
-9.349941435155213
 21
17.5925
 31
0.0
  0
LINE
  5
409
330
2
100
AcDbEntity
  8
0
100
AcDbLine
 10
-9.481764465168361
 20
17.6555
 30
0.0
 11
-9.481764465168364
 21
17.7185
 31
0.0
  0
LINE
  5
40A
330
2
100
AcDbEntity
  8
0
100
AcDbLine
 10
-9.481764465168364
 20
17.7185
 30
0.0
 11
-9.46290762551752
 21
17.7185
 31
0.0
  0
LINE
  5
40B
330
2
100
AcDbEntity
  8
0
100
AcDbLine
 10
-9.46290762551752
 20
17.7815
 30
0.0
 11
-9.481764465168364
 21
17.7815
 31
0.0
  0
LINE
  5
40C
330
2
100
AcDbEntity
  8
0
100
AcDbLine
 10
-9.481764465168364
 20
17.7815
 30
0.0
 11
-9.481764465168361
 21
17.8445
 31
0.0
  0
LINE
  5
40D
330
2
100
AcDbEntity
  8
0
100
AcDbLine
 10
-9.544764465168363
 20
17.8445
 30
0.0
 11
-9.544764465168363
 21
17.6555
 31
0.0
  0
LINE
  5
40E
330
2
100
AcDbEntity
  8
0
100
AcDbLine
 10
-9.544764465168363
 20
17.6555
 30
0.0
 11
-9.481764465168364
 21
17.6555
 31
0.0
  0
LINE
  5
40F
330
2
100
AcDbEntity
  8
0
100
AcDbLine
 10
-9.481764465168364
 20
17.8445
 30
0.0
 11
-9.544764465168363
 21
17.8445
 31
0.0
  0
LINE
  5
410
330
2
100
AcDbEntity
  8
0
100
AcDbLine
 10
-9.416907625517524
 20
18.0625
 30
0.0
 11
-9.462907625517524
 21
18.0625
 31
0.0
  0
LINE
  5
411
330
2
100
AcDbEntity
  8
0
100
AcDbLine
 10
-9.302193617386465
 20
17.9075
 30
0.0
 11
-9.349941435155209
 21
17.9075
 31
0.0
  0
LINE
  5
412
330
2
100
AcDbEntity
  8
0
100
AcDbLine
 10
-9.157922687752663
 20
20.0515129484374
 30
0.0
 11
-8.741316946251565
 21
20.00752517947447
 31
0.0
  0
LINE
  5
413
330
2
100
AcDbEntity
  8
0
100
AcDbLine
 10
-9.161926457265079
 20
20.0
 30
0.0
 11
-8.746371407291122
 21
19.95651922791692
 31
0.0
  0
ARC
  5
414
330
2
100
AcDbEntity
  8
0
100
AcDbCircle
 10
-9.120032625517521
 20
19.7687848933779
 30
0.0
 40
0.484375
100
AcDbArc
 50
89.99999999999999
 51
180.0
  0
ARC
  5
415
330
2
100
AcDbEntity
  8
0
100
AcDbCircle
 10
-8.681407625517522
 20
20.06565989337789
 30
0.0
 40
0.1875
100
AcDbArc
 50
0.000000000000007
 51
89.99999999999999
  0
LINE
  5
416
330
2
100
AcDbEntity
  8
0
100
AcDbLine
 10
-8.541707901437192
 20
19.97767029918757
 30
0.0
 11
-7.993938625517522
 21
20.1532649248831
 31
0.0
  0
LINE
  5
417
330
2
100
AcDbEntity
  8
0
100
AcDbLine
 10
-8.534925561614969
 20
20.02903244760971
 30
0.0
 11
-8.008865161579706
 21
20.19920407918874
 31
0.0
  0
LINE
  5
418
330
2
100
AcDbEntity
  8
0
100
AcDbLine
 10
-8.00889015940902
 20
20.19928101459648
 30
0.0
 11
-7.993938625517522
 21
20.1532649248831
 31
0.0
  0
LINE
  5
419
330
2
100
AcDbEntity
  8
0
100
AcDbLine
 10
-8.24177515940902
 20
20.12394666056104
 30
0.0
 11
-8.226823625517525
 21
20.07793057084766
 31
0.0
  0
LINE
  5
41A
330
2
100
AcDbEntity
  8
0
100
AcDbLine
 10
-8.493907625517522
 20
20.0656598933779
 30
0.0
 11
-8.493907625517522
 21
20.0423010553765
 31
0.0
  0
LINE
  5
41B
330
2
100
AcDbEntity
  8
0
100
AcDbLine
 10
-9.120032625517524
 20
20.2531598933779
 30
0.0
 11
-8.681407625517522
 21
20.2531598933779
 31
0.0
  0
ARC
  5
41C
330
2
100
AcDbEntity
  8
0
100
AcDbCircle
 10
-8.688815745686529
 20
20.5047611636301
 30
0.0
 40
0.5
100
AcDbArc
 50
263.972695100523
 51
287.9255159690136
  0
ARC
  5
41D
330
2
100
AcDbEntity
  8
0
100
AcDbCircle
 10
-8.694338958617937
 20
20.45380448235854
 30
0.0
 40
0.5
100
AcDbArc
 50
264.0267060195676
 51
287.7739340243907
  0
ARC
  5
41E
330
2
100
AcDbEntity
  8
0
100
AcDbCircle
 10
-9.181438625517522
 20
19.81351802958439
 30
0.0
 40
0.1875
100
AcDbArc
 50
84.02670601956746
 51
180.0
  0
ARC
  5
41F
330
2
100
AcDbEntity
  8
0
100
AcDbCircle
 10
-9.182532625517524
 20
19.81843358086444
 30
0.0
 40
0.234375
100
AcDbArc
 50
83.972695100523
 51
180.0
  0
LINE
  5
420
330
2
100
AcDbEntity
  8
0
100
AcDbLine
 10
-9.604407625517524
 20
18.937509
 30
0.0
 11
-9.604407625517524
 21
19.7687848933779
 31
0.0
  0
ENDSEC
  0
SECTION
  2
OBJECTS
  0
DICTIONARY
  5
9
330
0
100
AcDbDictionary
281
     1
  3
ACAD_COLOR
350
425
  3
ACAD_GROUP
350
23
  3
ACAD_LAYOUT
350
D
  3
ACAD_MATERIAL
350
424
  3
ACAD_MLINESTYLE
350
24
  3
ACAD_PLOTSETTINGS
350
25
  3
ACAD_PLOTSTYLENAME
350
8
  3
ACAD_TABLESTYLE
350
426
  3
ACDBHEADERROUNDTRIPXREC
350
43C
  3
AcDbVariableDictionary
350
118
  0
DICTIONARY
  5
425
102
{ACAD_REACTORS
330
9
102
}
330
9
100
AcDbDictionary
281
     1
  0
DICTIONARY
  5
23
102
{ACAD_REACTORS
330
9
102
}
330
9
100
AcDbDictionary
281
     1
  0
DICTIONARY
  5
D
102
{ACAD_REACTORS
330
9
102
}
330
9
100
AcDbDictionary
281
     1
  3
Layout1
350
13
  3
Model
350
C
  0
DICTIONARY
  5
424
102
{ACAD_REACTORS
330
9
102
}
330
9
100
AcDbDictionary
281
     1
  0
DICTIONARY
  5
24
102
{ACAD_REACTORS
330
9
102
}
330
9
100
AcDbDictionary
281
     1
  3
STANDARD
350
27
  0
DICTIONARY
  5
25
102
{ACAD_REACTORS
330
9
102
}
330
9
100
AcDbDictionary
281
     1
  0
ACDBDICTIONARYWDFLT
  5
8
102
{ACAD_REACTORS
330
9
102
}
330
9
100
AcDbDictionary
281
     1
  3
Normal
350
7
100
AcDbDictionaryWithDefault
340
7
  0
DICTIONARY
  5
426
102
{ACAD_REACTORS
330
9
102
}
330
9
100
AcDbDictionary
281
     1
  3
Standard
350
427
  0
DICTIONARY
  5
43C
102
{ACAD_REACTORS
330
9
102
}
330
9
100
AcDbDictionary
281
     1
  3
COLORDICT
350
43D
  3
MATERIALDICT
350
43E
  0
DICTIONARY
  5
118
102
{ACAD_REACTORS
330
9
102
}
330
9
100
AcDbDictionary
281
     1
  3
CTABLESTYLE
350
439
  3
HIDETEXT
350
43B
  0
LAYOUT
  5
13
102
{ACAD_REACTORS
330
D
102
}
102
{ACAD_XDICTIONARY
360
43F
102
}
330
D
100
AcDbPlotSettings
  1

  2
HP LaserJet 2100 Series PS
  4

  6

 40
0.0
 41
0.0
 42
0.0
 43
0.0
 44
0.0
 45
0.0
 46
0.0
 47
0.0
 48
0.0
 49
0.0
140
0.0
141
0.0
142
1.0
143
1.0
 70
   688
 72
     0
 73
     0
 74
     5
  7

 75
    16
147
1.0
148
0.0
149
0.0
100
AcDbLayout
  1
Layout1
 70
     0
 71
     1
 10
0.0
 20
0.0
 11
12.0
 21
9.0
 12
0.0
 22
0.0
 32
0.0
 14
1.000000000000000E+20
 24
1.000000000000000E+20
 34
1.000000000000000E+20
 15
-1.000000000000000E+20
 25
-1.000000000000000E+20
 35
-1.000000000000000E+20
146
0.0
 13
0.0
 23
0.0
 33
0.0
 16
1.0
 26
0.0
 36
0.0
 17
0.0
 27
1.0
 37
0.0
 76
     0
330
E
  0
LAYOUT
  5
C
102
{ACAD_REACTORS
330
D
102
}
102
{ACAD_XDICTIONARY
360
441
102
}
330
D
100
AcDbPlotSettings
  1

  2
HP LaserJet 2100 Series PS
  4
Letter
  6

 40
5.365749835968018
 41
5.386905193328857
 42
5.386917114257813
 43
5.365753173828125
 44
215.8999938964844
 45
279.3999938964844
 46
0.0
 47
0.0
 48
0.0
 49
0.0
140
0.0
141
0.0
142
1.0
143
1.0
 70
 11952
 72
     0
 73
     1
 74
     0
  7

 75
     0
147
1.0
148
-270.9859750194433
149
21.12465764932233
100
AcDbLayout
  1
Model
 70
     1
 71
     0
 10
0.0
 20
0.0
 11
12.0
 21
9.0
 12
0.0
 22
0.0
 32
0.0
 14
0.0
 24
0.0
 34
0.0
 15
0.0
 25
0.0
 35
0.0
146
0.0
 13
0.0
 23
0.0
 33
0.0
 16
1.0
 26
0.0
 36
0.0
 17
0.0
 27
1.0
 37
0.0
 76
     0
330
2
  0
MLINESTYLE
  5
27
102
{ACAD_REACTORS
330
24
102
}
330
24
100
AcDbMlineStyle
  2
STANDARD
 70
     0
  3

 62
   256
 51
90.0
 52
90.0
 71
     2
 49
0.5
 62
   256
  6
BYLAYER
 49
-0.5
 62
   256
  6
BYLAYER
  0
ACDBPLACEHOLDER
  5
7
102
{ACAD_REACTORS
330
8
102
}
330
8
  0
ACAD_PROXY_OBJECT
  5
427
102
{ACAD_REACTORS
330
426
102
}
330
426
100
AcDbProxyObject
 90
      499
 91
      517
 95
   983063
 70
     0
 93
     1841
310
4214DD185B99185C9928B81E85EB51B8AE3F2E07A17AD46E2B8FC02B5E8DC0F42B1CFD028000000C1008070000C3001FDFF8000000C1003FBFF000000182007F7FE00000030400FEFFC00000060801FDFF8000000C1003FBFF00000018200000000000000681FA0B0000001820100E000186003FBFF000000182007F7FE000
310
00030400FEFFC00000060801FDFF8000000C1003FBFF000000182007F7FE000000304000AD7A3703D0AC73F4160000003040201C00030C007F7FE00000030400FEFFC00000060801FDFF8000000C1003FBFF000000182007F7FE00000030400FEFFC000000608000
340
16
340
16
340
16
 94
        0
  0
XRECORD
  5
43D
102
{ACAD_REACTORS
330
43C
102
}
330
43C
100
AcDbXrecord
340
425
  0
XRECORD
  5
43E
102
{ACAD_REACTORS
330
43C
102
}
330
43C
100
AcDbXrecord
340
424
  0
DICTIONARYVAR
  5
439
102
{ACAD_REACTORS
330
118
102
}
330
118
100
DictionaryVariables
280
     0
  1
STANDARD
  0
DICTIONARYVAR
  5
43B
102
{ACAD_REACTORS
330
118
102
}
330
118
100
DictionaryVariables
280
     0
  1
0
  0
DICTIONARY
  5
43F
330
13
100
AcDbDictionary
280
     1
281
     1
  3
ACAD_XREC_ROUNDTRIP
360
440
  0
DICTIONARY
  5
441
330
C
100
AcDbDictionary
280
     1
281
     1
  3
ACAD_XREC_ROUNDTRIP
360
442
  0
XRECORD
  5
440
102
{ACAD_REACTORS
330
43F
102
}
330
43F
100
AcDbXrecord
102
SHADEPLOT
 70
     0
102
SHADEPLOTRESLEVEL
 70
     2
102
SHADEPLOTCUSTOMDPI
 70
   300
  0
XRECORD
  5
442
102
{ACAD_REACTORS
330
441
102
}
330
441
100
AcDbXrecord
102
SHADEPLOT
 70
     0
102
SHADEPLOTRESLEVEL
 70
     2
102
SHADEPLOTCUSTOMDPI
 70
   300
  0
ENDSEC
  0
EOF
