  0
SECTION
  2
HEADER
  9
$ACADVER
  1
AC1015
  9
$ACADMAINTVER
 70
     6
  9
$DWGCODEPAGE
  3
ANSI_1252
  9
$INSBASE
 10
0.0
 20
0.0
 30
0.0
  9
$EXTMIN
 10
-36.99850422214354
 20
-0.0756856798244741
 30
-0.0000000349181948
  9
$EXTMAX
 10
38.77848027238676
 20
12.13266770804873
 30
0.0000000814935746
  9
$LIMMIN
 10
0.0
 20
0.0
  9
$LIMMAX
 10
52.5
 20
40.0
  9
$ORTHOMODE
 70
     1
  9
$REGENMODE
 70
     1
  9
$FILLMODE
 70
     1
  9
$QTEXTMODE
 70
     0
  9
$MIRRTEXT
 70
     0
  9
$LTSCALE
 40
2.0
  9
$ATTMODE
 70
     1
  9
$TEXTSIZE
 40
0.45
  9
$TRACEWID
 40
0.05
  9
$TEXTSTYLE
  7
STANDARD
  9
$CLAYER
  8
0
  9
$CELTYPE
  6
ByLayer
  9
$CECOLOR
 62
   256
  9
$CELTSCALE
 40
1.0
  9
$DISPSILH
 70
     0
  9
$DIMSCALE
 40
1.0
  9
$DIMASZ
 40
0.625
  9
$DIMEXO
 40
0.0625
  9
$DIMDLI
 40
0.375
  9
$DIMRND
 40
0.0
  9
$DIMDLE
 40
0.0
  9
$DIMEXE
 40
0.4
  9
$DIMTP
 40
0.0
  9
$DIMTM
 40
0.0
  9
$DIMTXT
 40
0.45
  9
$DIMCEN
 40
-0.06
  9
$DIMTSZ
 40
0.0
  9
$DIMTOL
 70
     0
  9
$DIMLIM
 70
     0
  9
$DIMTIH
 70
     1
  9
$DIMTOH
 70
     1
  9
$DIMSE1
 70
     0
  9
$DIMSE2
 70
     0
  9
$DIMTAD
 70
     0
  9
$DIMZIN
 70
     0
  9
$DIMBLK
  1

  9
$DIMASO
 70
     0
  9
$DIMSHO
 70
     0
  9
$DIMPOST
  1

  9
$DIMAPOST
  1

  9
$DIMALT
 70
     0
  9
$DIMALTD
 70
     2
  9
$DIMALTF
 40
25.4
  9
$DIMLFAC
 40
1.0
  9
$DIMTOFL
 70
     0
  9
$DIMTVP
 40
0.0
  9
$DIMTIX
 70
     0
  9
$DIMSOXD
 70
     0
  9
$DIMSAH
 70
     0
  9
$DIMBLK1
  1

  9
$DIMBLK2
  1

  9
$DIMSTYLE
  2
Standard
  9
$DIMCLRD
 70
     0
  9
$DIMCLRE
 70
     0
  9
$DIMCLRT
 70
     0
  9
$DIMTFAC
 40
1.0
  9
$DIMGAP
 40
0.09
  9
$DIMJUST
 70
     0
  9
$DIMSD1
 70
     0
  9
$DIMSD2
 70
     0
  9
$DIMTOLJ
 70
     1
  9
$DIMTZIN
 70
     0
  9
$DIMALTZ
 70
     0
  9
$DIMALTTZ
 70
     0
  9
$DIMUPT
 70
     0
  9
$DIMDEC
 70
     4
  9
$DIMTDEC
 70
     4
  9
$DIMALTU
 70
     5
  9
$DIMALTTD
 70
     2
  9
$DIMTXSTY
  7
STANDARD
  9
$DIMAUNIT
 70
     0
  9
$DIMADEC
 70
     0
  9
$DIMALTRND
 40
0.0
  9
$DIMAZIN
 70
     0
  9
$DIMDSEP
 70
    46
  9
$DIMATFIT
 70
     3
  9
$DIMFRAC
 70
     0
  9
$DIMLDRBLK
  1

  9
$DIMLUNIT
 70
     5
  9
$DIMLWD
 70
    -2
  9
$DIMLWE
 70
    -2
  9
$DIMTMOVE
 70
     2
  9
$LUNITS
 70
     5
  9
$LUPREC
 70
     4
  9
$SKETCHINC
 40
0.1
  9
$FILLETRAD
 40
0.1875
  9
$AUNITS
 70
     0
  9
$AUPREC
 70
     0
  9
$MENU
  1
ACAD
  9
$ELEVATION
 40
0.0
  9
$PELEVATION
 40
0.0
  9
$THICKNESS
 40
0.0
  9
$LIMCHECK
 70
     0
  9
$CHAMFERA
 40
0.0
  9
$CHAMFERB
 40
0.0
  9
$CHAMFERC
 40
0.0
  9
$CHAMFERD
 40
0.0
  9
$SKPOLY
 70
     0
  9
$TDCREATE
 40
2449274.871140509
  9
$TDUCREATE
 40
2449275.204473842
  9
$TDUPDATE
 40
2454160.690649109
  9
$TDUUPDATE
 40
2454161.023982442
  9
$TDINDWG
 40
0.0637156713
  9
$TDUSRTIMER
 40
0.0637156713
  9
$USRTIMER
 70
     1
  9
$ANGBASE
 50
0.0
  9
$ANGDIR
 70
     0
  9
$PDMODE
 70
     0
  9
$PDSIZE
 40
0.0
  9
$PLINEWID
 40
0.0
  9
$SPLFRAME
 70
     0
  9
$SPLINETYPE
 70
     6
  9
$SPLINESEGS
 70
     8
  9
$HANDSEED
  5
15E
  9
$SURFTAB1
 70
     6
  9
$SURFTAB2
 70
     6
  9
$SURFTYPE
 70
     6
  9
$SURFU
 70
     6
  9
$SURFV
 70
     6
  9
$UCSBASE
  2

  9
$UCSNAME
  2

  9
$UCSORG
 10
0.0
 20
0.0
 30
0.0
  9
$UCSXDIR
 10
1.0
 20
0.0
 30
0.0
  9
$UCSYDIR
 10
0.0
 20
1.0
 30
0.0
  9
$UCSORTHOREF
  2

  9
$UCSORTHOVIEW
 70
     0
  9
$UCSORGTOP
 10
0.0
 20
0.0
 30
0.0
  9
$UCSORGBOTTOM
 10
0.0
 20
0.0
 30
0.0
  9
$UCSORGLEFT
 10
0.0
 20
0.0
 30
0.0
  9
$UCSORGRIGHT
 10
0.0
 20
0.0
 30
0.0
  9
$UCSORGFRONT
 10
0.0
 20
0.0
 30
0.0
  9
$UCSORGBACK
 10
0.0
 20
0.0
 30
0.0
  9
$PUCSBASE
  2

  9
$PUCSNAME
  2

  9
$PUCSORG
 10
0.0
 20
0.0
 30
0.0
  9
$PUCSXDIR
 10
1.0
 20
0.0
 30
0.0
  9
$PUCSYDIR
 10
0.0
 20
1.0
 30
0.0
  9
$PUCSORTHOREF
  2

  9
$PUCSORTHOVIEW
 70
     0
  9
$PUCSORGTOP
 10
0.0
 20
0.0
 30
0.0
  9
$PUCSORGBOTTOM
 10
0.0
 20
0.0
 30
0.0
  9
$PUCSORGLEFT
 10
0.0
 20
0.0
 30
0.0
  9
$PUCSORGRIGHT
 10
0.0
 20
0.0
 30
0.0
  9
$PUCSORGFRONT
 10
0.0
 20
0.0
 30
0.0
  9
$PUCSORGBACK
 10
0.0
 20
0.0
 30
0.0
  9
$USERI1
 70
     0
  9
$USERI2
 70
     0
  9
$USERI3
 70
     0
  9
$USERI4
 70
     0
  9
$USERI5
 70
     0
  9
$USERR1
 40
0.0
  9
$USERR2
 40
0.0
  9
$USERR3
 40
0.0
  9
$USERR4
 40
0.0
  9
$USERR5
 40
0.0
  9
$WORLDVIEW
 70
     1
  9
$SHADEDGE
 70
     3
  9
$SHADEDIF
 70
    70
  9
$TILEMODE
 70
     1
  9
$MAXACTVP
 70
    16
  9
$PINSBASE
 10
0.0
 20
0.0
 30
0.0
  9
$PLIMCHECK
 70
     0
  9
$PEXTMIN
 10
1.000000000000000E+20
 20
1.000000000000000E+20
 30
1.000000000000000E+20
  9
$PEXTMAX
 10
-1.000000000000000E+20
 20
-1.000000000000000E+20
 30
-1.000000000000000E+20
  9
$PLIMMIN
 10
0.0
 20
0.0
  9
$PLIMMAX
 10
12.0
 20
9.0
  9
$UNITMODE
 70
     0
  9
$VISRETAIN
 70
     0
  9
$PLINEGEN
 70
     1
  9
$PSLTSCALE
 70
     0
  9
$TREEDEPTH
 70
  3020
  9
$CMLSTYLE
  2
Standard
  9
$CMLJUST
 70
     0
  9
$CMLSCALE
 40
1.0
  9
$PROXYGRAPHICS
 70
     1
  9
$MEASUREMENT
 70
     0
  9
$CELWEIGHT
370
    -1
  9
$ENDCAPS
280
     0
  9
$JOINSTYLE
280
     0
  9
$LWDISPLAY
290
     0
  9
$INSUNITS
 70
     0
  9
$HYPERLINKBASE
  1

  9
$STYLESHEET
  1

  9
$XEDIT
290
     1
  9
$CEPSNTYPE
380
     0
  9
$PSTYLEMODE
290
     1
  9
$FINGERPRINTGUID
  2
{590B1B38-3506-485B-A6C5-79E4989F31EA}
  9
$VERSIONGUID
  2
{AE5CBACC-CEA3-4412-B955-CCCFEABEF0A2}
  9
$EXTNAMES
290
     1
  9
$PSVPSCALE
 40
0.0
  9
$OLESTARTUP
290
     0
  0
ENDSEC
  0
SECTION
  2
CLASSES
  0
CLASS
  1
ACDBDICTIONARYWDFLT
  2
AcDbDictionaryWithDefault
  3
AutoCAD 2000
 90
        0
280
     0
281
     0
  0
CLASS
  1
ACDBPLACEHOLDER
  2
AcDbPlaceHolder
  3
ObjectDBX Classes
 90
        0
280
     0
281
     0
  0
CLASS
  1
LAYOUT
  2
AcDbLayout
  3
ObjectDBX Classes
 90
        0
280
     0
281
     0
  0
CLASS
  1
DICTIONARYVAR
  2
AcDbDictionaryVar
  3
AutoCAD 2000
 90
        0
280
     0
281
     0
  0
CLASS
  1
TABLESTYLE
  2
AcDbTableStyle
  3
ObjectDBX Classes
 90
     2047
280
     1
281
     0
  0
CLASS
  1
SORTENTSTABLE
  2
AcDbSortentsTable
  3
AutoCAD 2000
 90
        0
280
     0
281
     0
  0
ENDSEC
  0
SECTION
  2
TABLES
  0
TABLE
  2
VPORT
  5
19
330
0
100
AcDbSymbolTable
 70
     2
  0
VPORT
  5
151
330
19
100
AcDbSymbolTableRecord
100
AcDbViewportTableRecord
  2
*Active
 70
     0
 10
0.0
 20
0.0
 11
1.0
 21
1.0
 12
7.750747888928231
 22
19.96215716008776
 13
0.0
 23
0.0
 14
0.0625
 24
0.0625
 15
1.0
 25
1.0
 16
0.0
 26
0.0
 36
1.0
 17
0.0
 27
0.0
 37
0.0
 40
58.02305861208028
 41
1.55012853470437
 42
50.0
 43
0.0
 44
0.0
 50
0.0
 51
0.0
 71
     0
 72
   100
 73
     1
 74
     0
 75
     0
 76
     0
 77
     0
 78
     0
281
     0
 65
     1
110
0.0
120
0.0
130
0.0
111
1.0
121
0.0
131
0.0
112
0.0
122
1.0
132
0.0
 79
     0
146
0.0
  0
ENDTAB
  0
TABLE
  2
LTYPE
  5
14
330
0
100
AcDbSymbolTable
 70
     1
  0
LTYPE
  5
15
330
14
100
AcDbSymbolTableRecord
100
AcDbLinetypeTableRecord
  2
ByBlock
 70
     0
  3

 72
    65
 73
     0
 40
0.0
  0
LTYPE
  5
16
330
14
100
AcDbSymbolTableRecord
100
AcDbLinetypeTableRecord
  2
ByLayer
 70
     0
  3

 72
    65
 73
     0
 40
0.0
  0
LTYPE
  5
8
330
14
100
AcDbSymbolTableRecord
100
AcDbLinetypeTableRecord
  2
CONTINUOUS
 70
     0
  3
Solid line
 72
    65
 73
     0
 40
0.0
  0
ENDTAB
  0
TABLE
  2
LAYER
  5
10
330
0
100
AcDbSymbolTable
 70
     2
  0
LAYER
  5
4
330
10
100
AcDbSymbolTableRecord
100
AcDbLayerTableRecord
  2
0
 70
     0
 62
     7
  6
CONTINUOUS
370
    -3
390
5
  0
ENDTAB
  0
TABLE
  2
STYLE
  5
11
330
0
100
AcDbSymbolTable
 70
     1
  0
STYLE
  5
12
330
11
100
AcDbSymbolTableRecord
100
AcDbTextStyleTableRecord
  2
STANDARD
 70
     0
 40
0.0
 41
1.0
 50
0.0
 71
     0
 42
0.45
  3
TXT
  4

  0
ENDTAB
  0
TABLE
  2
VIEW
  5
17
330
0
100
AcDbSymbolTable
 70
     1
  0
ENDTAB
  0
TABLE
  2
UCS
  5
18
330
0
100
AcDbSymbolTable
 70
     0
  0
ENDTAB
  0
TABLE
  2
APPID
  5
1B
330
0
100
AcDbSymbolTable
 70
     1
  0
APPID
  5
1C
330
1B
100
AcDbSymbolTableRecord
100
AcDbRegAppTableRecord
  2
ACAD
 70
     0
  0
ENDTAB
  0
TABLE
  2
DIMSTYLE
  5
1D
330
0
100
AcDbSymbolTable
 70
     1
100
AcDbDimStyleTable
  0
DIMSTYLE
105
24
330
1D
100
AcDbSymbolTableRecord
100
AcDbDimStyleTableRecord
  2
Standard
 70
     0
  3

  4

340
12
  0
ENDTAB
  0
TABLE
  2
BLOCK_RECORD
  5
1
330
0
100
AcDbSymbolTable
 70
     0
  0
BLOCK_RECORD
  5
2
102
{ACAD_XDICTIONARY
360
C9
102
}
330
1
100
AcDbSymbolTableRecord
100
AcDbBlockTableRecord
  2
*Model_Space
340
A
  0
BLOCK_RECORD
  5
C
330
1
100
AcDbSymbolTableRecord
100
AcDbBlockTableRecord
  2
*Paper_Space
340
F
  0
ENDTAB
  0
ENDSEC
  0
SECTION
  2
BLOCKS
  0
BLOCK
  5
3
330
2
100
AcDbEntity
  8
0
100
AcDbBlockBegin
  2
*Model_Space
 70
     0
 10
0.0
 20
0.0
 30
0.0
  3
*Model_Space
  1

  4

  0
ENDBLK
  5
9
330
2
100
AcDbEntity
  8
0
100
AcDbBlockEnd
  0
BLOCK
  5
D
330
C
100
AcDbEntity
 67
     1
  8
0
100
AcDbBlockBegin
  2
*Paper_Space
 70
     0
 10
0.0
 20
0.0
 30
0.0
  3
*Paper_Space
  1

  4

  0
ENDBLK
  5
E
330
C
100
AcDbEntity
 67
     1
  8
0
100
AcDbBlockEnd
  0
ENDSEC
  0
SECTION
  2
ENTITIES
  0
LINE
  5
CE
330
2
100
AcDbEntity
  8
0
100
AcDbLine
 10
-16.64141382964408
 20
11.804063
 30
0.0
 11
-16.64141382964408
 21
0.0146389999999954
 31
0.0
  0
LINE
  5
CF
330
2
100
AcDbEntity
  8
0
100
AcDbLine
 10
-22.64141382964408
 20
11.616563
 30
0.0
 11
-22.64141382964408
 21
0.0146389999999954
 31
0.0
  0
LINE
  5
D0
330
2
100
AcDbEntity
  8
0
100
AcDbLine
 10
-22.89056753937772
 20
0.1314389999999968
 30
0.0
 11
-22.89056753937772
 21
4.131438999999997
 31
0.0
  0
LINE
  5
D1
330
2
100
AcDbEntity
  8
0
100
AcDbLine
 10
-36.99258282964408
 20
11.804063
 30
0.0
 11
-36.99258282964408
 21
0.0146389999999954
 31
0.0
  0
LINE
  5
D2
330
2
100
AcDbEntity
  8
0
100
AcDbLine
 10
-30.99258282964408
 20
11.616563
 30
0.0
 11
-30.99258282964408
 21
0.0146389999999954
 31
0.0
  0
LINE
  5
D3
330
2
100
AcDbEntity
  8
0
100
AcDbLine
 10
-30.77222564956981
 20
0.1314389999999968
 30
0.0
 11
-30.77222564956981
 21
4.131438999999997
 31
0.0
  0
LINE
  5
D4
330
2
100
AcDbEntity
  8
0
100
AcDbLine
 10
-16.64141382964408
 20
0.1939389999999968
 30
0.0
 11
-22.64141382964408
 21
0.1939389999999968
 31
0.0
  0
LINE
  5
D5
330
2
100
AcDbEntity
  8
0
100
AcDbLine
 10
-16.64141382964408
 20
0.0146389999999954
 30
0.0
 11
-22.64141382964408
 21
0.0146389999999954
 31
0.0
  0
LINE
  5
D6
330
2
100
AcDbEntity
  8
0
100
AcDbLine
 10
-30.99258282964408
 20
0.1314389999999968
 30
0.0
 11
-30.77222564956981
 21
0.1314389999999968
 31
0.0
  0
LINE
  5
D7
330
2
100
AcDbEntity
  8
0
100
AcDbLine
 10
-30.99258282964408
 20
0.1314389999999968
 30
0.0
 11
-30.77222564956981
 21
0.1314389999999968
 31
0.0
  0
LINE
  5
D8
330
2
100
AcDbEntity
  8
0
100
AcDbLine
 10
-36.99258282964408
 20
0.0146389999999954
 30
0.0
 11
-30.99258282964408
 21
0.0146389999999954
 31
0.0
  0
LINE
  5
D9
330
2
100
AcDbEntity
  8
0
100
AcDbLine
 10
-36.99258282964408
 20
0.1939389999999968
 30
0.0
 11
-30.99258282964408
 21
0.1939389999999968
 31
0.0
  0
LINE
  5
DA
330
2
100
AcDbEntity
  8
0
100
AcDbLine
 10
-22.64141382964408
 20
0.1314389999999968
 30
0.0
 11
-22.89056753937772
 21
0.1314389999999968
 31
0.0
  0
LINE
  5
DB
330
2
100
AcDbEntity
  8
0
100
AcDbLine
 10
-22.67931482964407
 20
11.804063
 30
0.0
 11
-16.64141382964408
 21
11.804063
 31
0.0
  0
LINE
  5
DC
330
2
100
AcDbEntity
  8
0
100
AcDbLine
 10
-16.64141382964408
 20
10.36132
 30
0.0
 11
-22.64141382964408
 21
10.36132
 31
0.0
  0
CIRCLE
  5
DD
330
2
100
AcDbEntity
  8
0
100
AcDbCircle
 10
-19.67604655559119
 20
3.657128689921489
 30
0.0
 40
0.1405
  0
CIRCLE
  5
DE
330
2
100
AcDbEntity
  8
0
100
AcDbCircle
 10
-19.63269229026286
 20
6.733631252453311
 30
0.0
 40
0.1405
  0
ARC
  5
DF
330
2
100
AcDbEntity
  8
0
100
AcDbCircle
 10
-30.56598282964409
 20
11.616563
 30
0.0
 40
0.4266
100
AcDbArc
 50
90.0
 51
180.0
  0
LINE
  5
E0
330
2
100
AcDbEntity
  8
0
100
AcDbLine
 10
-30.75348282964409
 20
5.366080999999998
 30
0.0
 11
-30.99258282964408
 21
5.366080999999998
 31
0.0
  0
LINE
  5
E1
330
2
100
AcDbEntity
  8
0
100
AcDbLine
 10
-30.77222564956981
 20
4.131438999999997
 30
0.0
 11
-30.99258282964408
 21
4.131438999999997
 31
0.0
  0
CIRCLE
  5
E2
330
2
100
AcDbEntity
  8
0
100
AcDbCircle
 10
-36.51943619367894
 20
6.174126987071972
 30
0.0
 40
0.1405
  0
CIRCLE
  5
E3
330
2
100
AcDbEntity
  8
0
100
AcDbCircle
 10
-36.51943619367894
 20
3.202515909206429
 30
0.0
 40
0.1405
  0
CIRCLE
  5
E4
330
2
100
AcDbEntity
  8
0
100
AcDbCircle
 10
-33.99221967608615
 20
4.675971666233146
 30
0.0
 40
0.1405
  0
LINE
  5
E5
330
2
100
AcDbEntity
  8
0
100
AcDbLine
 10
-30.94916782964409
 20
11.804063
 30
0.0
 11
-36.99258282964408
 21
11.804063
 31
0.0
  0
LINE
  5
E6
330
2
100
AcDbEntity
  8
0
100
AcDbLine
 10
-36.99258282964408
 20
10.36132
 30
0.0
 11
-30.99258282964408
 21
10.36132
 31
0.0
  0
CIRCLE
  5
E7
330
2
100
AcDbEntity
  8
0
100
AcDbCircle
 10
-33.98205050823707
 20
7.735818450172054
 30
0.0
 40
0.1405
  0
LINE
  5
E8
330
2
100
AcDbEntity
  8
0
100
AcDbLine
 10
-22.88051382964408
 20
5.366080999999998
 30
0.0
 11
-22.88051382964408
 21
11.616563
 31
0.0
  0
LINE
  5
E9
330
2
100
AcDbEntity
  8
0
100
AcDbLine
 10
-30.75348282964409
 20
5.366080999999998
 30
0.0
 11
-30.75348282964409
 21
11.616563
 31
0.0
  0
LINE
  5
EA
330
2
100
AcDbEntity
  8
0
100
AcDbLine
 10
-22.89056753937772
 20
4.131438999999997
 30
0.0
 11
-22.64141382964408
 21
4.131438999999997
 31
0.0
  0
LINE
  5
EB
330
2
100
AcDbEntity
  8
0
100
AcDbLine
 10
-22.64141382964408
 20
5.366080999999998
 30
0.0
 11
-22.88051382964408
 21
5.366080999999998
 31
0.0
  0
LINE
  5
EC
330
2
100
AcDbEntity
  8
0
100
AcDbLine
 10
-23.06801382964408
 20
12.04316299999999
 30
0.0
 11
-30.56598282964409
 21
12.04316299999999
 31
0.0
  0
LINE
  5
ED
330
2
100
AcDbEntity
  8
0
100
AcDbLine
 10
-23.06801382964408
 20
11.804063
 30
0.0
 11
-30.56598282964409
 21
11.804063
 31
0.0
  0
ARC
  5
EE
330
2
100
AcDbEntity
  8
0
100
AcDbCircle
 10
-30.56598282964409
 20
11.616563
 30
0.0
 40
0.1875
100
AcDbArc
 50
90.0
 51
180.0
  0
ARC
  5
EF
330
2
100
AcDbEntity
  8
0
100
AcDbCircle
 10
-23.06801382964408
 20
11.616563
 30
0.0
 40
0.1875
100
AcDbArc
 50
0.000000000000007
 51
90.0
  0
ARC
  5
F0
330
2
100
AcDbEntity
  8
0
100
AcDbCircle
 10
-23.06801382964408
 20
11.616563
 30
0.0
 40
0.4266
100
AcDbArc
 50
0.000000000000007
 51
90.0
  0
CIRCLE
  5
F1
330
2
100
AcDbEntity
  8
0
100
AcDbCircle
 10
-17.08832099500345
 20
5.180362110622308
 30
0.0
 40
0.1405
  0
CIRCLE
  5
F2
330
2
100
AcDbEntity
  8
0
100
AcDbCircle
 10
-17.04961201200098
 20
8.198390206374217
 30
0.0
 40
0.1405
  0
LINE
  5
F3
330
2
100
AcDbEntity
  8
0
100
AcDbLine
 10
24.849463
 20
12.04316299999999
 30
0.0
 11
32.347432
 21
12.04316299999999
 31
0.0
  0
LINE
  5
F4
330
2
100
AcDbEntity
  8
0
100
AcDbLine
 10
24.849463
 20
11.804063
 30
0.0
 11
32.347432
 21
11.804063
 31
0.0
  0
LINE
  5
F5
330
2
100
AcDbEntity
  8
0
100
AcDbLine
 10
18.422863
 20
11.804063
 30
0.0
 11
18.422863
 21
0.0146389999999954
 31
0.0
  0
LINE
  5
F6
330
2
100
AcDbEntity
  8
0
100
AcDbLine
 10
24.422863
 20
11.616563
 30
0.0
 11
24.422863
 21
0.0146389999999954
 31
0.0
  0
LINE
  5
F7
330
2
100
AcDbEntity
  8
0
100
AcDbLine
 10
24.67201670973364
 20
0.1314389999999968
 30
0.0
 11
24.67201670973364
 21
4.131438999999997
 31
0.0
  0
LINE
  5
F8
330
2
100
AcDbEntity
  8
0
100
AcDbLine
 10
18.422863
 20
0.1939389999999968
 30
0.0
 11
24.422863
 21
0.1939389999999968
 31
0.0
  0
LINE
  5
F9
330
2
100
AcDbEntity
  8
0
100
AcDbLine
 10
18.422863
 20
0.0146389999999954
 30
0.0
 11
24.422863
 21
0.0146389999999954
 31
0.0
  0
LINE
  5
FA
330
2
100
AcDbEntity
  8
0
100
AcDbLine
 10
24.422863
 20
0.1314389999999968
 30
0.0
 11
24.67201670973364
 21
0.1314389999999968
 31
0.0
  0
CIRCLE
  5
FB
330
2
100
AcDbEntity
  8
0
100
AcDbCircle
 10
21.41414146061877
 20
6.733631252453311
 30
0.0
 40
0.1405
  0
LINE
  5
FC
330
2
100
AcDbEntity
  8
0
100
AcDbLine
 10
24.661963
 20
5.366080999999998
 30
0.0
 11
24.661963
 21
11.616563
 31
0.0
  0
CIRCLE
  5
FD
330
2
100
AcDbEntity
  8
0
100
AcDbCircle
 10
18.86977016535937
 20
5.180362110622308
 30
0.0
 40
0.1405
  0
CIRCLE
  5
FE
330
2
100
AcDbEntity
  8
0
100
AcDbCircle
 10
21.45749572594712
 20
3.657128689921489
 30
0.0
 40
0.1405
  0
LINE
  5
FF
330
2
100
AcDbEntity
  8
0
100
AcDbLine
 10
24.67201670973364
 20
4.131438999999997
 30
0.0
 11
24.422863
 21
4.131438999999997
 31
0.0
  0
LINE
  5
100
330
2
100
AcDbEntity
  8
0
100
AcDbLine
 10
24.422863
 20
5.366080999999998
 30
0.0
 11
24.661963
 21
5.366080999999998
 31
0.0
  0
LINE
  5
101
330
2
100
AcDbEntity
  8
0
100
AcDbLine
 10
24.46076399999999
 20
11.804063
 30
0.0
 11
18.422863
 21
11.804063
 31
0.0
  0
LINE
  5
102
330
2
100
AcDbEntity
  8
0
100
AcDbLine
 10
18.422863
 20
10.36132
 30
0.0
 11
24.422863
 21
10.36132
 31
0.0
  0
CIRCLE
  5
103
330
2
100
AcDbEntity
  8
0
100
AcDbCircle
 10
18.83106118235691
 20
8.198390206374217
 30
0.0
 40
0.1405
  0
ARC
  5
104
330
2
100
AcDbEntity
  8
0
100
AcDbCircle
 10
24.849463
 20
11.616563
 30
0.0
 40
0.1875
100
AcDbArc
 50
90.0
 51
180.0
  0
ARC
  5
105
330
2
100
AcDbEntity
  8
0
100
AcDbCircle
 10
24.849463
 20
11.616563
 30
0.0
 40
0.4266
100
AcDbArc
 50
90.0
 51
180.0
  0
LINE
  5
106
330
2
100
AcDbEntity
  8
0
100
AcDbLine
 10
38.77403200000001
 20
11.804063
 30
0.0
 11
38.77403200000001
 21
0.0146389999999954
 31
0.0
  0
LINE
  5
107
330
2
100
AcDbEntity
  8
0
100
AcDbLine
 10
32.77403200000001
 20
11.616563
 30
0.0
 11
32.77403200000001
 21
0.0146389999999954
 31
0.0
  0
LINE
  5
108
330
2
100
AcDbEntity
  8
0
100
AcDbLine
 10
32.55367481992573
 20
0.1314389999999968
 30
0.0
 11
32.55367481992573
 21
4.131438999999997
 31
0.0
  0
LINE
  5
109
330
2
100
AcDbEntity
  8
0
100
AcDbLine
 10
38.77403200000001
 20
0.0146389999999954
 30
0.0
 11
32.77403200000001
 21
0.0146389999999954
 31
0.0
  0
LINE
  5
10A
330
2
100
AcDbEntity
  8
0
100
AcDbLine
 10
38.77403200000001
 20
0.1939389999999968
 30
0.0
 11
32.77403200000001
 21
0.1939389999999968
 31
0.0
  0
LINE
  5
10B
330
2
100
AcDbEntity
  8
0
100
AcDbLine
 10
32.77403200000001
 20
0.1314389999999968
 30
0.0
 11
32.55367481992573
 21
0.1314389999999968
 31
0.0
  0
LINE
  5
10C
330
2
100
AcDbEntity
  8
0
100
AcDbLine
 10
32.77403200000001
 20
0.1314389999999968
 30
0.0
 11
32.55367481992573
 21
0.1314389999999968
 31
0.0
  0
LINE
  5
10D
330
2
100
AcDbEntity
  8
0
100
AcDbLine
 10
32.730617
 20
11.804063
 30
0.0
 11
38.77403200000001
 21
11.804063
 31
0.0
  0
LINE
  5
10E
330
2
100
AcDbEntity
  8
0
100
AcDbLine
 10
38.77403200000001
 20
10.36132
 30
0.0
 11
32.77403200000001
 21
10.36132
 31
0.0
  0
LINE
  5
10F
330
2
100
AcDbEntity
  8
0
100
AcDbLine
 10
32.534932
 20
5.366080999999998
 30
0.0
 11
32.534932
 21
11.616563
 31
0.0
  0
LINE
  5
110
330
2
100
AcDbEntity
  8
0
100
AcDbLine
 10
32.55367481992573
 20
4.131438999999997
 30
0.0
 11
32.77403200000001
 21
4.131438999999997
 31
0.0
  0
LINE
  5
111
330
2
100
AcDbEntity
  8
0
100
AcDbLine
 10
32.534932
 20
5.366080999999998
 30
0.0
 11
32.77403200000001
 21
5.366080999999998
 31
0.0
  0
CIRCLE
  5
112
330
2
100
AcDbEntity
  8
0
100
AcDbCircle
 10
35.77366884644208
 20
4.675971666233146
 30
0.0
 40
0.1405
  0
CIRCLE
  5
113
330
2
100
AcDbEntity
  8
0
100
AcDbCircle
 10
35.76349967859298
 20
7.735818450172054
 30
0.0
 40
0.1405
  0
ARC
  5
114
330
2
100
AcDbEntity
  8
0
100
AcDbCircle
 10
32.347432
 20
11.616563
 30
0.0
 40
0.4266
100
AcDbArc
 50
0.0
 51
90.0
  0
ARC
  5
115
330
2
100
AcDbEntity
  8
0
100
AcDbCircle
 10
32.347432
 20
11.616563
 30
0.0
 40
0.1875
100
AcDbArc
 50
0.0
 51
90.0
  0
CIRCLE
  5
116
330
2
100
AcDbEntity
  8
0
100
AcDbCircle
 10
38.30088536403487
 20
3.202515909206429
 30
0.0
 40
0.1405
  0
CIRCLE
  5
117
330
2
100
AcDbEntity
  8
0
100
AcDbCircle
 10
38.30088536403487
 20
6.174126987071972
 30
0.0
 40
0.1405
  0
LINE
  5
118
330
2
100
AcDbEntity
  8
0
100
AcDbLine
 10
5.999999999999996
 20
4.116799999999994
 30
0.0
 11
5.999999999999996
 21
0.1172739999999948
 31
0.0
  0
LINE
  5
119
330
2
100
AcDbEntity
  8
0
100
AcDbLine
 10
-6.000000000000002
 20
0.1172739999999948
 30
0.0
 11
-6.000000000000002
 21
4.116799999999998
 31
0.0
  0
LINE
  5
11A
330
2
100
AcDbEntity
  8
0
100
AcDbLine
 10
2.624999999999996
 20
10.304063
 30
0.0
 11
2.624999999999995
 21
0.3667999999999978
 31
0.0
  0
LINE
  5
11B
330
2
100
AcDbEntity
  8
0
100
AcDbLine
 10
2.804299999999998
 20
0.3593000000000011
 30
0.0
 11
2.804299999999998
 21
10.36132
 31
0.0
  0
LINE
  5
11C
330
2
100
AcDbEntity
  8
0
100
AcDbLine
 10
-2.804300000000001
 20
0.3592999999999975
 30
0.0
 11
-2.804300000000001
 21
10.36373
 31
0.0
  0
LINE
  5
11D
330
2
100
AcDbEntity
  8
0
100
AcDbLine
 10
-2.625000000000001
 20
10.306473
 30
0.0
 11
-2.625000000000002
 21
0.3667999999999978
 31
0.0
  0
CIRCLE
  5
11E
330
2
100
AcDbEntity
  8
0
100
AcDbCircle
 10
-5.505385000000002
 20
0.6172739999999948
 30
0.0
 40
0.14065
  0
LINE
  5
11F
330
2
100
AcDbEntity
  8
0
100
AcDbLine
 10
2.710555842195145
 20
0.1172739999999948
 30
0.0
 11
5.999999999999996
 21
0.1172739999999948
 31
0.0
  0
ARC
  5
120
330
2
100
AcDbEntity
  8
0
100
AcDbCircle
 10
-2.445
 20
0.3592999999999975
 30
0.0
 40
0.3593
100
AcDbArc
 50
180.0
 51
270.0000000000001
  0
LINE
  5
121
330
2
100
AcDbEntity
  8
0
100
AcDbLine
 10
-2.710555842195172
 20
0.1172739999999948
 30
0.0
 11
-6.000000000000002
 21
0.1172739999999948
 31
0.0
  0
LINE
  5
122
330
2
100
AcDbEntity
  8
0
100
AcDbLine
 10
2.437499999999995
 20
0.1792999999999978
 30
0.0
 11
-2.437500000000002
 21
0.1792999999999978
 31
0.0
  0
LINE
  5
123
330
2
100
AcDbEntity
  8
0
100
AcDbLine
 10
-2.445
 20
-0.0000000000000036
 30
0.0
 11
2.444999999999999
 21
0.0
 31
0.0
  0
ARC
  5
124
330
2
100
AcDbEntity
  8
0
100
AcDbCircle
 10
-2.437500000000002
 20
0.3667999999999978
 30
0.0
 40
0.1875
100
AcDbArc
 50
180.0
 51
270.0
  0
ARC
  5
125
330
2
100
AcDbEntity
  8
0
100
AcDbCircle
 10
2.444999999999999
 20
0.3593000000000011
 30
0.0
 40
0.3593
100
AcDbArc
 50
270.0
 51
0.0
  0
ARC
  5
126
330
2
100
AcDbEntity
  8
0
100
AcDbCircle
 10
2.437499999999995
 20
0.3667999999999978
 30
0.0
 40
0.1875
100
AcDbArc
 50
270.0
 51
0.0
  0
LINE
  5
127
330
2
100
AcDbEntity
  8
0
100
AcDbLine
 10
-6.000000000000002
 20
12.04316299999999
 30
0.0
 11
5.999999999999996
 21
12.04316299999999
 31
0.0
  0
LINE
  5
128
330
2
100
AcDbEntity
  8
0
100
AcDbLine
 10
5.999999999999996
 20
11.804063
 30
0.0
 11
-6.000000000000002
 21
11.804063
 31
0.0
  0
LINE
  5
129
330
2
100
AcDbEntity
  8
0
100
AcDbLine
 10
2.624999999999996
 20
10.304063
 30
0.0
 11
2.999999999999996
 21
11.84626799999999
 31
0.0
  0
LINE
  5
12A
330
2
100
AcDbEntity
  8
0
100
AcDbLine
 10
3.164323999999999
 20
11.805297
 30
0.0
 11
2.804299999999998
 21
10.36132
 31
0.0
  0
LINE
  5
12B
330
2
100
AcDbEntity
  8
0
100
AcDbLine
 10
5.999999999999996
 20
5.304062999999996
 30
0.0
 11
2.804299999999998
 21
5.304062999999996
 31
0.0
  0
LINE
  5
12C
330
2
100
AcDbEntity
  8
0
100
AcDbLine
 10
2.804299999999998
 20
4.116799999999998
 30
0.0
 11
5.999999999999996
 21
4.116799999999994
 31
0.0
  0
LINE
  5
12D
330
2
100
AcDbEntity
  8
0
100
AcDbLine
 10
-6.000000000000002
 20
5.304062999999996
 30
0.0
 11
-6.000000000000002
 21
12.04316299999999
 31
0.0
  0
CIRCLE
  5
12E
330
2
100
AcDbEntity
  8
0
100
AcDbCircle
 10
-5.505385000000002
 20
3.617273999999995
 30
0.0
 40
0.14065
  0
LINE
  5
12F
330
2
100
AcDbEntity
  8
0
100
AcDbLine
 10
-2.804300000000001
 20
5.304062999999996
 30
0.0
 11
-6.000000000000002
 21
5.304062999999996
 31
0.0
  0
LINE
  5
130
330
2
100
AcDbEntity
  8
0
100
AcDbLine
 10
-2.804300000000001
 20
4.116799999999998
 30
0.0
 11
-6.000000000000002
 21
4.116799999999998
 31
0.0
  0
CIRCLE
  5
131
330
2
100
AcDbEntity
  8
0
100
AcDbCircle
 10
-5.562500000000002
 20
5.741562999999996
 30
0.0
 40
0.14065
  0
LINE
  5
132
330
2
100
AcDbEntity
  8
0
100
AcDbLine
 10
-2.625000000000001
 20
4.116799999999998
 30
0.0
 11
2.624999999999996
 21
4.116799999999998
 31
0.0
  0
LINE
  5
133
330
2
100
AcDbEntity
  8
0
100
AcDbLine
 10
2.624999999999996
 20
5.304062999999996
 30
0.0
 11
-2.625000000000001
 21
5.304062999999996
 31
0.0
  0
LINE
  5
134
330
2
100
AcDbEntity
  8
0
100
AcDbLine
 10
-2.625000000000001
 20
10.306473
 30
0.0
 11
-3.000000000000001
 21
11.848678
 31
0.0
  0
CIRCLE
  5
135
330
2
100
AcDbEntity
  8
0
100
AcDbCircle
 10
-5.562500000000002
 20
8.241562999999996
 30
0.0
 40
0.14065
  0
CIRCLE
  5
136
330
2
100
AcDbEntity
  8
0
100
AcDbCircle
 10
-5.562500000000002
 20
9.491562999999996
 30
0.0
 40
0.14065
  0
CIRCLE
  5
137
330
2
100
AcDbEntity
  8
0
100
AcDbCircle
 10
-5.562500000000002
 20
6.991562999999996
 30
0.0
 40
0.14065
  0
CIRCLE
  5
138
330
2
100
AcDbEntity
  8
0
100
AcDbCircle
 10
-5.562500000000002
 20
10.741563
 30
0.0
 40
0.14065
  0
LINE
  5
139
330
2
100
AcDbEntity
  8
0
100
AcDbLine
 10
-3.164324000000002
 20
11.807708
 30
0.0
 11
-2.804300000000001
 21
10.36373
 31
0.0
  0
LINE
  5
13A
330
2
100
AcDbEntity
  8
0
100
AcDbLine
 10
-3.000000000000001
 20
11.848678
 30
0.0
 11
-3.164324000000002
 21
11.807708
 31
0.0
  0
LINE
  5
13B
330
2
100
AcDbEntity
  8
0
100
AcDbLine
 10
5.999999999999996
 20
12.04316299999999
 30
0.0
 11
5.999999999999996
 21
5.304062999999996
 31
0.0
  0
CIRCLE
  5
13C
330
2
100
AcDbEntity
  8
0
100
AcDbCircle
 10
5.567885
 20
3.617273999999995
 30
0.0
 40
0.14065
  0
CIRCLE
  5
13D
330
2
100
AcDbEntity
  8
0
100
AcDbCircle
 10
5.567885
 20
0.6797739999999948
 30
0.0
 40
0.14065
  0
CIRCLE
  5
13E
330
2
100
AcDbEntity
  8
0
100
AcDbCircle
 10
5.562499999999996
 20
5.741562999999996
 30
0.0
 40
0.14065
  0
CIRCLE
  5
13F
330
2
100
AcDbEntity
  8
0
100
AcDbCircle
 10
5.562499999999996
 20
8.241562999999996
 30
0.0
 40
0.14065
  0
CIRCLE
  5
140
330
2
100
AcDbEntity
  8
0
100
AcDbCircle
 10
5.562499999999996
 20
6.991562999999996
 30
0.0
 40
0.14065
  0
CIRCLE
  5
141
330
2
100
AcDbEntity
  8
0
100
AcDbCircle
 10
5.562499999999996
 20
9.491562999999996
 30
0.0
 40
0.14065
  0
CIRCLE
  5
142
330
2
100
AcDbEntity
  8
0
100
AcDbCircle
 10
5.562499999999996
 20
10.741563
 30
0.0
 40
0.14065
  0
LINE
  5
143
330
2
100
AcDbEntity
  8
0
100
AcDbLine
 10
2.999999999999996
 20
11.84626799999999
 30
0.0
 11
3.164323999999999
 21
11.805297
 31
0.0
  0
ENDSEC
  0
SECTION
  2
OBJECTS
  0
DICTIONARY
  5
7
330
0
100
AcDbDictionary
281
     1
  3
ACAD_COLOR
350
C1
  3
ACAD_GROUP
350
1F
  3
ACAD_LAYOUT
350
B
  3
ACAD_MATERIAL
350
C0
  3
ACAD_MLINESTYLE
350
20
  3
ACAD_PLOTSETTINGS
350
21
  3
ACAD_PLOTSTYLENAME
350
6
  3
ACAD_TABLESTYLE
350
C2
  3
ACDBHEADERROUNDTRIPXREC
350
157
  3
AcDbVariableDictionary
350
BC
  0
DICTIONARY
  5
C9
330
2
100
AcDbDictionary
280
     1
281
     1
  3
ACAD_SORTENTS
360
CA
  0
DICTIONARY
  5
C1
102
{ACAD_REACTORS
330
7
102
}
330
7
100
AcDbDictionary
281
     1
  0
DICTIONARY
  5
1F
102
{ACAD_REACTORS
330
7
102
}
330
7
100
AcDbDictionary
281
     1
  0
DICTIONARY
  5
B
102
{ACAD_REACTORS
330
7
102
}
330
7
100
AcDbDictionary
281
     1
  3
Layout1
350
F
  3
Model
350
A
  0
DICTIONARY
  5
C0
102
{ACAD_REACTORS
330
7
102
}
330
7
100
AcDbDictionary
281
     1
  0
DICTIONARY
  5
20
102
{ACAD_REACTORS
330
7
102
}
330
7
100
AcDbDictionary
281
     1
  3
Standard
350
23
  0
DICTIONARY
  5
21
102
{ACAD_REACTORS
330
7
102
}
330
7
100
AcDbDictionary
281
     1
  0
ACDBDICTIONARYWDFLT
  5
6
102
{ACAD_REACTORS
330
7
102
}
330
7
100
AcDbDictionary
281
     1
  3
Normal
350
5
100
AcDbDictionaryWithDefault
340
5
  0
DICTIONARY
  5
C2
102
{ACAD_REACTORS
330
7
102
}
330
7
100
AcDbDictionary
281
     1
  3
Standard
350
C3
  0
DICTIONARY
  5
157
102
{ACAD_REACTORS
330
7
102
}
330
7
100
AcDbDictionary
281
     1
  3
COLORDICT
350
158
  3
MATERIALDICT
350
159
  0
DICTIONARY
  5
BC
102
{ACAD_REACTORS
330
7
102
}
330
7
100
AcDbDictionary
281
     1
  3
CTABLESTYLE
350
14B
  3
DIMASSOC
350
BE
  3
HIDETEXT
350
BD
  0
SORTENTSTABLE
  5
CA
102
{ACAD_REACTORS
330
C9
102
}
330
C9
100
AcDbSortentsTable
330
2
331
121
  5
D7
331
F6
  5
FD
331
EE
  5
13F
331
E1
  5
132
331
109
  5
110
331
E9
  5
13A
331
EC
  5
13D
331
120
  5
D6
331
108
  5
10F
331
F9
  5
100
331
130
  5
E6
331
FE
  5
105
331
132
  5
E8
331
FB
  5
102
331
142
  5
F8
331
F5
  5
FC
331
EB
  5
13C
331
CE
  5
11F
331
F1
  5
142
331
143
  5
F9
331
D1
  5
122
331
E3
  5
134
331
D3
  5
124
331
D7
  5
128
331
13A
  5
F0
331
FF
  5
106
331
129
  5
DF
331
D6
  5
127
331
12B
  5
E1
331
10F
  5
116
331
127
  5
DD
331
F7
  5
FE
331
10E
  5
115
331
DE
  5
12F
331
12E
  5
E4
331
E7
  5
138
331
135
  5
EB
331
D4
  5
125
331
E2
  5
133
331
126
  5
DC
331
F3
  5
FA
331
125
  5
DB
331
11A
  5
D0
331
EA
  5
13B
331
110
  5
117
331
107
  5
10E
331
116
  5
11D
331
FA
  5
101
331
114
  5
11B
331
13D
  5
F3
331
F0
  5
141
331
D5
  5
126
331
D9
  5
12A
331
E4
  5
135
331
139
  5
EF
331
EF
  5
140
331
FD
  5
104
331
13B
  5
F1
331
D0
  5
121
331
133
  5
E9
331
10D
  5
114
331
141
  5
F7
331
E6
  5
137
331
13E
  5
F4
331
113
  5
11A
331
117
  5
11E
331
12C
  5
E2
331
119
  5
CF
331
F4
  5
FB
331
106
  5
10D
331
10C
  5
113
331
136
  5
EC
331
CF
  5
120
331
11C
  5
D2
331
DB
  5
12C
331
134
  5
EA
331
131
  5
E7
331
DC
  5
12D
331
111
  5
118
331
11B
  5
D1
331
F2
  5
143
331
E0
  5
131
331
128
  5
DE
331
FC
  5
103
331
100
  5
107
331
F8
  5
FF
331
12D
  5
E3
331
E5
  5
136
331
138
  5
EE
331
D2
  5
123
331
101
  5
108
331
103
  5
10A
331
12F
  5
E5
331
122
  5
D8
331
137
  5
ED
331
10A
  5
111
331
124
  5
DA
331
11D
  5
D3
331
11F
  5
D5
331
112
  5
119
331
105
  5
10C
331
12A
  5
E0
331
10B
  5
112
331
D8
  5
129
331
13F
  5
F5
331
118
  5
CE
331
DD
  5
12E
331
104
  5
10B
331
ED
  5
13E
331
115
  5
11C
331
E8
  5
139
331
123
  5
D9
331
13C
  5
F2
331
102
  5
109
331
140
  5
F6
331
DF
  5
130
331
11E
  5
D4
331
DA
  5
12B
  0
LAYOUT
  5
F
102
{ACAD_REACTORS
330
B
102
}
102
{ACAD_XDICTIONARY
360
15A
102
}
330
B
100
AcDbPlotSettings
  1

  2
X:\Program Files\AutoCAD2002\plotters\DWF ePlot (optimized for plotting).pc3
  4

  6

 40
0.0
 41
0.0
 42
0.0
 43
0.0
 44
0.0
 45
0.0
 46
0.0
 47
0.0
 48
0.0
 49
0.0
140
0.0
141
0.0
142
1.0
143
1.0
 70
   688
 72
     0
 73
     0
 74
     5
  7

 75
    16
147
1.0
148
0.0
149
0.0
100
AcDbLayout
  1
Layout1
 70
     0
 71
     1
 10
0.0
 20
0.0
 11
12.0
 21
9.0
 12
0.0
 22
0.0
 32
0.0
 14
1.000000000000000E+20
 24
1.000000000000000E+20
 34
1.000000000000000E+20
 15
-1.000000000000000E+20
 25
-1.000000000000000E+20
 35
-1.000000000000000E+20
146
0.0
 13
0.0
 23
0.0
 33
0.0
 16
1.0
 26
0.0
 36
0.0
 17
0.0
 27
1.0
 37
0.0
 76
     0
330
C
  0
LAYOUT
  5
A
102
{ACAD_REACTORS
330
B
102
}
102
{ACAD_XDICTIONARY
360
15C
102
}
330
B
100
AcDbPlotSettings
  1

  2
X:\Program Files\AutoCAD2002\plotters\DWF ePlot (optimized for plotting).pc3
  4

  6

 40
0.0
 41
0.0
 42
0.0
 43
0.0
 44
0.0
 45
0.0
 46
0.0
 47
0.0
 48
0.0
 49
0.0
140
0.0
141
0.0
142
1.0
143
1.0
 70
  1712
 72
     0
 73
     0
 74
     0
  7

 75
     0
147
1.0
148
0.0
149
0.0
100
AcDbLayout
  1
Model
 70
     1
 71
     0
 10
0.0
 20
0.0
 11
12.0
 21
9.0
 12
0.0
 22
0.0
 32
0.0
 14
0.0
 24
0.0
 34
0.0
 15
0.0
 25
0.0
 35
0.0
146
0.0
 13
0.0
 23
0.0
 33
0.0
 16
1.0
 26
0.0
 36
0.0
 17
0.0
 27
1.0
 37
0.0
 76
     0
330
2
  0
MLINESTYLE
  5
23
102
{ACAD_REACTORS
330
20
102
}
330
20
100
AcDbMlineStyle
  2
STANDARD
 70
     0
  3

 62
   256
 51
90.0
 52
90.0
 71
     2
 49
0.5
 62
   256
  6
BYLAYER
 49
-0.5
 62
   256
  6
BYLAYER
  0
ACDBPLACEHOLDER
  5
5
102
{ACAD_REACTORS
330
6
102
}
330
6
  0
ACAD_PROXY_OBJECT
  5
C3
102
{ACAD_REACTORS
330
C2
102
}
330
C2
100
AcDbProxyObject
 90
      499
 91
      504
 95
   983063
 70
     0
 93
     1841
310
4214DD185B99185C9928B81E85EB51B8AE3F2E07A17AD46E2B8FC02B5E8DC0F42B1CFD028000000C1008070000C3001FDFF8000000C1003FBFF000000182007F7FE00000030400FEFFC00000060801FDFF8000000C1003FBFF00000018200000000000000681FA0B0000001820100E000186003FBFF000000182007F7FE000
310
00030400FEFFC00000060801FDFF8000000C1003FBFF000000182007F7FE000000304000AD7A3703D0AC73F4160000003040201C00030C007F7FE00000030400FEFFC00000060801FDFF8000000C1003FBFF000000182007F7FE00000030400FEFFC000000608000
340
12
340
12
340
12
 94
        0
  0
XRECORD
  5
158
102
{ACAD_REACTORS
330
157
102
}
330
157
100
AcDbXrecord
340
C1
  0
XRECORD
  5
159
102
{ACAD_REACTORS
330
157
102
}
330
157
100
AcDbXrecord
340
C0
  0
DICTIONARYVAR
  5
14B
102
{ACAD_REACTORS
330
BC
102
}
330
BC
100
DictionaryVariables
280
     0
  1
STANDARD
  0
DICTIONARYVAR
  5
BE
102
{ACAD_REACTORS
330
BC
102
}
330
BC
100
DictionaryVariables
280
     0
  1
2
  0
DICTIONARYVAR
  5
BD
102
{ACAD_REACTORS
330
BC
102
}
330
BC
100
DictionaryVariables
280
     0
  1
1
  0
DICTIONARY
  5
15A
330
F
100
AcDbDictionary
280
     1
281
     1
  3
ACAD_XREC_ROUNDTRIP
360
15B
  0
DICTIONARY
  5
15C
330
A
100
AcDbDictionary
280
     1
281
     1
  3
ACAD_XREC_ROUNDTRIP
360
15D
  0
XRECORD
  5
15B
102
{ACAD_REACTORS
330
15A
102
}
330
15A
100
AcDbXrecord
102
SHADEPLOT
 70
     0
102
SHADEPLOTRESLEVEL
 70
     2
102
SHADEPLOTCUSTOMDPI
 70
   300
  0
XRECORD
  5
15D
102
{ACAD_REACTORS
330
15C
102
}
330
15C
100
AcDbXrecord
102
SHADEPLOT
 70
     0
102
SHADEPLOTRESLEVEL
 70
     2
102
SHADEPLOTCUSTOMDPI
 70
   300
  0
ENDSEC
  0
EOF
