  0
SECTION
  2
HEADER
  9
$ACADVER
  1
AC1015
  9
$ACADMAINTVER
 70
     6
  9
$DWGCODEPAGE
  3
ANSI_1252
  9
$INSBASE
 10
0.0
 20
0.0
 30
0.0
  9
$EXTMIN
 10
-25.30855726107625
 20
-17.19634988491679
 30
0.0
  9
$EXTMAX
 10
24.23845056877183
 20
27.0625
 30
20.0
  9
$LIMMIN
 10
0.0
 20
0.0
  9
$LIMMAX
 10
52.5
 20
40.0
  9
$ORTHOMODE
 70
     1
  9
$REGENMODE
 70
     1
  9
$FILLMODE
 70
     1
  9
$QTEXTMODE
 70
     0
  9
$MIRRTEXT
 70
     0
  9
$LTSCALE
 40
2.0
  9
$ATTMODE
 70
     1
  9
$TEXTSIZE
 40
0.450000000000004
  9
$TRACEWID
 40
0.05
  9
$TEXTSTYLE
  7
STANDARD
  9
$CLAYER
  8
0
  9
$CELTYPE
  6
ByLayer
  9
$CECOLOR
 62
   256
  9
$CELTSCALE
 40
1.0
  9
$DISPSILH
 70
     0
  9
$DIMSCALE
 40
5.000000000000049
  9
$DIMASZ
 40
0.125
  9
$DIMEXO
 40
0.062
  9
$DIMDLI
 40
0.375
  9
$DIMRND
 40
0.0
  9
$DIMDLE
 40
0.0
  9
$DIMEXE
 40
0.08
  9
$DIMTP
 40
0.0
  9
$DIMTM
 40
0.0
  9
$DIMTXT
 40
0.09
  9
$DIMCEN
 40
-0.06
  9
$DIMTSZ
 40
0.0
  9
$DIMTOL
 70
     0
  9
$DIMLIM
 70
     0
  9
$DIMTIH
 70
     1
  9
$DIMTOH
 70
     1
  9
$DIMSE1
 70
     0
  9
$DIMSE2
 70
     0
  9
$DIMTAD
 70
     0
  9
$DIMZIN
 70
     0
  9
$DIMBLK
  1

  9
$DIMASO
 70
     0
  9
$DIMSHO
 70
     0
  9
$DIMPOST
  1

  9
$DIMAPOST
  1

  9
$DIMALT
 70
     0
  9
$DIMALTD
 70
     2
  9
$DIMALTF
 40
25.4
  9
$DIMLFAC
 40
1.0
  9
$DIMTOFL
 70
     0
  9
$DIMTVP
 40
0.0
  9
$DIMTIX
 70
     0
  9
$DIMSOXD
 70
     0
  9
$DIMSAH
 70
     0
  9
$DIMBLK1
  1

  9
$DIMBLK2
  1

  9
$DIMSTYLE
  2
Standard
  9
$DIMCLRD
 70
     0
  9
$DIMCLRE
 70
     0
  9
$DIMCLRT
 70
     0
  9
$DIMTFAC
 40
1.0
  9
$DIMGAP
 40
0.09
  9
$DIMJUST
 70
     0
  9
$DIMSD1
 70
     0
  9
$DIMSD2
 70
     0
  9
$DIMTOLJ
 70
     1
  9
$DIMTZIN
 70
     0
  9
$DIMALTZ
 70
     0
  9
$DIMALTTZ
 70
     0
  9
$DIMUPT
 70
     0
  9
$DIMDEC
 70
     5
  9
$DIMTDEC
 70
     5
  9
$DIMALTU
 70
     5
  9
$DIMALTTD
 70
     2
  9
$DIMTXSTY
  7
STANDARD
  9
$DIMAUNIT
 70
     0
  9
$DIMADEC
 70
     0
  9
$DIMALTRND
 40
0.0
  9
$DIMAZIN
 70
     0
  9
$DIMDSEP
 70
    46
  9
$DIMATFIT
 70
     3
  9
$DIMFRAC
 70
     0
  9
$DIMLDRBLK
  1

  9
$DIMLUNIT
 70
     5
  9
$DIMLWD
 70
    -2
  9
$DIMLWE
 70
    -2
  9
$DIMTMOVE
 70
     2
  9
$LUNITS
 70
     5
  9
$LUPREC
 70
     5
  9
$SKETCHINC
 40
0.1
  9
$FILLETRAD
 40
0.0
  9
$AUNITS
 70
     0
  9
$AUPREC
 70
     0
  9
$MENU
  1
acad
  9
$ELEVATION
 40
0.0
  9
$PELEVATION
 40
0.0
  9
$THICKNESS
 40
0.0
  9
$LIMCHECK
 70
     0
  9
$CHAMFERA
 40
0.0
  9
$CHAMFERB
 40
0.0
  9
$CHAMFERC
 40
0.0
  9
$CHAMFERD
 40
0.0
  9
$SKPOLY
 70
     0
  9
$TDCREATE
 40
2450346.840446065
  9
$TDUCREATE
 40
2450347.173779398
  9
$TDUPDATE
 40
2454160.692178635
  9
$TDUUPDATE
 40
2454161.025511968
  9
$TDINDWG
 40
0.0716348611
  9
$TDUSRTIMER
 40
0.0716348611
  9
$USRTIMER
 70
     1
  9
$ANGBASE
 50
0.0
  9
$ANGDIR
 70
     0
  9
$PDMODE
 70
     0
  9
$PDSIZE
 40
0.0
  9
$PLINEWID
 40
0.0
  9
$SPLFRAME
 70
     0
  9
$SPLINETYPE
 70
     6
  9
$SPLINESEGS
 70
     8
  9
$HANDSEED
  5
92C
  9
$SURFTAB1
 70
     6
  9
$SURFTAB2
 70
     6
  9
$SURFTYPE
 70
     6
  9
$SURFU
 70
     6
  9
$SURFV
 70
     6
  9
$UCSBASE
  2

  9
$UCSNAME
  2

  9
$UCSORG
 10
0.0
 20
0.0
 30
0.0
  9
$UCSXDIR
 10
1.0
 20
0.0
 30
0.0
  9
$UCSYDIR
 10
0.0
 20
1.0
 30
0.0
  9
$UCSORTHOREF
  2

  9
$UCSORTHOVIEW
 70
     0
  9
$UCSORGTOP
 10
0.0
 20
0.0
 30
0.0
  9
$UCSORGBOTTOM
 10
0.0
 20
0.0
 30
0.0
  9
$UCSORGLEFT
 10
0.0
 20
0.0
 30
0.0
  9
$UCSORGRIGHT
 10
0.0
 20
0.0
 30
0.0
  9
$UCSORGFRONT
 10
0.0
 20
0.0
 30
0.0
  9
$UCSORGBACK
 10
0.0
 20
0.0
 30
0.0
  9
$PUCSBASE
  2

  9
$PUCSNAME
  2

  9
$PUCSORG
 10
0.0
 20
0.0
 30
0.0
  9
$PUCSXDIR
 10
1.0
 20
0.0
 30
0.0
  9
$PUCSYDIR
 10
0.0
 20
1.0
 30
0.0
  9
$PUCSORTHOREF
  2

  9
$PUCSORTHOVIEW
 70
     0
  9
$PUCSORGTOP
 10
0.0
 20
0.0
 30
0.0
  9
$PUCSORGBOTTOM
 10
0.0
 20
0.0
 30
0.0
  9
$PUCSORGLEFT
 10
0.0
 20
0.0
 30
0.0
  9
$PUCSORGRIGHT
 10
0.0
 20
0.0
 30
0.0
  9
$PUCSORGFRONT
 10
0.0
 20
0.0
 30
0.0
  9
$PUCSORGBACK
 10
0.0
 20
0.0
 30
0.0
  9
$USERI1
 70
     0
  9
$USERI2
 70
     0
  9
$USERI3
 70
     0
  9
$USERI4
 70
     0
  9
$USERI5
 70
     0
  9
$USERR1
 40
0.0
  9
$USERR2
 40
0.0
  9
$USERR3
 40
0.0
  9
$USERR4
 40
0.0
  9
$USERR5
 40
0.0
  9
$WORLDVIEW
 70
     1
  9
$SHADEDGE
 70
     3
  9
$SHADEDIF
 70
    70
  9
$TILEMODE
 70
     1
  9
$MAXACTVP
 70
    16
  9
$PINSBASE
 10
0.0
 20
0.0
 30
0.0
  9
$PLIMCHECK
 70
     0
  9
$PEXTMIN
 10
1.000000000000000E+20
 20
1.000000000000000E+20
 30
1.000000000000000E+20
  9
$PEXTMAX
 10
-1.000000000000000E+20
 20
-1.000000000000000E+20
 30
-1.000000000000000E+20
  9
$PLIMMIN
 10
0.0
 20
0.0
  9
$PLIMMAX
 10
12.0
 20
9.0
  9
$UNITMODE
 70
     0
  9
$VISRETAIN
 70
     0
  9
$PLINEGEN
 70
     0
  9
$PSLTSCALE
 70
     0
  9
$TREEDEPTH
 70
  3020
  9
$CMLSTYLE
  2
Standard
  9
$CMLJUST
 70
     0
  9
$CMLSCALE
 40
1.0
  9
$PROXYGRAPHICS
 70
     1
  9
$MEASUREMENT
 70
     0
  9
$CELWEIGHT
370
    -1
  9
$ENDCAPS
280
     0
  9
$JOINSTYLE
280
     0
  9
$LWDISPLAY
290
     0
  9
$INSUNITS
 70
     0
  9
$HYPERLINKBASE
  1

  9
$STYLESHEET
  1

  9
$XEDIT
290
     1
  9
$CEPSNTYPE
380
     0
  9
$PSTYLEMODE
290
     1
  9
$FINGERPRINTGUID
  2
{07D06983-1B14-4750-818A-A3301477D923}
  9
$VERSIONGUID
  2
{AA47907E-653E-4C64-B111-1798339DF10D}
  9
$EXTNAMES
290
     1
  9
$PSVPSCALE
 40
0.0
  9
$OLESTARTUP
290
     0
  0
ENDSEC
  0
SECTION
  2
CLASSES
  0
CLASS
  1
ACDBDICTIONARYWDFLT
  2
AcDbDictionaryWithDefault
  3
AutoCAD 2000
 90
        0
280
     0
281
     0
  0
CLASS
  1
ACDBPLACEHOLDER
  2
AcDbPlaceHolder
  3
ObjectDBX Classes
 90
        0
280
     0
281
     0
  0
CLASS
  1
LAYOUT
  2
AcDbLayout
  3
ObjectDBX Classes
 90
        0
280
     0
281
     0
  0
CLASS
  1
LONG_TRANSACTION
  2
AcDbLongTransaction
  3
ObjectDBX Classes
 90
   -65536
280
     1
281
     0
  0
CLASS
  1
LWPOLYLINE
  2
AcDbPolyline
  3
AutoCAD 2000
 90
        0
280
     0
281
     1
  0
CLASS
  1
HATCH
  2
AcDbHatch
  3
AutoCAD 2000
 90
        0
280
     0
281
     1
  0
CLASS
  1
XRECORD
  2
AcDbXrecord
  3
AutoCAD 2000
 90
        0
280
     0
281
     0
  0
CLASS
  1
LONG_TRANSACTION
  2
AcDbLongTransaction
  3
ObjectDBX Classes
 90
   -65536
280
     1
281
     0
  0
CLASS
  1
LWPOLYLINE
  2
AcDbPolyline
  3
AutoCAD 2000
 90
        0
280
     0
281
     1
  0
CLASS
  1
HATCH
  2
AcDbHatch
  3
AutoCAD 2000
 90
        0
280
     0
281
     1
  0
CLASS
  1
XRECORD
  2
AcDbXrecord
  3
AutoCAD 2000
 90
        0
280
     0
281
     0
  0
CLASS
  1
LONG_TRANSACTION
  2
AcDbLongTransaction
  3
ObjectDBX Classes
 90
   -65536
280
     1
281
     0
  0
CLASS
  1
LWPOLYLINE
  2
AcDbPolyline
  3
AutoCAD 2000
 90
        0
280
     0
281
     1
  0
CLASS
  1
HATCH
  2
AcDbHatch
  3
AutoCAD 2000
 90
        0
280
     0
281
     1
  0
CLASS
  1
XRECORD
  2
AcDbXrecord
  3
AutoCAD 2000
 90
        0
280
     0
281
     0
  0
CLASS
  1
TABLESTYLE
  2
AcDbTableStyle
  3
ObjectDBX Classes
 90
     2047
280
     1
281
     0
  0
CLASS
  1
DICTIONARYVAR
  2
AcDbDictionaryVar
  3
AutoCAD 2000
 90
        0
280
     0
281
     0
  0
CLASS
  1
SORTENTSTABLE
  2
AcDbSortentsTable
  3
AutoCAD 2000
 90
        0
280
     0
281
     0
  0
ENDSEC
  0
SECTION
  2
TABLES
  0
TABLE
  2
VPORT
  5
8
330
0
100
AcDbSymbolTable
 70
     2
  0
VPORT
  5
91E
330
8
100
AcDbSymbolTableRecord
100
AcDbViewportTableRecord
  2
*Active
 70
     0
 10
0.0
 20
0.0
 11
1.0
 21
1.0
 12
13.59395330954775
 22
11.40116367938951
 13
0.0
 23
0.0
 14
0.0625
 24
0.0625
 15
0.25
 25
0.25
 16
0.0
 26
0.0
 36
1.0
 17
0.0
 27
0.0
 37
0.0
 40
57.63821954218031
 41
1.55012853470437
 42
50.0
 43
0.0
 44
0.0
 50
0.0
 51
0.0
 71
     0
 72
   100
 73
     1
 74
     0
 75
     0
 76
     0
 77
     0
 78
     0
281
     0
 65
     1
110
0.0
120
0.0
130
0.0
111
1.0
121
0.0
131
0.0
112
0.0
122
1.0
132
0.0
 79
     0
146
0.0
  0
ENDTAB
  0
TABLE
  2
LTYPE
  5
5
330
0
100
AcDbSymbolTable
 70
     2
  0
LTYPE
  5
13
330
5
100
AcDbSymbolTableRecord
100
AcDbLinetypeTableRecord
  2
ByBlock
 70
     0
  3

 72
    65
 73
     0
 40
0.0
  0
LTYPE
  5
14
330
5
100
AcDbSymbolTableRecord
100
AcDbLinetypeTableRecord
  2
ByLayer
 70
     0
  3

 72
    65
 73
     0
 40
0.0
  0
LTYPE
  5
15
330
5
100
AcDbSymbolTableRecord
100
AcDbLinetypeTableRecord
  2
CONTINUOUS
 70
     0
  3
Solid line
 72
    65
 73
     0
 40
0.0
  0
LTYPE
  5
41
330
5
100
AcDbSymbolTableRecord
100
AcDbLinetypeTableRecord
  2
HIDDEN
 70
     0
  3
_ _ _ _ _ _ _ _ _ _ _ _ _ _ _ _ _ _ _ _ _ _ _
 72
    65
 73
     2
 40
0.375
 49
0.25
 74
     0
 49
-0.125
 74
     0
  0
ENDTAB
  0
TABLE
  2
LAYER
  5
2
330
0
100
AcDbSymbolTable
 70
     2
  0
LAYER
  5
10
330
2
100
AcDbSymbolTableRecord
100
AcDbLayerTableRecord
  2
0
 70
     0
 62
     7
  6
CONTINUOUS
370
    -3
390
F
  0
ENDTAB
  0
TABLE
  2
STYLE
  5
3
330
0
100
AcDbSymbolTable
 70
     1
  0
STYLE
  5
11
330
3
100
AcDbSymbolTableRecord
100
AcDbTextStyleTableRecord
  2
STANDARD
 70
     0
 40
0.0
 41
1.0
 50
0.0
 71
     0
 42
0.450000000000004
  3
TXT
  4

  0
ENDTAB
  0
TABLE
  2
VIEW
  5
6
330
0
100
AcDbSymbolTable
 70
     0
  0
ENDTAB
  0
TABLE
  2
UCS
  5
7
330
0
100
AcDbSymbolTable
 70
     0
  0
ENDTAB
  0
TABLE
  2
APPID
  5
9
330
0
100
AcDbSymbolTable
 70
     1
  0
APPID
  5
12
330
9
100
AcDbSymbolTableRecord
100
AcDbRegAppTableRecord
  2
ACAD
 70
     0
  0
ENDTAB
  0
TABLE
  2
DIMSTYLE
  5
A
330
0
100
AcDbSymbolTable
 70
     1
100
AcDbDimStyleTable
  0
DIMSTYLE
105
6F7
330
A
100
AcDbSymbolTableRecord
100
AcDbDimStyleTableRecord
  2
Standard
 70
     0
  3

  4

340
11
  0
ENDTAB
  0
TABLE
  2
BLOCK_RECORD
  5
1
330
0
100
AcDbSymbolTable
 70
     1
  0
BLOCK_RECORD
  5
1E
102
{ACAD_XDICTIONARY
360
6F9
102
}
330
1
100
AcDbSymbolTableRecord
100
AcDbBlockTableRecord
  2
*Model_Space
340
21
  0
BLOCK_RECORD
  5
1A
330
1
100
AcDbSymbolTableRecord
100
AcDbBlockTableRecord
  2
*Paper_Space
340
1D
  0
ENDTAB
  0
ENDSEC
  0
SECTION
  2
BLOCKS
  0
BLOCK
  5
5E
330
1E
100
AcDbEntity
  8
0
100
AcDbBlockBegin
  2
*Model_Space
 70
     0
 10
0.0
 20
0.0
 30
0.0
  3
*Model_Space
  1

  4

  0
ENDBLK
  5
5F
330
1E
100
AcDbEntity
  8
0
100
AcDbBlockEnd
  0
BLOCK
  5
5C
330
1A
100
AcDbEntity
 67
     1
  8
0
100
AcDbBlockBegin
  2
*Paper_Space
 70
     0
 10
0.0
 20
0.0
 30
0.0
  3
*Paper_Space
  1

  4

  0
ENDBLK
  5
5D
330
1A
100
AcDbEntity
 67
     1
  8
0
100
AcDbBlockEnd
  0
ENDSEC
  0
SECTION
  2
ENTITIES
  0
TEXT
  5
5A6
330
1E
100
AcDbEntity
  8
0
100
AcDbText
 10
-25.30855726107625
 20
-17.19634988491679
 30
0.0
 40
0.450000000000004
  1
.
100
AcDbText
  0
TEXT
  5
6D7
330
1E
100
AcDbEntity
  8
0
100
AcDbText
 10
20.37014415734568
 20
-8.224265913643672
 30
0.0
 40
0.36
  1

 72
     1
 11
20.37014415734568
 21
-8.224265913643672
 31
0.0
100
AcDbText
  0
LINE
  5
850
330
1E
100
AcDbEntity
  8
0
100
AcDbLine
 10
16.48845056877183
 20
12.1572132963581
 30
0.0
 11
21.48845056877183
 21
12.1572132963581
 31
0.0
  0
LINE
  5
851
330
1E
100
AcDbEntity
  8
0
100
AcDbLine
 10
21.80095056877183
 20
0.0
 30
0.0
 11
15.92595056877183
 21
0.0
 31
0.0
  0
LINE
  5
852
330
1E
100
AcDbEntity
  8
0
100
AcDbLine
 10
21.80095056877183
 20
0.1875
 30
0.0
 11
15.92595056877183
 21
0.1875
 31
0.0
  0
LINE
  5
853
330
1E
100
AcDbEntity
  8
0
100
AcDbLine
 10
16.48845056877183
 20
0.1875
 30
0.0
 11
16.48845056877183
 21
12.1572132963581
 31
0.0
  0
CIRCLE
  5
854
330
1E
100
AcDbEntity
  8
0
100
AcDbCircle
 10
-4.221411165771244
 20
10.438
 30
0.0
 40
0.1405
  0
CIRCLE
  5
855
330
1E
100
AcDbEntity
  8
0
100
AcDbCircle
 10
5.528588834228756
 20
10.438
 30
0.0
 40
0.1405
  0
LINE
  5
856
330
1E
100
AcDbEntity
  8
0
100
AcDbLine
 10
-3.216088834228756
 20
12.687
 30
0.0
 11
-3.216088834228756
 21
0.1875
 31
0.0
  0
LINE
  5
857
330
1E
100
AcDbEntity
  8
0
100
AcDbLine
 10
-3.403588834228756
 20
12.687
 30
0.0
 11
-3.403588834228756
 21
0.1875
 31
0.0
  0
LINE
  5
858
330
1E
100
AcDbEntity
  8
0
100
AcDbLine
 10
1.840634727166815
 20
12.687
 30
0.0
 11
1.840634727166815
 21
0.1875
 31
0.0
  0
LINE
  5
859
330
1E
100
AcDbEntity
  8
0
100
AcDbLine
 10
-1.908911165771244
 20
12.687
 30
0.0
 11
-1.908911165771244
 21
0.1875
 31
0.0
  0
LINE
  5
85A
330
1E
100
AcDbEntity
  8
0
100
AcDbLine
 10
2.015691727166811
 20
12.687
 30
0.0
 11
2.015691727166811
 21
0.1875
 31
0.0
  0
LINE
  5
85B
330
1E
100
AcDbEntity
  8
0
100
AcDbLine
 10
3.403588834228756
 20
12.687
 30
0.0
 11
3.403588834228756
 21
0.1875
 31
0.0
  0
LINE
  5
85C
330
1E
100
AcDbEntity
  8
0
100
AcDbLine
 10
6.653588834228756
 20
5.999499999999998
 30
20.0
 11
6.653588834228756
 21
12.9375
 31
20.0
  0
LINE
  5
85D
330
1E
100
AcDbEntity
  8
0
100
AcDbLine
 10
-5.346411165771244
 20
12.9375
 30
20.0
 11
-5.346411165771244
 21
6.0
 31
20.0
  0
LINE
  5
85E
330
1E
100
AcDbEntity
  8
0
100
AcDbLine
 10
-3.716088834228756
 20
0.1875
 30
0.0
 11
3.716088834228756
 21
0.1875
 31
0.0
  0
LINE
  5
85F
330
1E
100
AcDbEntity
  8
0
100
AcDbLine
 10
3.716088834228756
 20
0.0
 30
0.0
 11
-3.716088834228756
 21
0.0
 31
0.0
  0
LINE
  5
860
330
1E
100
AcDbEntity
  8
0
100
AcDbLine
 10
-1.910942165771246
 20
5.999499999999998
 30
0.0
 11
1.840634727166801
 21
5.999500000000001
 31
0.0
  0
LINE
  5
861
330
1E
100
AcDbEntity
  8
0
100
AcDbLine
 10
-3.716088834228756
 20
0.0
 30
0.0
 11
-3.716088834228756
 21
0.1875
 31
0.0
  0
LINE
  5
862
330
1E
100
AcDbEntity
  8
0
100
AcDbLine
 10
-3.403588834228756
 20
5.999500000000001
 30
0.0
 11
-5.346411165771244
 21
5.999499999999998
 31
0.0
  0
CIRCLE
  5
863
330
1E
100
AcDbEntity
  8
0
100
AcDbCircle
 10
-4.846411165771244
 20
6.498999999999999
 30
0.0
 40
0.1405
  0
CIRCLE
  5
864
330
1E
100
AcDbEntity
  8
0
100
AcDbCircle
 10
-4.846411165771244
 20
8.126000000000001
 30
0.0
 40
0.1405
  0
CIRCLE
  5
865
330
1E
100
AcDbEntity
  8
0
100
AcDbCircle
 10
-4.221411165771244
 20
7.311999999999998
 30
0.0
 40
0.1405
  0
CIRCLE
  5
866
330
1E
100
AcDbEntity
  8
0
100
AcDbCircle
 10
-4.846411165771244
 20
9.626000000000001
 30
0.0
 40
0.1405
  0
LINE
  5
867
330
1E
100
AcDbEntity
  8
0
100
AcDbLine
 10
2.304736727166812
 20
0.1875
 30
0.0
 11
2.304736727166812
 21
0.0
 31
0.0
  0
LINE
  5
868
330
1E
100
AcDbEntity
  8
0
100
AcDbLine
 10
3.716088834228756
 20
0.1875
 30
0.0
 11
3.716088834228756
 21
0.0
 31
0.0
  0
LINE
  5
86C
330
1E
100
AcDbEntity
  8
0
100
AcDbLine
 10
3.403588834228756
 20
5.999499999999998
 30
0.0
 11
6.653588834228756
 21
5.999499999999998
 31
0.0
  0
CIRCLE
  5
870
330
1E
100
AcDbEntity
  8
0
100
AcDbCircle
 10
5.528588834228756
 20
7.311999999999998
 30
0.0
 40
0.1405
  0
CIRCLE
  5
871
330
1E
100
AcDbEntity
  8
0
100
AcDbCircle
 10
6.153588834228756
 20
6.498999999999999
 30
0.0
 40
0.1405
  0
CIRCLE
  5
872
330
1E
100
AcDbEntity
  8
0
100
AcDbCircle
 10
6.153588834228756
 20
8.126000000000001
 30
0.0
 40
0.1405
  0
CIRCLE
  5
873
330
1E
100
AcDbEntity
  8
0
100
AcDbCircle
 10
6.153588834228756
 20
9.626000000000001
 30
0.0
 40
0.1405
  0
CIRCLE
  5
874
330
1E
100
AcDbEntity
  8
0
100
AcDbCircle
 10
19.48845056877183
 20
3.6875
 30
0.0
 40
0.1405
  0
LINE
  5
875
330
1E
100
AcDbEntity
  8
0
100
AcDbLine
 10
15.92595056877183
 20
0.0
 30
0.0
 11
15.92595056877183
 21
0.1875
 31
0.0
  0
CIRCLE
  5
876
330
1E
100
AcDbEntity
  8
0
100
AcDbCircle
 10
16.92595056877183
 20
3.1875
 30
0.0
 40
0.1405
  0
CIRCLE
  5
877
330
1E
100
AcDbEntity
  8
0
100
AcDbCircle
 10
16.92595056877183
 20
6.1875
 30
0.0
 40
0.1405
  0
CIRCLE
  5
878
330
1E
100
AcDbEntity
  8
0
100
AcDbCircle
 10
19.48845056877183
 20
4.6875
 30
0.0
 40
0.1405
  0
CIRCLE
  5
879
330
1E
100
AcDbEntity
  8
0
100
AcDbCircle
 10
19.48845056877183
 20
6.6875
 30
0.0
 40
0.1405
  0
CIRCLE
  5
87A
330
1E
100
AcDbEntity
  8
0
100
AcDbCircle
 10
16.92595056877183
 20
8.1875
 30
0.0
 40
0.1405
  0
LINE
  5
87B
330
1E
100
AcDbEntity
  8
0
100
AcDbLine
 10
4.277055834228762
 20
24.3125
 30
0.0
 11
-2.969878165771249
 21
24.3125
 31
0.0
  0
LINE
  5
87C
330
1E
100
AcDbEntity
  8
0
100
AcDbLine
 10
2.108464303015765
 20
18.31249999999999
 30
0.0
 11
-3.989360358202376
 21
18.31249999999999
 31
0.0
  0
LINE
  5
87E
330
1E
100
AcDbEntity
  8
0
100
AcDbLine
 10
-2.391458850605218
 20
24.3125
 30
0.0
 11
-3.989360358202376
 21
18.31249999999999
 31
0.0
  0
CIRCLE
  5
87F
330
1E
100
AcDbEntity
  8
0
100
AcDbCircle
 10
-4.846411165771244
 20
11.251
 30
0.0
 40
0.1405
  0
LINE
  5
880
330
1E
100
AcDbEntity
  8
0
  6
HIDDEN
100
AcDbLine
 10
-3.574091910479638
 20
12.687
 30
0.0
 11
-5.346411165771244
 21
12.687
 31
0.0
  0
LINE
  5
881
330
1E
100
AcDbEntity
  8
0
100
AcDbLine
 10
-1.908911165771244
 20
12.687
 30
0.0
 11
-3.403588834228756
 21
12.687
 31
0.0
  0
CIRCLE
  5
882
330
1E
100
AcDbEntity
  8
0
100
AcDbCircle
 10
-4.846411165771244
 20
26.563
 30
0.0
 40
0.1405
  0
CIRCLE
  5
883
330
1E
100
AcDbEntity
  8
0
100
AcDbCircle
 10
-1.158911165771244
 20
26.563
 30
0.0
 40
0.1405
  0
LINE
  5
885
330
1E
100
AcDbEntity
  8
0
100
AcDbLine
 10
3.706365810612923
 20
24.3125
 30
0.0
 11
2.108464303015765
 21
18.31249999999999
 31
0.0
  0
LINE
  5
886
330
1E
100
AcDbEntity
  8
0
100
AcDbLine
 10
3.403588834228756
 20
12.687
 30
0.0
 11
1.840634727166815
 21
12.687
 31
0.0
  0
CIRCLE
  5
887
330
1E
100
AcDbEntity
  8
0
100
AcDbCircle
 10
6.153588834228756
 20
11.25
 30
0.0
 40
0.1405
  0
CIRCLE
  5
888
330
1E
100
AcDbEntity
  8
0
100
AcDbCircle
 10
2.466088834228756
 20
26.563
 30
0.0
 40
0.1405
  0
CIRCLE
  5
889
330
1E
100
AcDbEntity
  8
0
100
AcDbCircle
 10
4.153588834228756
 20
26.0625
 30
0.0
 40
0.1405
  0
CIRCLE
  5
88A
330
1E
100
AcDbEntity
  8
0
100
AcDbCircle
 10
6.153588834228756
 20
26.563
 30
0.0
 40
0.1405
  0
LINE
  5
88B
330
1E
100
AcDbEntity
  8
0
  6
HIDDEN
100
AcDbLine
 10
1.71716772716681
 20
12.6875
 30
20.0
 11
-1.701520165771242
 21
12.6875
 31
20.0
  0
LINE
  5
88C
330
1E
100
AcDbEntity
  8
0
100
AcDbLine
 10
6.653588834228756
 20
12.9375
 30
20.0
 11
-5.346411165771244
 21
12.9375
 31
20.0
  0
LINE
  5
88D
330
1E
100
AcDbEntity
  8
0
  6
HIDDEN
100
AcDbLine
 10
6.653588834228756
 20
24.5625
 30
20.0
 11
-5.346411165771244
 21
24.5625
 31
20.0
  0
LINE
  5
88E
330
1E
100
AcDbEntity
  8
0
100
AcDbLine
 10
6.653588834228756
 20
27.0625
 30
20.0
 11
-5.346411165771244
 21
27.0625
 31
20.0
  0
LINE
  5
88F
330
1E
100
AcDbEntity
  8
0
100
AcDbLine
 10
-5.346411165771244
 20
24.3125
 30
20.0
 11
6.653588834228756
 21
24.3125
 31
20.0
  0
LINE
  5
890
330
1E
100
AcDbEntity
  8
0
100
AcDbLine
 10
-5.346411165771244
 20
27.0625
 30
20.0
 11
-5.346411165771244
 21
24.3125
 31
20.0
  0
CIRCLE
  5
891
330
1E
100
AcDbEntity
  8
0
100
AcDbCircle
 10
-2.846411165771244
 20
26.0625
 30
20.0
 40
0.1405
  0
LINE
  5
892
330
1E
100
AcDbEntity
  8
0
  6
HIDDEN
100
AcDbLine
 10
6.653588834228756
 20
12.6875
 30
20.0
 11
3.528588834228756
 21
12.6875
 31
20.0
  0
LINE
  5
893
330
1E
100
AcDbEntity
  8
0
100
AcDbLine
 10
6.653588834228756
 20
24.3125
 30
20.0
 11
6.653588834228756
 21
27.0625
 31
20.0
  0
LINE
  5
894
330
1E
100
AcDbEntity
  8
0
100
AcDbLine
 10
21.73845056877183
 20
11.9072132963581
 30
0.0
 11
21.73845056877183
 21
5.999499999999998
 31
0.0
  0
LINE
  5
895
330
1E
100
AcDbEntity
  8
0
100
AcDbLine
 10
21.48845056877183
 20
12.1572132963581
 30
0.0
 11
21.48845056877183
 21
0.1875
 31
0.0
  0
LINE
  5
896
330
1E
100
AcDbEntity
  8
0
100
AcDbLine
 10
21.80095056877183
 20
0.1875
 30
0.0
 11
21.80095056877183
 21
0.0
 31
0.0
  0
LINE
  5
897
330
1E
100
AcDbEntity
  8
0
100
AcDbLine
 10
21.73845056877183
 20
5.999499999999998
 30
0.0
 11
21.48845056877183
 21
5.999499999999998
 31
0.0
  0
LINE
  5
898
330
1E
100
AcDbEntity
  8
0
100
AcDbLine
 10
24.23845056877183
 20
12.1572132963581
 30
0.0
 11
21.98845056877183
 21
12.1572132963581
 31
0.0
  0
LINE
  5
899
330
1E
100
AcDbEntity
  8
0
100
AcDbLine
 10
21.98845056877183
 20
12.4072132963581
 30
0.0
 11
24.23845056877183
 21
12.4072132963581
 31
0.0
  0
ARC
  5
89A
330
1E
100
AcDbEntity
  8
0
100
AcDbCircle
 10
21.98845056877183
 20
11.9072132963581
 30
0.0
 40
0.25
100
AcDbArc
 50
90.0
 51
180.0
  0
ARC
  5
89B
330
1E
100
AcDbEntity
  8
0
100
AcDbCircle
 10
21.98845056877183
 20
11.9072132963581
 30
0.0
 40
0.5
100
AcDbArc
 50
90.0
 51
180.0
  0
LINE
  5
89C
330
1E
100
AcDbEntity
  8
0
100
AcDbLine
 10
24.23845056877183
 20
12.4072132963581
 30
0.0
 11
24.23845056877183
 21
12.1572132963581
 31
0.0
  0
LINE
  5
8B9
330
1E
100
AcDbEntity
  8
0
100
AcDbLine
 10
3.173882019613931
 20
24.3125
 30
0.0
 11
1.566186865027191
 21
18.31249999999999
 31
0.0
  0
LINE
  5
8BA
330
1E
100
AcDbEntity
  8
0
100
AcDbLine
 10
3.391283276981781
 20
24.3125
 30
0.0
 11
1.783588122395042
 21
18.31249999999999
 31
0.0
  0
LINE
  5
8BC
330
1E
100
AcDbEntity
  8
0
100
AcDbLine
 10
-2.059530062083336
 20
24.3125
 30
0.0
 11
-3.667225216670076
 21
18.31249999999999
 31
0.0
  0
LINE
  5
8BD
330
1E
100
AcDbEntity
  8
0
100
AcDbLine
 10
-1.842128804715486
 20
24.3125
 30
0.0
 11
-3.449823959302226
 21
18.31249999999999
 31
0.0
  0
LINE
  5
8BE
330
1E
100
AcDbEntity
  8
0
100
AcDbLine
 10
2.224103757285562
 20
6.430048546310115
 30
0.0
 11
2.221107181071446
 21
6.372357876651122
 31
0.0
  0
ARC
  5
8BF
330
1E
100
AcDbEntity
  8
0
100
AcDbCircle
 10
1.954580951591691
 20
6.401762027836792
 30
0.0
 40
0.2681433107643089
100
AcDbArc
 50
344.6411265086771
 51
353.7043790693289
  0
ARC
  5
8C0
330
1E
100
AcDbEntity
  8
0
100
AcDbCircle
 10
2.097409798507702
 20
6.362530686973114
 30
0.0
 40
0.1200245151395826
100
AcDbArc
 50
326.1740825089441
 51
344.6411265086693
  0
LINE
  5
8C1
330
1E
100
AcDbEntity
  8
0
100
AcDbLine
 10
2.197118093607173
 20
6.295716466010443
 30
0.0
 11
2.185489143957327
 21
6.289465008394849
 31
0.0
  0
LINE
  5
8C2
330
1E
100
AcDbEntity
  8
0
100
AcDbLine
 10
2.185489143957327
 20
6.289465008394849
 30
0.0
 11
2.173784936416197
 21
6.295574404282487
 31
0.0
  0
ARC
  5
8C3
330
1E
100
AcDbEntity
  8
0
100
AcDbCircle
 10
2.272672285664847
 20
6.363597756104298
 30
0.0
 40
0.1200245151396091
100
AcDbArc
 50
196.0565447754905
 51
214.5235887752109
  0
ARC
  5
8C4
330
1E
100
AcDbEntity
  8
0
100
AcDbCircle
 10
2.415012849084794
 20
6.404565324040037
 30
0.0
 40
0.2681433107641938
100
AcDbArc
 50
186.9932922148235
 51
196.0565447754831
  0
LINE
  5
8C5
330
1E
100
AcDbEntity
  8
0
100
AcDbLine
 10
2.148864413959316
 20
6.371918033373856
 30
0.0
 11
2.145165597527083
 21
6.429567938765874
 31
0.0
  0
LINE
  5
8C6
330
1E
100
AcDbEntity
  8
0
100
AcDbLine
 10
2.145165597527083
 20
6.429567938765874
 30
0.0
 11
2.148162173741198
 21
6.487258608424863
 31
0.0
  0
ARC
  5
8C7
330
1E
100
AcDbEntity
  8
0
100
AcDbCircle
 10
2.414688403220895
 20
6.457854457239211
 30
0.0
 40
0.2681433107642487
100
AcDbArc
 50
164.6411265086767
 51
173.7043790693313
  0
ARC
  5
8C8
330
1E
100
AcDbEntity
  8
0
100
AcDbCircle
 10
2.271859556305017
 20
6.497085798102887
 30
0.0
 40
0.1200245151396513
100
AcDbArc
 50
146.1740825089712
 51
164.6411265086845
  0
LINE
  5
8C9
330
1E
100
AcDbEntity
  8
0
100
AcDbLine
 10
2.172151261205457
 20
6.563900019065549
 30
0.0
 11
2.183780210855304
 21
6.57015147668114
 31
0.0
  0
LINE
  5
8CA
330
1E
100
AcDbEntity
  8
0
100
AcDbLine
 10
2.183780210855304
 20
6.57015147668114
 30
0.0
 11
2.195484418396447
 21
6.564042080793502
 31
0.0
  0
ARC
  5
8CB
330
1E
100
AcDbEntity
  8
0
100
AcDbCircle
 10
2.096597069147804
 20
6.496018728971695
 30
0.0
 40
0.120024515139602
100
AcDbArc
 50
16.05654477548972
 51
34.52358877521122
  0
ARC
  5
8CC
330
1E
100
AcDbEntity
  8
0
100
AcDbCircle
 10
1.954256505727915
 20
6.455051161035957
 30
0.0
 40
0.26814331076413
100
AcDbArc
 50
6.993292214826299
 51
16.05654477548585
  0
LINE
  5
8CD
330
1E
100
AcDbEntity
  8
0
100
AcDbLine
 10
2.220404940853328
 20
6.487698451702144
 30
0.0
 11
2.224103757285562
 21
6.430048546310115
 31
0.0
  0
LINE
  5
8CE
330
1E
100
AcDbEntity
  8
0
100
AcDbLine
 10
2.866340516175569
 20
4.682139509503671
 30
0.0
 11
2.863343939961439
 21
4.624448839844675
 31
0.0
  0
ARC
  5
8CF
330
1E
100
AcDbEntity
  8
0
100
AcDbCircle
 10
2.596817710481706
 20
4.653852991030346
 30
0.0
 40
0.2681433107642871
100
AcDbArc
 50
344.6411265086762
 51
353.704379069328
  0
ARC
  5
8D0
330
1E
100
AcDbEntity
  8
0
100
AcDbCircle
 10
2.739646557397691
 20
4.614621650166625
 30
0.0
 40
0.1200245151395745
100
AcDbArc
 50
326.1740825089655
 51
344.6411265086907
  0
LINE
  5
8D1
330
1E
100
AcDbEntity
  8
0
100
AcDbLine
 10
2.839354852497181
 20
4.547807429203996
 30
0.0
 11
2.827725902847334
 21
4.541555971588402
 31
0.0
  0
LINE
  5
8D2
330
1E
100
AcDbEntity
  8
0
100
AcDbLine
 10
2.827725902847334
 20
4.541555971588402
 30
0.0
 11
2.816021695306191
 21
4.547665367476039
 31
0.0
  0
ARC
  5
8D3
330
1E
100
AcDbEntity
  8
0
100
AcDbCircle
 10
2.914909044554851
 20
4.615688719297852
 30
0.0
 40
0.1200245151396193
100
AcDbArc
 50
196.0565447754883
 51
214.5235887752086
  0
ARC
  5
8D4
330
1E
100
AcDbEntity
  8
0
100
AcDbCircle
 10
3.057249607974772
 20
4.656656287233502
 30
0.0
 40
0.268143310764154
100
AcDbArc
 50
186.9932922148056
 51
196.0565447754652
  0
LINE
  5
8D5
330
1E
100
AcDbEntity
  8
0
100
AcDbLine
 10
2.791101172849324
 20
4.624008996567408
 30
0.0
 11
2.78740235641709
 21
4.68165890195943
 31
0.0
  0
LINE
  5
8D6
330
1E
100
AcDbEntity
  8
0
100
AcDbLine
 10
2.78740235641709
 20
4.68165890195943
 30
0.0
 11
2.790398932631206
 21
4.739349571618416
 31
0.0
  0
ARC
  5
8D7
330
1E
100
AcDbEntity
  8
0
100
AcDbCircle
 10
3.056925162110924
 20
4.709945420432765
 30
0.0
 40
0.2681433107642706
100
AcDbArc
 50
164.6411265086776
 51
173.7043790693322
  0
ARC
  5
8D8
330
1E
100
AcDbEntity
  8
0
100
AcDbCircle
 10
2.914096315195013
 20
4.749176761296441
 30
0.0
 40
0.1200245151396411
100
AcDbArc
 50
146.174082508969
 51
164.6411265086823
  0
LINE
  5
8D9
330
1E
100
AcDbEntity
  8
0
100
AcDbLine
 10
2.814388020095464
 20
4.815990982259102
 30
0.0
 11
2.826016969745311
 21
4.822242439874696
 31
0.0
  0
LINE
  5
8DA
330
1E
100
AcDbEntity
  8
0
100
AcDbLine
 10
2.826016969745311
 20
4.822242439874696
 30
0.0
 11
2.837721177286454
 21
4.816133043987058
 31
0.0
  0
ARC
  5
8DB
330
1E
100
AcDbEntity
  8
0
100
AcDbCircle
 10
2.7388338280378
 20
4.748109692165249
 30
0.0
 40
0.1200245151396118
100
AcDbArc
 50
16.0565447754875
 51
34.52358877520904
  0
ARC
  5
8DC
330
1E
100
AcDbEntity
  8
0
100
AcDbCircle
 10
2.596493264617915
 20
4.707142124229598
 30
0.0
 40
0.2681433107641122
100
AcDbArc
 50
6.993292214807647
 51
16.05654477546719
  0
LINE
  5
8DD
330
1E
100
AcDbEntity
  8
0
100
AcDbLine
 10
2.862641699743321
 20
4.739789414895697
 30
0.0
 11
2.866340516175569
 21
4.682139509503671
 31
0.0
  0
LINE
  5
8DE
330
1E
100
AcDbEntity
  8
0
100
AcDbLine
 10
2.224103757285562
 20
4.592305758343745
 30
0.0
 11
2.221107181071446
 21
4.534615088684749
 31
0.0
  0
ARC
  5
8DF
330
1E
100
AcDbEntity
  8
0
100
AcDbCircle
 10
1.954580951591713
 20
4.564019239870421
 30
0.0
 40
0.2681433107642868
100
AcDbArc
 50
344.6411265086762
 51
353.704379069328
  0
ARC
  5
8E0
330
1E
100
AcDbEntity
  8
0
100
AcDbCircle
 10
2.097409798507702
 20
4.524787899006745
 30
0.0
 40
0.1200245151395826
100
AcDbArc
 50
326.1740825089441
 51
344.6411265086693
  0
LINE
  5
8E1
330
1E
100
AcDbEntity
  8
0
100
AcDbLine
 10
2.197118093607173
 20
4.457973678044073
 30
0.0
 11
2.185489143957327
 21
4.451722220428476
 31
0.0
  0
LINE
  5
8E2
330
1E
100
AcDbEntity
  8
0
100
AcDbLine
 10
2.185489143957327
 20
4.451722220428476
 30
0.0
 11
2.173784936416197
 21
4.457831616316117
 31
0.0
  0
ARC
  5
8E3
330
1E
100
AcDbEntity
  8
0
100
AcDbCircle
 10
2.272672285664847
 20
4.525854968137928
 30
0.0
 40
0.1200245151396091
100
AcDbArc
 50
196.0565447754905
 51
214.5235887752109
  0
ARC
  5
8E4
330
1E
100
AcDbEntity
  8
0
100
AcDbCircle
 10
2.415012849084794
 20
4.566822536073667
 30
0.0
 40
0.2681433107641938
100
AcDbArc
 50
186.9932922148235
 51
196.0565447754831
  0
LINE
  5
8E5
330
1E
100
AcDbEntity
  8
0
100
AcDbLine
 10
2.148864413959316
 20
4.534175245407486
 30
0.0
 11
2.145165597527083
 21
4.591825150799505
 31
0.0
  0
LINE
  5
8E6
330
1E
100
AcDbEntity
  8
0
100
AcDbLine
 10
2.145165597527083
 20
4.591825150799505
 30
0.0
 11
2.148162173741198
 21
4.649515820458493
 31
0.0
  0
ARC
  5
8E7
330
1E
100
AcDbEntity
  8
0
100
AcDbCircle
 10
2.414688403220895
 20
4.620111669272841
 30
0.0
 40
0.2681433107642487
100
AcDbArc
 50
164.6411265086767
 51
173.7043790693313
  0
ARC
  5
8E8
330
1E
100
AcDbEntity
  8
0
100
AcDbCircle
 10
2.271859556305006
 20
4.659343010136515
 30
0.0
 40
0.1200245151396411
100
AcDbArc
 50
146.174082508969
 51
164.6411265086823
  0
LINE
  5
8E9
330
1E
100
AcDbEntity
  8
0
100
AcDbLine
 10
2.172151261205457
 20
4.726157231099176
 30
0.0
 11
2.183780210855304
 21
4.73240868871477
 31
0.0
  0
LINE
  5
8EA
330
1E
100
AcDbEntity
  8
0
100
AcDbLine
 10
2.183780210855304
 20
4.73240868871477
 30
0.0
 11
2.195484418396447
 21
4.726299292827132
 31
0.0
  0
ARC
  5
8EB
330
1E
100
AcDbEntity
  8
0
100
AcDbCircle
 10
2.096597069147793
 20
4.658275941005323
 30
0.0
 40
0.1200245151396118
100
AcDbArc
 50
16.0565447754875
 51
34.52358877520904
  0
ARC
  5
8EC
330
1E
100
AcDbEntity
  8
0
100
AcDbCircle
 10
1.954256505727915
 20
4.617308373069584
 30
0.0
 40
0.26814331076413
100
AcDbArc
 50
6.993292214826299
 51
16.05654477548585
  0
LINE
  5
8ED
330
1E
100
AcDbEntity
  8
0
100
AcDbLine
 10
2.220404940853328
 20
4.649955663735771
 30
0.0
 11
2.224103757285562
 21
4.592305758343745
 31
0.0
  0
LINE
  5
8EE
330
1E
100
AcDbEntity
  8
0
100
AcDbLine
 10
2.881324585089942
 20
3.183931763669573
 30
0.0
 11
2.878328008875826
 21
3.126241094010581
 31
0.0
  0
ARC
  5
8EF
330
1E
100
AcDbEntity
  8
0
100
AcDbCircle
 10
2.611801779396071
 20
3.15564524519625
 30
0.0
 40
0.2681433107643089
100
AcDbArc
 50
344.6411265086772
 51
353.704379069329
  0
ARC
  5
8F0
330
1E
100
AcDbEntity
  8
0
100
AcDbCircle
 10
2.754630626312082
 20
3.116413904332573
 30
0.0
 40
0.1200245151395826
100
AcDbArc
 50
326.1740825089441
 51
344.6411265086693
  0
LINE
  5
8F1
330
1E
100
AcDbEntity
  8
0
100
AcDbLine
 10
2.854338921411554
 20
3.049599683369902
 30
0.0
 11
2.842709971761721
 21
3.043348225754308
 31
0.0
  0
LINE
  5
8F2
330
1E
100
AcDbEntity
  8
0
100
AcDbLine
 10
2.842709971761721
 20
3.043348225754308
 30
0.0
 11
2.831005764220564
 21
3.049457621641945
 31
0.0
  0
ARC
  5
8F3
330
1E
100
AcDbEntity
  8
0
100
AcDbCircle
 10
2.92989311346922
 20
3.117480973463712
 30
0.0
 40
0.1200245151395898
100
AcDbArc
 50
196.0565447754711
 51
214.5235887751916
  0
ARC
  5
8F4
330
1E
100
AcDbEntity
  8
0
100
AcDbCircle
 10
3.072233676889175
 20
3.158448541399496
 30
0.0
 40
0.2681433107641938
100
AcDbArc
 50
186.9932922148235
 51
196.0565447754831
  0
LINE
  5
8F5
330
1E
100
AcDbEntity
  8
0
100
AcDbLine
 10
2.806085241763697
 20
3.125801250733314
 30
0.0
 11
2.802386425331463
 21
3.183451156125333
 31
0.0
  0
LINE
  5
8F6
330
1E
100
AcDbEntity
  8
0
100
AcDbLine
 10
2.802386425331463
 20
3.183451156125333
 30
0.0
 11
2.805383001545579
 21
3.241141825784322
 31
0.0
  0
ARC
  5
8F7
330
1E
100
AcDbEntity
  8
0
100
AcDbCircle
 10
3.071909231025275
 20
3.21173767459867
 30
0.0
 40
0.2681433107642487
100
AcDbArc
 50
164.6411265086767
 51
173.7043790693313
  0
ARC
  5
8F8
330
1E
100
AcDbEntity
  8
0
100
AcDbCircle
 10
2.929080384109404
 20
3.250969015462302
 30
0.0
 40
0.1200245151396697
100
AcDbArc
 50
146.1740825089521
 51
164.6411265086654
  0
LINE
  5
8F9
330
1E
100
AcDbEntity
  8
0
100
AcDbLine
 10
2.829372089009851
 20
3.317783236425008
 30
0.0
 11
2.841001038659684
 21
3.324034694040599
 31
0.0
  0
LINE
  5
8FA
330
1E
100
AcDbEntity
  8
0
100
AcDbLine
 10
2.841001038659684
 20
3.324034694040599
 30
0.0
 11
2.852705246200841
 21
3.317925298152961
 31
0.0
  0
ARC
  5
8FB
330
1E
100
AcDbEntity
  8
0
100
AcDbCircle
 10
2.753817896952191
 20
3.249901946331197
 30
0.0
 40
0.1200245151395832
100
AcDbArc
 50
16.05654477547069
 51
34.52358877519218
  0
ARC
  5
8FC
330
1E
100
AcDbEntity
  8
0
100
AcDbCircle
 10
2.611477333532295
 20
3.208934378395415
 30
0.0
 40
0.2681433107641301
100
AcDbArc
 50
6.993292214826393
 51
16.05654477548594
  0
LINE
  5
8FD
330
1E
100
AcDbEntity
  8
0
100
AcDbLine
 10
2.877625768657708
 20
3.241581669061603
 30
0.0
 11
2.881324585089942
 21
3.183931763669573
 31
0.0
  0
LINE
  5
8FE
330
1E
100
AcDbEntity
  8
0
100
AcDbLine
 10
2.881324585089942
 20
1.93542530880783
 30
0.0
 11
2.878328008875826
 21
1.877734639148834
 31
0.0
  0
ARC
  5
8FF
330
1E
100
AcDbEntity
  8
0
100
AcDbCircle
 10
2.611801779396093
 20
1.907138790334505
 30
0.0
 40
0.268143310764287
100
AcDbArc
 50
344.6411265086763
 51
353.7043790693281
  0
ARC
  5
900
330
1E
100
AcDbEntity
  8
0
100
AcDbCircle
 10
2.754630626312071
 20
1.867907449470828
 30
0.0
 40
0.120024515139593
100
AcDbArc
 50
326.1740825089462
 51
344.6411265086714
  0
LINE
  5
901
330
1E
100
AcDbEntity
  8
0
100
AcDbLine
 10
2.854338921411554
 20
1.801093228508155
 30
0.0
 11
2.842709971761721
 21
1.79484177089256
 31
0.0
  0
LINE
  5
902
330
1E
100
AcDbEntity
  8
0
100
AcDbLine
 10
2.842709971761721
 20
1.79484177089256
 30
0.0
 11
2.831005764220564
 21
1.800951166780198
 31
0.0
  0
ARC
  5
903
330
1E
100
AcDbEntity
  8
0
100
AcDbCircle
 10
2.929893113469231
 20
1.868974518601967
 30
0.0
 40
0.1200245151396002
100
AcDbArc
 50
196.056544775469
 51
214.5235887751894
  0
ARC
  5
904
330
1E
100
AcDbEntity
  8
0
100
AcDbCircle
 10
3.072233676889153
 20
1.90994208653775
 30
0.0
 40
0.268143310764172
100
AcDbArc
 50
186.9932922148244
 51
196.0565447754841
  0
LINE
  5
905
330
1E
100
AcDbEntity
  8
0
100
AcDbLine
 10
2.806085241763697
 20
1.877294795871567
 30
0.0
 11
2.802386425331463
 21
1.934944701263589
 31
0.0
  0
LINE
  5
906
330
1E
100
AcDbEntity
  8
0
100
AcDbLine
 10
2.802386425331463
 20
1.934944701263589
 30
0.0
 11
2.805383001545579
 21
1.992635370922574
 31
0.0
  0
ARC
  5
907
330
1E
100
AcDbEntity
  8
0
100
AcDbCircle
 10
3.071909231025297
 20
1.963231219736924
 30
0.0
 40
0.2681433107642706
100
AcDbArc
 50
164.6411265086776
 51
173.7043790693322
  0
ARC
  5
908
330
1E
100
AcDbEntity
  8
0
100
AcDbCircle
 10
2.929080384109393
 20
2.002462560600557
 30
0.0
 40
0.1200245151396594
100
AcDbArc
 50
146.1740825089498
 51
164.6411265086631
  0
LINE
  5
909
330
1E
100
AcDbEntity
  8
0
100
AcDbLine
 10
2.829372089009851
 20
2.069276781563261
 30
0.0
 11
2.841001038659684
 21
2.075528239178855
 31
0.0
  0
LINE
  5
90A
330
1E
100
AcDbEntity
  8
0
100
AcDbLine
 10
2.841001038659684
 20
2.075528239178855
 30
0.0
 11
2.852705246200841
 21
2.069418843291217
 31
0.0
  0
ARC
  5
90B
330
1E
100
AcDbEntity
  8
0
100
AcDbCircle
 10
2.75381789695218
 20
2.001395491469451
 30
0.0
 40
0.120024515139593
100
AcDbArc
 50
16.05654477546847
 51
34.52358877519
  0
ARC
  5
90C
330
1E
100
AcDbEntity
  8
0
100
AcDbCircle
 10
2.611477333532295
 20
1.960427923533668
 30
0.0
 40
0.2681433107641301
100
AcDbArc
 50
6.993292214826393
 51
16.05654477548594
  0
LINE
  5
90D
330
1E
100
AcDbEntity
  8
0
100
AcDbLine
 10
2.877625768657708
 20
1.993075214199855
 30
0.0
 11
2.881324585089942
 21
1.93542530880783
 31
0.0
  0
LINE
  5
90E
330
1E
100
AcDbEntity
  8
0
100
AcDbLine
 10
2.286603757285562
 20
1.685724017835479
 30
0.0
 11
2.283607181071446
 21
1.628033348176487
 31
0.0
  0
ARC
  5
90F
330
1E
100
AcDbEntity
  8
0
100
AcDbCircle
 10
2.017080951591691
 20
1.657437499362156
 30
0.0
 40
0.2681433107643089
100
AcDbArc
 50
344.6411265086772
 51
353.704379069329
  0
ARC
  5
910
330
1E
100
AcDbEntity
  8
0
100
AcDbCircle
 10
2.159909798507691
 20
1.618206158498478
 30
0.0
 40
0.120024515139593
100
AcDbArc
 50
326.1740825089462
 51
344.6411265086714
  0
LINE
  5
911
330
1E
100
AcDbEntity
  8
0
100
AcDbLine
 10
2.259618093607173
 20
1.551391937535804
 30
0.0
 11
2.247989143957327
 21
1.545140479920214
 31
0.0
  0
LINE
  5
912
330
1E
100
AcDbEntity
  8
0
100
AcDbLine
 10
2.247989143957327
 20
1.545140479920214
 30
0.0
 11
2.236284936416197
 21
1.551249875807848
 31
0.0
  0
ARC
  5
913
330
1E
100
AcDbEntity
  8
0
100
AcDbCircle
 10
2.335172285664858
 20
1.61927322762966
 30
0.0
 40
0.120024515139619
100
AcDbArc
 50
196.056544775488
 51
214.5235887752085
  0
ARC
  5
914
330
1E
100
AcDbEntity
  8
0
100
AcDbCircle
 10
2.477512849084772
 20
1.6602407955654
 30
0.0
 40
0.268143310764172
100
AcDbArc
 50
186.9932922148244
 51
196.0565447754841
  0
LINE
  5
915
330
1E
100
AcDbEntity
  8
0
100
AcDbLine
 10
2.211364413959316
 20
1.627593504899217
 30
0.0
 11
2.207665597527083
 21
1.685243410291239
 31
0.0
  0
LINE
  5
916
330
1E
100
AcDbEntity
  8
0
100
AcDbLine
 10
2.207665597527083
 20
1.685243410291239
 30
0.0
 11
2.210662173741198
 21
1.742934079950224
 31
0.0
  0
ARC
  5
917
330
1E
100
AcDbEntity
  8
0
100
AcDbCircle
 10
2.477188403220917
 20
1.713529928764574
 30
0.0
 40
0.2681433107642706
100
AcDbArc
 50
164.6411265086776
 51
173.7043790693322
  0
ARC
  5
918
330
1E
100
AcDbEntity
  8
0
100
AcDbCircle
 10
2.334359556305017
 20
1.752761269628252
 30
0.0
 40
0.1200245151396512
100
AcDbArc
 50
146.1740825089714
 51
164.6411265086847
  0
LINE
  5
919
330
1E
100
AcDbEntity
  8
0
100
AcDbLine
 10
2.234651261205457
 20
1.819575490590914
 30
0.0
 11
2.246280210855304
 21
1.825826948206505
 31
0.0
  0
LINE
  5
91A
330
1E
100
AcDbEntity
  8
0
100
AcDbLine
 10
2.246280210855304
 20
1.825826948206505
 30
0.0
 11
2.257984418396447
 21
1.819717552318867
 31
0.0
  0
ARC
  5
91B
330
1E
100
AcDbEntity
  8
0
100
AcDbCircle
 10
2.159097069147793
 20
1.751694200497058
 30
0.0
 40
0.1200245151396118
100
AcDbArc
 50
16.0565447754875
 51
34.52358877520904
  0
ARC
  5
91C
330
1E
100
AcDbEntity
  8
0
100
AcDbCircle
 10
2.016756505727937
 20
1.71072663256132
 30
0.0
 40
0.2681433107641083
100
AcDbArc
 50
6.993292214827348
 51
16.05654477548689
  0
LINE
  5
91D
330
1E
100
AcDbEntity
  8
0
100
AcDbLine
 10
2.282904940853328
 20
1.743373923227509
 30
0.0
 11
2.286603757285562
 21
1.685724017835479
 31
0.0
  0
ENDSEC
  0
SECTION
  2
OBJECTS
  0
DICTIONARY
  5
C
330
0
100
AcDbDictionary
281
     1
  3
ACAD_COLOR
350
8A5
  3
ACAD_GROUP
350
D
  3
ACAD_LAYOUT
350
19
  3
ACAD_MATERIAL
350
8A4
  3
ACAD_MLINESTYLE
350
16
  3
ACAD_PLOTSETTINGS
350
18
  3
ACAD_PLOTSTYLENAME
350
E
  3
ACAD_TABLESTYLE
350
8A6
  3
ACDBHEADERROUNDTRIPXREC
350
925
  3
AcDbVariableDictionary
350
8B2
  0
DICTIONARY
  5
6F9
330
1E
100
AcDbDictionary
280
     1
281
     1
  3
ACAD_SORTENTS
360
8BB
  0
DICTIONARY
  5
8A5
102
{ACAD_REACTORS
330
C
102
}
330
C
100
AcDbDictionary
281
     1
  0
DICTIONARY
  5
D
102
{ACAD_REACTORS
330
C
102
}
330
C
100
AcDbDictionary
281
     1
  0
DICTIONARY
  5
19
102
{ACAD_REACTORS
330
C
102
}
330
C
100
AcDbDictionary
281
     1
  3
Layout1
350
1D
  3
Model
350
21
  0
DICTIONARY
  5
8A4
102
{ACAD_REACTORS
330
C
102
}
330
C
100
AcDbDictionary
281
     1
  0
DICTIONARY
  5
16
102
{ACAD_REACTORS
330
C
102
}
330
C
100
AcDbDictionary
281
     1
  3
Standard
350
17
  0
DICTIONARY
  5
18
102
{ACAD_REACTORS
330
C
102
}
330
C
100
AcDbDictionary
281
     1
  0
ACDBDICTIONARYWDFLT
  5
E
102
{ACAD_REACTORS
330
C
102
}
330
C
100
AcDbDictionary
281
     1
  3
Normal
350
F
100
AcDbDictionaryWithDefault
340
F
  0
DICTIONARY
  5
8A6
102
{ACAD_REACTORS
330
C
102
}
330
C
100
AcDbDictionary
281
     1
  3
Standard
350
8A7
  0
DICTIONARY
  5
925
102
{ACAD_REACTORS
330
C
102
}
330
C
100
AcDbDictionary
281
     1
  3
COLORDICT
350
926
  3
MATERIALDICT
350
927
  0
DICTIONARY
  5
8B2
102
{ACAD_REACTORS
330
C
102
}
330
C
100
AcDbDictionary
281
     1
  3
CTABLESTYLE
350
8B3
  0
SORTENTSTABLE
  5
8BB
102
{ACAD_REACTORS
330
6F9
102
}
330
6F9
100
AcDbSortentsTable
330
1E
331
0
  5
869
331
916
  5
877
331
8E6
  5
8C7
331
8F4
  5
897
331
901
  5
883
331
91D
  5
87F
331
907
  5
88A
331
8C8
  5
8E9
331
863
  5
863
331
90B
  5
88E
331
908
  5
88B
331
8FB
  5
8BA
331
8FC
  5
8BC
331
90C
  5
88F
331
855
  5
855
331
875
  5
8F4
331
89A
  5
917
331
861
  5
861
331
853
  5
853
331
915
  5
876
331
87E
  5
8FC
331
8CA
  5
8EB
331
891
  5
90E
331
8CD
  5
8EE
331
886
  5
903
331
854
  5
854
331
88B
  5
908
331
88A
  5
907
331
8BD
  5
91D
331
850
  5
850
331
888
  5
905
331
889
  5
906
331
894
  5
911
331
917
  5
878
331
903
  5
886
331
902
  5
885
331
8C7
  5
8E8
331
860
  5
860
331
8B9
  5
91A
331
8F5
  5
898
331
913
  5
874
331
8DC
  5
8DD
331
87C
  5
8FB
331
8CF
  5
8D0
331
85B
  5
85B
331
873
  5
8F2
331
8C2
  5
8E3
331
862
  5
862
331
88C
  5
909
331
91B
  5
87C
331
91C
  5
87E
331
8F6
  5
899
331
919
  5
87A
331
858
  5
858
331
8F7
  5
89A
331
85D
  5
85D
331
900
  5
882
331
893
  5
910
331
8C9
  5
8EA
331
88E
  5
90B
331
899
  5
916
331
909
  5
88C
331
8CB
  5
8EC
331
8EB
  5
8CC
331
8E2
  5
8C3
331
8F2
  5
895
331
8D7
  5
8D8
331
8D0
  5
8D1
331
871
  5
8F0
331
85A
  5
85A
331
885
  5
902
331
856
  5
856
331
859
  5
859
331
8F0
  5
893
331
8D5
  5
8D6
331
8D6
  5
8D7
331
897
  5
914
331
910
  5
871
331
8C3
  5
8E4
331
85F
  5
85F
331
890
  5
90D
331
876
  5
8F5
331
86C
  5
8BE
331
8E7
  5
8C8
331
87B
  5
8FA
331
90D
  5
890
331
8C6
  5
8E7
331
8BE
  5
8DF
331
8DE
  5
8BF
331
851
  5
851
331
867
  5
867
331
8E4
  5
8C5
331
8CC
  5
8ED
331
88D
  5
90A
331
5A6
  5
5A6
331
880
  5
8FE
331
8E5
  5
8C6
331
898
  5
915
331
8FE
  5
880
331
8BF
  5
8E0
331
8EE
  5
891
331
85E
  5
85E
331
887
  5
904
331
892
  5
90F
331
8E0
  5
8C1
331
8DB
  5
8DC
331
8FA
  5
8B9
331
874
  5
8F3
331
865
  5
865
331
8D9
  5
8DA
331
8D8
  5
8D9
331
872
  5
8F1
331
8C5
  5
8E6
331
8D1
  5
8D2
331
85C
  5
85C
331
881
  5
8FF
331
8C4
  5
8E5
331
6D7
  5
6D7
331
8F1
  5
894
331
8E8
  5
8C9
331
878
  5
8F7
331
857
  5
857
331
8F9
  5
89C
331
8BA
  5
91B
331
914
  5
875
331
89C
  5
919
331
87F
  5
8FD
331
88F
  5
90C
331
87A
  5
8F9
331
8EA
  5
8CB
331
905
  5
888
331
89B
  5
918
331
8D3
  5
8D4
331
906
  5
889
331
882
  5
900
331
8EF
  5
892
331
8D2
  5
8D3
331
918
  5
879
331
8DF
  5
8C0
331
90A
  5
88D
331
852
  5
852
331
8C0
  5
8E1
331
879
  5
8F8
331
8C1
  5
8E2
331
8BC
  5
91C
331
896
  5
913
331
895
  5
912
331
8E9
  5
8CA
331
8F8
  5
89B
331
90E
  5
86C
331
870
  5
8EF
331
904
  5
887
331
868
  5
868
331
8DA
  5
8DB
331
8EC
  5
8CD
331
8FF
  5
881
331
8ED
  5
8CE
331
864
  5
864
331
8DD
  5
8DE
331
912
  5
873
331
8E1
  5
8C2
331
8CE
  5
8CF
331
8F3
  5
896
331
883
  5
901
331
911
  5
872
331
877
  5
8F6
331
866
  5
866
331
90F
  5
870
331
8D4
  5
8D5
331
91A
  5
87B
331
8E3
  5
8C4
331
8FD
  5
8BD
  0
LAYOUT
  5
1D
102
{ACAD_REACTORS
330
19
102
}
102
{ACAD_XDICTIONARY
360
928
102
}
330
19
100
AcDbPlotSettings
  1

  2
HP LaserJet 2100 Series PS
  4

  6

 40
0.0
 41
0.0
 42
0.0
 43
0.0
 44
0.0
 45
0.0
 46
0.0
 47
0.0
 48
0.0
 49
0.0
140
0.0
141
0.0
142
1.0
143
1.0
 70
   688
 72
     0
 73
     0
 74
     5
  7

 75
    16
147
1.0
148
0.0
149
0.0
100
AcDbLayout
  1
Layout1
 70
     0
 71
     1
 10
0.0
 20
0.0
 11
12.0
 21
9.0
 12
0.0
 22
0.0
 32
0.0
 14
1.000000000000000E+20
 24
1.000000000000000E+20
 34
1.000000000000000E+20
 15
-1.000000000000000E+20
 25
-1.000000000000000E+20
 35
-1.000000000000000E+20
146
0.0
 13
0.0
 23
0.0
 33
0.0
 16
1.0
 26
0.0
 36
0.0
 17
0.0
 27
1.0
 37
0.0
 76
     0
330
1A
  0
LAYOUT
  5
21
102
{ACAD_REACTORS
330
19
102
}
102
{ACAD_XDICTIONARY
360
92A
102
}
330
19
100
AcDbPlotSettings
  1

  2
HP LaserJet 2100 Series PS
  4
Letter
  6

 40
5.365749835968018
 41
5.408073902130127
 42
5.132904052734375
 43
5.090576171875
 44
215.8999938964844
 45
279.3999938964844
 46
0.0
 47
0.0
 48
0.0
 49
0.0
140
0.0
141
0.0
142
1.0
143
1.0
 70
 11952
 72
     0
 73
     1
 74
     0
  7

 75
     0
147
1.0
148
-373.3857396322296
149
39.37976640227355
100
AcDbLayout
  1
Model
 70
     1
 71
     0
 10
0.0
 20
0.0
 11
12.0
 21
9.0
 12
0.0
 22
0.0
 32
0.0
 14
0.0
 24
0.0
 34
0.0
 15
0.0
 25
0.0
 35
0.0
146
0.0
 13
0.0
 23
0.0
 33
0.0
 16
1.0
 26
0.0
 36
0.0
 17
0.0
 27
1.0
 37
0.0
 76
     0
330
1E
  0
MLINESTYLE
  5
17
102
{ACAD_REACTORS
330
16
102
}
330
16
100
AcDbMlineStyle
  2
STANDARD
 70
     0
  3

 62
   256
 51
90.0
 52
90.0
 71
     2
 49
0.5
 62
   256
  6
BYLAYER
 49
-0.5
 62
   256
  6
BYLAYER
  0
ACDBPLACEHOLDER
  5
F
102
{ACAD_REACTORS
330
E
102
}
330
E
  0
ACAD_PROXY_OBJECT
  5
8A7
102
{ACAD_REACTORS
330
8A6
102
}
330
8A6
100
AcDbProxyObject
 90
      499
 91
      515
 95
   983063
 70
     0
 93
     1841
310
4214DD185B99185C9928B81E85EB51B8AE3F2E07A17AD46E2B8FC02B5E8DC0F42B1CFD028000000C1008070000C3001FDFF8000000C1003FBFF000000182007F7FE00000030400FEFFC00000060801FDFF8000000C1003FBFF00000018200000000000000681FA0B0000001820100E000186003FBFF000000182007F7FE000
310
00030400FEFFC00000060801FDFF8000000C1003FBFF000000182007F7FE000000304000AD7A3703D0AC73F4160000003040201C00030C007F7FE00000030400FEFFC00000060801FDFF8000000C1003FBFF000000182007F7FE00000030400FEFFC000000608000
340
11
340
11
340
11
 94
        0
  0
XRECORD
  5
926
102
{ACAD_REACTORS
330
925
102
}
330
925
100
AcDbXrecord
340
8A5
  0
XRECORD
  5
927
102
{ACAD_REACTORS
330
925
102
}
330
925
100
AcDbXrecord
340
8A4
  0
DICTIONARYVAR
  5
8B3
102
{ACAD_REACTORS
330
8B2
102
}
330
8B2
100
DictionaryVariables
280
     0
  1
STANDARD
  0
DICTIONARY
  5
928
330
1D
100
AcDbDictionary
280
     1
281
     1
  3
ACAD_XREC_ROUNDTRIP
360
929
  0
DICTIONARY
  5
92A
330
21
100
AcDbDictionary
280
     1
281
     1
  3
ACAD_XREC_ROUNDTRIP
360
92B
  0
XRECORD
  5
929
102
{ACAD_REACTORS
330
928
102
}
330
928
100
AcDbXrecord
102
SHADEPLOT
 70
     0
102
SHADEPLOTRESLEVEL
 70
     2
102
SHADEPLOTCUSTOMDPI
 70
   300
  0
XRECORD
  5
92B
102
{ACAD_REACTORS
330
92A
102
}
330
92A
100
AcDbXrecord
102
SHADEPLOT
 70
     0
102
SHADEPLOTRESLEVEL
 70
     2
102
SHADEPLOTCUSTOMDPI
 70
   300
  0
ENDSEC
  0
EOF
