  0
SECTION
  2
HEADER
  9
$ACADVER
  1
AC1015
  9
$ACADMAINTVER
 70
     6
  9
$DWGCODEPAGE
  3
ANSI_1252
  9
$INSBASE
 10
0.0
 20
0.0
 30
0.0
  9
$EXTMIN
 10
-26.05293264735133
 20
-17.1978759034512
 30
-0.0006103049970818
  9
$EXTMAX
 10
5.349655218713053
 20
12.93823248350323
 30
20.00061039812935
  9
$LIMMIN
 10
0.0
 20
0.0
  9
$LIMMAX
 10
52.5
 20
40.0
  9
$ORTHOMODE
 70
     1
  9
$REGENMODE
 70
     1
  9
$FILLMODE
 70
     1
  9
$QTEXTMODE
 70
     0
  9
$MIRRTEXT
 70
     0
  9
$LTSCALE
 40
2.0
  9
$ATTMODE
 70
     1
  9
$TEXTSIZE
 40
0.450000000000004
  9
$TRACEWID
 40
0.05
  9
$TEXTSTYLE
  7
STANDARD
  9
$CLAYER
  8
0
  9
$CELTYPE
  6
ByLayer
  9
$CECOLOR
 62
   256
  9
$CELTSCALE
 40
1.0
  9
$DISPSILH
 70
     0
  9
$DIMSCALE
 40
5.000000000000049
  9
$DIMASZ
 40
0.125
  9
$DIMEXO
 40
0.062
  9
$DIMDLI
 40
0.375
  9
$DIMRND
 40
0.0
  9
$DIMDLE
 40
0.0
  9
$DIMEXE
 40
0.08
  9
$DIMTP
 40
0.0
  9
$DIMTM
 40
0.0
  9
$DIMTXT
 40
0.09
  9
$DIMCEN
 40
-0.06
  9
$DIMTSZ
 40
0.0
  9
$DIMTOL
 70
     0
  9
$DIMLIM
 70
     0
  9
$DIMTIH
 70
     1
  9
$DIMTOH
 70
     1
  9
$DIMSE1
 70
     0
  9
$DIMSE2
 70
     0
  9
$DIMTAD
 70
     0
  9
$DIMZIN
 70
     0
  9
$DIMBLK
  1

  9
$DIMASO
 70
     0
  9
$DIMSHO
 70
     0
  9
$DIMPOST
  1

  9
$DIMAPOST
  1

  9
$DIMALT
 70
     0
  9
$DIMALTD
 70
     2
  9
$DIMALTF
 40
25.4
  9
$DIMLFAC
 40
1.0
  9
$DIMTOFL
 70
     0
  9
$DIMTVP
 40
0.0
  9
$DIMTIX
 70
     0
  9
$DIMSOXD
 70
     0
  9
$DIMSAH
 70
     0
  9
$DIMBLK1
  1

  9
$DIMBLK2
  1

  9
$DIMSTYLE
  2
Standard
  9
$DIMCLRD
 70
     0
  9
$DIMCLRE
 70
     0
  9
$DIMCLRT
 70
     0
  9
$DIMTFAC
 40
1.0
  9
$DIMGAP
 40
0.09
  9
$DIMJUST
 70
     0
  9
$DIMSD1
 70
     0
  9
$DIMSD2
 70
     0
  9
$DIMTOLJ
 70
     1
  9
$DIMTZIN
 70
     0
  9
$DIMALTZ
 70
     0
  9
$DIMALTTZ
 70
     0
  9
$DIMUPT
 70
     0
  9
$DIMDEC
 70
     5
  9
$DIMTDEC
 70
     5
  9
$DIMALTU
 70
     5
  9
$DIMALTTD
 70
     2
  9
$DIMTXSTY
  7
STANDARD
  9
$DIMAUNIT
 70
     0
  9
$DIMADEC
 70
     0
  9
$DIMALTRND
 40
0.0
  9
$DIMAZIN
 70
     0
  9
$DIMDSEP
 70
    46
  9
$DIMATFIT
 70
     3
  9
$DIMFRAC
 70
     0
  9
$DIMLDRBLK
  1

  9
$DIMLUNIT
 70
     5
  9
$DIMLWD
 70
    -2
  9
$DIMLWE
 70
    -2
  9
$DIMTMOVE
 70
     2
  9
$LUNITS
 70
     5
  9
$LUPREC
 70
     5
  9
$SKETCHINC
 40
0.1
  9
$FILLETRAD
 40
0.0
  9
$AUNITS
 70
     0
  9
$AUPREC
 70
     0
  9
$MENU
  1
acad
  9
$ELEVATION
 40
0.0
  9
$PELEVATION
 40
0.0
  9
$THICKNESS
 40
0.0
  9
$LIMCHECK
 70
     0
  9
$CHAMFERA
 40
0.0
  9
$CHAMFERB
 40
0.0
  9
$CHAMFERC
 40
0.0
  9
$CHAMFERD
 40
0.0
  9
$SKPOLY
 70
     0
  9
$TDCREATE
 40
2450346.840446065
  9
$TDUCREATE
 40
2450347.173779398
  9
$TDUPDATE
 40
2454160.69151875
  9
$TDUUPDATE
 40
2454161.024852084
  9
$TDINDWG
 40
0.0722802894
  9
$TDUSRTIMER
 40
0.0722802894
  9
$USRTIMER
 70
     1
  9
$ANGBASE
 50
0.0
  9
$ANGDIR
 70
     0
  9
$PDMODE
 70
     0
  9
$PDSIZE
 40
0.0
  9
$PLINEWID
 40
0.0
  9
$SPLFRAME
 70
     0
  9
$SPLINETYPE
 70
     6
  9
$SPLINESEGS
 70
     8
  9
$HANDSEED
  5
91F
  9
$SURFTAB1
 70
     6
  9
$SURFTAB2
 70
     6
  9
$SURFTYPE
 70
     6
  9
$SURFU
 70
     6
  9
$SURFV
 70
     6
  9
$UCSBASE
  2

  9
$UCSNAME
  2

  9
$UCSORG
 10
0.0
 20
0.0
 30
0.0
  9
$UCSXDIR
 10
1.0
 20
0.0
 30
0.0
  9
$UCSYDIR
 10
0.0
 20
1.0
 30
0.0
  9
$UCSORTHOREF
  2

  9
$UCSORTHOVIEW
 70
     0
  9
$UCSORGTOP
 10
0.0
 20
0.0
 30
0.0
  9
$UCSORGBOTTOM
 10
0.0
 20
0.0
 30
0.0
  9
$UCSORGLEFT
 10
0.0
 20
0.0
 30
0.0
  9
$UCSORGRIGHT
 10
0.0
 20
0.0
 30
0.0
  9
$UCSORGFRONT
 10
0.0
 20
0.0
 30
0.0
  9
$UCSORGBACK
 10
0.0
 20
0.0
 30
0.0
  9
$PUCSBASE
  2

  9
$PUCSNAME
  2

  9
$PUCSORG
 10
0.0
 20
0.0
 30
0.0
  9
$PUCSXDIR
 10
1.0
 20
0.0
 30
0.0
  9
$PUCSYDIR
 10
0.0
 20
1.0
 30
0.0
  9
$PUCSORTHOREF
  2

  9
$PUCSORTHOVIEW
 70
     0
  9
$PUCSORGTOP
 10
0.0
 20
0.0
 30
0.0
  9
$PUCSORGBOTTOM
 10
0.0
 20
0.0
 30
0.0
  9
$PUCSORGLEFT
 10
0.0
 20
0.0
 30
0.0
  9
$PUCSORGRIGHT
 10
0.0
 20
0.0
 30
0.0
  9
$PUCSORGFRONT
 10
0.0
 20
0.0
 30
0.0
  9
$PUCSORGBACK
 10
0.0
 20
0.0
 30
0.0
  9
$USERI1
 70
     0
  9
$USERI2
 70
     0
  9
$USERI3
 70
     0
  9
$USERI4
 70
     0
  9
$USERI5
 70
     0
  9
$USERR1
 40
0.0
  9
$USERR2
 40
0.0
  9
$USERR3
 40
0.0
  9
$USERR4
 40
0.0
  9
$USERR5
 40
0.0
  9
$WORLDVIEW
 70
     1
  9
$SHADEDGE
 70
     3
  9
$SHADEDIF
 70
    70
  9
$TILEMODE
 70
     1
  9
$MAXACTVP
 70
    16
  9
$PINSBASE
 10
0.0
 20
0.0
 30
0.0
  9
$PLIMCHECK
 70
     0
  9
$PEXTMIN
 10
1.000000000000000E+20
 20
1.000000000000000E+20
 30
1.000000000000000E+20
  9
$PEXTMAX
 10
-1.000000000000000E+20
 20
-1.000000000000000E+20
 30
-1.000000000000000E+20
  9
$PLIMMIN
 10
0.0
 20
0.0
  9
$PLIMMAX
 10
12.0
 20
9.0
  9
$UNITMODE
 70
     0
  9
$VISRETAIN
 70
     0
  9
$PLINEGEN
 70
     0
  9
$PSLTSCALE
 70
     0
  9
$TREEDEPTH
 70
  3020
  9
$CMLSTYLE
  2
Standard
  9
$CMLJUST
 70
     0
  9
$CMLSCALE
 40
1.0
  9
$PROXYGRAPHICS
 70
     1
  9
$MEASUREMENT
 70
     0
  9
$CELWEIGHT
370
    -1
  9
$ENDCAPS
280
     0
  9
$JOINSTYLE
280
     0
  9
$LWDISPLAY
290
     0
  9
$INSUNITS
 70
     0
  9
$HYPERLINKBASE
  1

  9
$STYLESHEET
  1

  9
$XEDIT
290
     1
  9
$CEPSNTYPE
380
     0
  9
$PSTYLEMODE
290
     1
  9
$FINGERPRINTGUID
  2
{07D06983-1B14-4750-818A-A3301477D923}
  9
$VERSIONGUID
  2
{64659D4D-B845-45CA-AFAA-032FEE565D71}
  9
$EXTNAMES
290
     1
  9
$PSVPSCALE
 40
0.0
  9
$OLESTARTUP
290
     0
  0
ENDSEC
  0
SECTION
  2
CLASSES
  0
CLASS
  1
ACDBDICTIONARYWDFLT
  2
AcDbDictionaryWithDefault
  3
AutoCAD 2000
 90
        0
280
     0
281
     0
  0
CLASS
  1
ACDBPLACEHOLDER
  2
AcDbPlaceHolder
  3
ObjectDBX Classes
 90
        0
280
     0
281
     0
  0
CLASS
  1
LAYOUT
  2
AcDbLayout
  3
ObjectDBX Classes
 90
        0
280
     0
281
     0
  0
CLASS
  1
LONG_TRANSACTION
  2
AcDbLongTransaction
  3
ObjectDBX Classes
 90
   -65536
280
     1
281
     0
  0
CLASS
  1
LWPOLYLINE
  2
AcDbPolyline
  3
AutoCAD 2000
 90
        0
280
     0
281
     1
  0
CLASS
  1
HATCH
  2
AcDbHatch
  3
AutoCAD 2000
 90
        0
280
     0
281
     1
  0
CLASS
  1
XRECORD
  2
AcDbXrecord
  3
AutoCAD 2000
 90
        0
280
     0
281
     0
  0
CLASS
  1
LONG_TRANSACTION
  2
AcDbLongTransaction
  3
ObjectDBX Classes
 90
   -65536
280
     1
281
     0
  0
CLASS
  1
LWPOLYLINE
  2
AcDbPolyline
  3
AutoCAD 2000
 90
        0
280
     0
281
     1
  0
CLASS
  1
HATCH
  2
AcDbHatch
  3
AutoCAD 2000
 90
        0
280
     0
281
     1
  0
CLASS
  1
XRECORD
  2
AcDbXrecord
  3
AutoCAD 2000
 90
        0
280
     0
281
     0
  0
CLASS
  1
LONG_TRANSACTION
  2
AcDbLongTransaction
  3
ObjectDBX Classes
 90
   -65536
280
     1
281
     0
  0
CLASS
  1
LWPOLYLINE
  2
AcDbPolyline
  3
AutoCAD 2000
 90
        0
280
     0
281
     1
  0
CLASS
  1
HATCH
  2
AcDbHatch
  3
AutoCAD 2000
 90
        0
280
     0
281
     1
  0
CLASS
  1
XRECORD
  2
AcDbXrecord
  3
AutoCAD 2000
 90
        0
280
     0
281
     0
  0
CLASS
  1
TABLESTYLE
  2
AcDbTableStyle
  3
ObjectDBX Classes
 90
     2047
280
     1
281
     0
  0
CLASS
  1
DICTIONARYVAR
  2
AcDbDictionaryVar
  3
AutoCAD 2000
 90
        0
280
     0
281
     0
  0
ENDSEC
  0
SECTION
  2
TABLES
  0
TABLE
  2
VPORT
  5
8
330
0
100
AcDbSymbolTable
 70
     2
  0
VPORT
  5
90D
330
8
100
AcDbSymbolTableRecord
100
AcDbViewportTableRecord
  2
*Active
 70
     0
 10
0.0
 20
0.0
 11
1.0
 21
1.0
 12
13.22353367632434
 22
11.4010620482744
 13
0.0
 23
0.0
 14
0.0625
 24
0.0625
 15
0.25
 25
0.25
 16
0.0
 26
0.0
 36
1.0
 17
0.0
 27
0.0
 37
0.0
 40
57.63842436997329
 41
1.55012853470437
 42
50.0
 43
0.0
 44
0.0
 50
0.0
 51
0.0
 71
     0
 72
   100
 73
     1
 74
     0
 75
     0
 76
     0
 77
     0
 78
     0
281
     0
 65
     1
110
0.0
120
0.0
130
0.0
111
1.0
121
0.0
131
0.0
112
0.0
122
1.0
132
0.0
 79
     0
146
0.0
  0
ENDTAB
  0
TABLE
  2
LTYPE
  5
5
330
0
100
AcDbSymbolTable
 70
     2
  0
LTYPE
  5
13
330
5
100
AcDbSymbolTableRecord
100
AcDbLinetypeTableRecord
  2
ByBlock
 70
     0
  3

 72
    65
 73
     0
 40
0.0
  0
LTYPE
  5
14
330
5
100
AcDbSymbolTableRecord
100
AcDbLinetypeTableRecord
  2
ByLayer
 70
     0
  3

 72
    65
 73
     0
 40
0.0
  0
LTYPE
  5
15
330
5
100
AcDbSymbolTableRecord
100
AcDbLinetypeTableRecord
  2
CONTINUOUS
 70
     0
  3
Solid line
 72
    65
 73
     0
 40
0.0
  0
LTYPE
  5
41
330
5
100
AcDbSymbolTableRecord
100
AcDbLinetypeTableRecord
  2
HIDDEN
 70
     0
  3
_ _ _ _ _ _ _ _ _ _ _ _ _ _ _ _ _ _ _ _ _ _ _
 72
    65
 73
     2
 40
0.375
 49
0.25
 74
     0
 49
-0.125
 74
     0
  0
ENDTAB
  0
TABLE
  2
LAYER
  5
2
330
0
100
AcDbSymbolTable
 70
     3
  0
LAYER
  5
10
330
2
100
AcDbSymbolTableRecord
100
AcDbLayerTableRecord
  2
0
 70
     0
 62
     7
  6
CONTINUOUS
370
    -3
390
F
  0
ENDTAB
  0
TABLE
  2
STYLE
  5
3
330
0
100
AcDbSymbolTable
 70
     1
  0
STYLE
  5
11
330
3
100
AcDbSymbolTableRecord
100
AcDbTextStyleTableRecord
  2
STANDARD
 70
     0
 40
0.0
 41
1.0
 50
0.0
 71
     0
 42
0.450000000000004
  3
TXT
  4

  0
ENDTAB
  0
TABLE
  2
VIEW
  5
6
330
0
100
AcDbSymbolTable
 70
     1
  0
ENDTAB
  0
TABLE
  2
UCS
  5
7
330
0
100
AcDbSymbolTable
 70
     0
  0
ENDTAB
  0
TABLE
  2
APPID
  5
9
330
0
100
AcDbSymbolTable
 70
     1
  0
APPID
  5
12
330
9
100
AcDbSymbolTableRecord
100
AcDbRegAppTableRecord
  2
ACAD
 70
     0
  0
ENDTAB
  0
TABLE
  2
DIMSTYLE
  5
A
330
0
100
AcDbSymbolTable
 70
     1
100
AcDbDimStyleTable
  0
DIMSTYLE
105
6F7
330
A
100
AcDbSymbolTableRecord
100
AcDbDimStyleTableRecord
  2
Standard
 70
     0
  3

  4

340
11
  0
ENDTAB
  0
TABLE
  2
BLOCK_RECORD
  5
1
330
0
100
AcDbSymbolTable
 70
     0
  0
BLOCK_RECORD
  5
1E
330
1
100
AcDbSymbolTableRecord
100
AcDbBlockTableRecord
  2
*Model_Space
340
21
  0
BLOCK_RECORD
  5
1A
330
1
100
AcDbSymbolTableRecord
100
AcDbBlockTableRecord
  2
*Paper_Space
340
1D
  0
ENDTAB
  0
ENDSEC
  0
SECTION
  2
BLOCKS
  0
BLOCK
  5
5E
330
1E
100
AcDbEntity
  8
0
100
AcDbBlockBegin
  2
*Model_Space
 70
     0
 10
0.0
 20
0.0
 30
0.0
  3
*Model_Space
  1

  4

  0
ENDBLK
  5
5F
330
1E
100
AcDbEntity
  8
0
100
AcDbBlockEnd
  0
BLOCK
  5
5C
330
1A
100
AcDbEntity
 67
     1
  8
0
100
AcDbBlockBegin
  2
*Paper_Space
 70
     0
 10
0.0
 20
0.0
 30
0.0
  3
*Paper_Space
  1

  4

  0
ENDBLK
  5
5D
330
1A
100
AcDbEntity
 67
     1
  8
0
100
AcDbBlockEnd
  0
ENDSEC
  0
SECTION
  2
ENTITIES
  0
TEXT
  5
5A6
330
1E
100
AcDbEntity
  8
0
100
AcDbText
 10
-26.05059982805234
 20
-17.19634988491679
 30
0.0
 40
0.450000000000004
  1
.
100
AcDbText
  0
TEXT
  5
6D7
330
1E
100
AcDbEntity
  8
0
100
AcDbText
 10
19.62810159036958
 20
-8.224265913643672
 30
0.0
 40
0.36
  1

 72
     1
 11
19.62810159036958
 21
-8.224265913643672
 31
0.0
100
AcDbText
  0
LINE
  5
8DB
330
1E
100
AcDbEntity
  8
0
100
AcDbLine
 10
3.216088834228756
 20
12.687
 30
0.0
 11
3.216088834228756
 21
0.1875
 31
0.0
  0
LINE
  5
8DC
330
1E
100
AcDbEntity
  8
0
100
AcDbLine
 10
3.403588834228756
 20
12.687
 30
0.0
 11
3.403588834228756
 21
0.1875
 31
0.0
  0
LINE
  5
8DD
330
1E
100
AcDbEntity
  8
0
100
AcDbLine
 10
-1.840634727166815
 20
12.687
 30
0.0
 11
-1.840634727166815
 21
0.1875
 31
0.0
  0
LINE
  5
8DE
330
1E
100
AcDbEntity
  8
0
100
AcDbLine
 10
1.908911165771244
 20
12.687
 30
0.0
 11
1.908911165771244
 21
0.1875
 31
0.0
  0
LINE
  5
8DF
330
1E
100
AcDbEntity
  8
0
100
AcDbLine
 10
-2.015691727166811
 20
12.687
 30
0.0
 11
-2.015691727166811
 21
0.1875
 31
0.0
  0
LINE
  5
8E0
330
1E
100
AcDbEntity
  8
0
100
AcDbLine
 10
-3.403588834228756
 20
12.687
 30
0.0
 11
-3.403588834228756
 21
0.1875
 31
0.0
  0
LINE
  5
8E1
330
1E
100
AcDbEntity
  8
0
100
AcDbLine
 10
-6.653588834228756
 20
5.999499999999998
 30
20.0
 11
-6.653588834228756
 21
12.9375
 31
20.0
  0
LINE
  5
8E2
330
1E
100
AcDbEntity
  8
0
100
AcDbLine
 10
5.346411165771244
 20
12.9375
 30
20.0
 11
5.346411165771244
 21
6.0
 31
20.0
  0
LINE
  5
8E3
330
1E
100
AcDbEntity
  8
0
100
AcDbLine
 10
-3.403588834228756
 20
5.999499999999998
 30
0.0
 11
-6.653588834228756
 21
5.999499999999998
 31
0.0
  0
LINE
  5
8E4
330
1E
100
AcDbEntity
  8
0
100
AcDbLine
 10
3.716088834228756
 20
0.1875
 30
0.0
 11
-3.716088834228756
 21
0.1875
 31
0.0
  0
LINE
  5
8E5
330
1E
100
AcDbEntity
  8
0
100
AcDbLine
 10
-3.716088834228756
 20
0.0
 30
0.0
 11
3.716088834228756
 21
0.0
 31
0.0
  0
LINE
  5
8E6
330
1E
100
AcDbEntity
  8
0
100
AcDbLine
 10
3.716088834228756
 20
0.0
 30
0.0
 11
3.716088834228756
 21
0.1875
 31
0.0
  0
LINE
  5
8E7
330
1E
100
AcDbEntity
  8
0
100
AcDbLine
 10
-2.304736727166812
 20
0.1875
 30
0.0
 11
-2.304736727166812
 21
0.0
 31
0.0
  0
LINE
  5
8E8
330
1E
100
AcDbEntity
  8
0
100
AcDbLine
 10
-3.716088834228756
 20
0.1875
 30
0.0
 11
-3.716088834228756
 21
0.0
 31
0.0
  0
LINE
  5
8E9
330
1E
100
AcDbEntity
  8
0
100
AcDbLine
 10
1.910942165771246
 20
5.999499999999998
 30
0.0
 11
-1.840634727166801
 21
5.999500000000001
 31
0.0
  0
LINE
  5
8EA
330
1E
100
AcDbEntity
  8
0
100
AcDbLine
 10
3.403588834228756
 20
5.999500000000001
 30
0.0
 11
5.346411165771244
 21
5.999499999999998
 31
0.0
  0
CIRCLE
  5
8EB
330
1E
100
AcDbEntity
  8
0
100
AcDbCircle
 10
4.846411165771244
 20
6.498999999999999
 30
0.0
 40
0.1405
  0
CIRCLE
  5
8EC
330
1E
100
AcDbEntity
  8
0
100
AcDbCircle
 10
4.846411165771244
 20
8.126000000000001
 30
0.0
 40
0.1405
  0
CIRCLE
  5
8ED
330
1E
100
AcDbEntity
  8
0
100
AcDbCircle
 10
4.221411165771244
 20
7.311999999999998
 30
0.0
 40
0.1405
  0
LWPOLYLINE
  5
8EE
330
1E
100
AcDbEntity
  8
0
100
AcDbPolyline
 90
       16
 70
     1
 43
0.0
 10
-2.866340516175569
 20
4.682139509503671
 10
-2.863343939961439
 20
4.624448839844675
 42
0.0395665274243554
 10
-2.85538448941864
 20
4.582831473602091
 42
0.0807525249120529
 10
-2.839354852497181
 20
4.547807429203996
 10
-2.827725902847334
 20
4.541555971588402
 10
-2.816021695306191
 20
4.547665367476039
 42
0.0807525249120318
 10
-2.799566781359033
 20
4.582491632748468
 42
0.0395665274243896
 10
-2.791101172849324
 20
4.624008996567408
 10
-2.78740235641709
 20
4.68165890195943
 10
-2.790398932631206
 20
4.739349571618416
 42
0.0395665274243676
 10
-2.798358383174005
 20
4.78096693786101
 42
0.0807525249120006
 10
-2.814388020095464
 20
4.815990982259102
 10
-2.826016969745311
 20
4.822242439874696
 10
-2.837721177286454
 20
4.816133043987058
 42
0.0807525249120367
 10
-2.854176091233612
 20
4.78130677871463
 42
0.0395665274243893
 10
-2.862641699743321
 20
4.739789414895697
  0
LWPOLYLINE
  5
8EF
330
1E
100
AcDbEntity
  8
0
100
AcDbPolyline
 90
       16
 70
     1
 43
0.0
 10
-2.286603757285562
 20
1.685724017835479
 10
-2.283607181071446
 20
1.628033348176487
 42
0.0395665274243554
 10
-2.275647730528647
 20
1.5864159819339
 42
0.0807525249120529
 10
-2.259618093607173
 20
1.551391937535804
 10
-2.247989143957327
 20
1.545140479920214
 10
-2.236284936416197
 20
1.551249875807848
 42
0.0807525249120318
 10
-2.21983002246904
 20
1.586076141080277
 42
0.0395665274243896
 10
-2.211364413959316
 20
1.627593504899217
 10
-2.207665597527083
 20
1.685243410291239
 10
-2.210662173741198
 20
1.742934079950224
 42
0.0395665274243676
 10
-2.218621624283998
 20
1.784551446192818
 42
0.0807525249120006
 10
-2.234651261205457
 20
1.819575490590914
 10
-2.246280210855304
 20
1.825826948206505
 10
-2.257984418396447
 20
1.819717552318867
 42
0.0807525249120367
 10
-2.274439332343604
 20
1.784891287046438
 42
0.0395665274243893
 10
-2.282904940853328
 20
1.743373923227509
  0
LWPOLYLINE
  5
8F0
330
1E
100
AcDbEntity
  8
0
100
AcDbPolyline
 90
       16
 70
     1
 43
0.0
 10
-2.224103757285562
 20
4.592305758343745
 10
-2.221107181071446
 20
4.534615088684749
 42
0.0395665274243554
 10
-2.213147730528647
 20
4.492997722442166
 42
0.0807525249120529
 10
-2.197118093607173
 20
4.457973678044073
 10
-2.185489143957327
 20
4.451722220428476
 10
-2.173784936416197
 20
4.457831616316117
 42
0.0807525249120318
 10
-2.15733002246904
 20
4.492657881588542
 42
0.0395665274243896
 10
-2.148864413959316
 20
4.534175245407486
 10
-2.145165597527083
 20
4.591825150799505
 10
-2.148162173741198
 20
4.649515820458493
 42
0.0395665274243676
 10
-2.156121624283998
 20
4.691133186701084
 42
0.0807525249120006
 10
-2.172151261205457
 20
4.726157231099176
 10
-2.183780210855304
 20
4.73240868871477
 10
-2.195484418396447
 20
4.726299292827132
 42
0.0807525249120367
 10
-2.211939332343604
 20
4.691473027554704
 42
0.0395665274243893
 10
-2.220404940853328
 20
4.649955663735771
  0
LWPOLYLINE
  5
8F1
330
1E
100
AcDbEntity
  8
0
100
AcDbPolyline
 90
       16
 70
     1
 43
0.0
 10
-2.881324585089942
 20
1.93542530880783
 10
-2.878328008875826
 20
1.877734639148834
 42
0.0395665274243554
 10
-2.870368558333027
 20
1.83611727290625
 42
0.0807525249120529
 10
-2.854338921411554
 20
1.801093228508155
 10
-2.842709971761721
 20
1.79484177089256
 10
-2.831005764220564
 20
1.800951166780198
 42
0.0807525249120318
 10
-2.81455085027342
 20
1.835777432052627
 42
0.0395665274243896
 10
-2.806085241763697
 20
1.877294795871567
 10
-2.802386425331463
 20
1.934944701263589
 10
-2.805383001545579
 20
1.992635370922574
 42
0.0395665274243676
 10
-2.813342452088378
 20
2.034252737165168
 42
0.0807525249120006
 10
-2.829372089009851
 20
2.069276781563261
 10
-2.841001038659684
 20
2.075528239178855
 10
-2.852705246200841
 20
2.069418843291217
 42
0.0807525249120367
 10
-2.869160160147985
 20
2.034592578018788
 42
0.0395665274243893
 10
-2.877625768657708
 20
1.993075214199855
  0
LWPOLYLINE
  5
8F2
330
1E
100
AcDbEntity
  8
0
100
AcDbPolyline
 90
       16
 70
     1
 43
0.0
 10
-2.881324585089942
 20
3.183931763669573
 10
-2.878328008875826
 20
3.126241094010581
 42
0.0395665274243554
 10
-2.870368558333027
 20
3.084623727767994
 42
0.0807525249120529
 10
-2.854338921411554
 20
3.049599683369902
 10
-2.842709971761721
 20
3.043348225754308
 10
-2.831005764220564
 20
3.049457621641945
 42
0.0807525249120318
 10
-2.81455085027342
 20
3.084283886914371
 42
0.0395665274243896
 10
-2.806085241763697
 20
3.125801250733314
 10
-2.802386425331463
 20
3.183451156125333
 10
-2.805383001545579
 20
3.241141825784322
 42
0.0395665274243676
 10
-2.813342452088378
 20
3.282759192026912
 42
0.0807525249120006
 10
-2.829372089009851
 20
3.317783236425008
 10
-2.841001038659684
 20
3.324034694040599
 10
-2.852705246200841
 20
3.317925298152961
 42
0.0807525249120367
 10
-2.869160160147985
 20
3.283099032880536
 42
0.0395665274243893
 10
-2.877625768657708
 20
3.241581669061603
  0
LWPOLYLINE
  5
8F3
330
1E
100
AcDbEntity
  8
0
100
AcDbPolyline
 90
       16
 70
     1
 43
0.0
 10
-2.224103757285562
 20
6.430048546310115
 10
-2.221107181071446
 20
6.372357876651122
 42
0.0395665274243554
 10
-2.213147730528647
 20
6.330740510408536
 42
0.0807525249120529
 10
-2.197118093607173
 20
6.295716466010443
 10
-2.185489143957327
 20
6.289465008394849
 10
-2.173784936416197
 20
6.295574404282487
 42
0.0807525249120318
 10
-2.15733002246904
 20
6.330400669554912
 42
0.0395665274243896
 10
-2.148864413959316
 20
6.371918033373856
 10
-2.145165597527083
 20
6.429567938765874
 10
-2.148162173741198
 20
6.487258608424863
 42
0.0395665274243676
 10
-2.156121624283998
 20
6.528875974667454
 42
0.0807525249120006
 10
-2.172151261205457
 20
6.563900019065549
 10
-2.183780210855304
 20
6.57015147668114
 10
-2.195484418396447
 20
6.564042080793502
 42
0.0807525249120367
 10
-2.211939332343604
 20
6.529215815521077
 42
0.0395665274243893
 10
-2.220404940853328
 20
6.487698451702144
  0
CIRCLE
  5
8F4
330
1E
100
AcDbEntity
  8
0
100
AcDbCircle
 10
-6.153588834228756
 20
6.498999999999999
 30
0.0
 40
0.1405
  0
CIRCLE
  5
8F5
330
1E
100
AcDbEntity
  8
0
100
AcDbCircle
 10
-6.153588834228756
 20
8.126000000000001
 30
0.0
 40
0.1405
  0
CIRCLE
  5
8F6
330
1E
100
AcDbEntity
  8
0
100
AcDbCircle
 10
-5.528588834228756
 20
7.311999999999998
 30
0.0
 40
0.1405
  0
LINE
  5
8F7
330
1E
100
AcDbEntity
  8
0
  6
HIDDEN
100
AcDbLine
 10
3.574091910479638
 20
12.687
 30
0.0
 11
5.346411165771244
 21
12.687
 31
0.0
  0
CIRCLE
  5
8F8
330
1E
100
AcDbEntity
  8
0
100
AcDbCircle
 10
4.846411165771244
 20
11.251
 30
0.0
 40
0.1405
  0
CIRCLE
  5
8F9
330
1E
100
AcDbEntity
  8
0
100
AcDbCircle
 10
4.846411165771244
 20
9.626000000000001
 30
0.0
 40
0.1405
  0
CIRCLE
  5
8FA
330
1E
100
AcDbEntity
  8
0
100
AcDbCircle
 10
4.221411165771244
 20
10.438
 30
0.0
 40
0.1405
  0
LINE
  5
8FB
330
1E
100
AcDbEntity
  8
0
100
AcDbLine
 10
1.908911165771244
 20
12.687
 30
0.0
 11
3.403588834228756
 21
12.687
 31
0.0
  0
LINE
  5
8FC
330
1E
100
AcDbEntity
  8
0
100
AcDbLine
 10
-3.403588834228756
 20
12.687
 30
0.0
 11
-1.840634727166815
 21
12.687
 31
0.0
  0
CIRCLE
  5
8FD
330
1E
100
AcDbEntity
  8
0
100
AcDbCircle
 10
-6.153588834228756
 20
11.25
 30
0.0
 40
0.1405
  0
CIRCLE
  5
8FE
330
1E
100
AcDbEntity
  8
0
100
AcDbCircle
 10
-6.153588834228756
 20
9.626000000000001
 30
0.0
 40
0.1405
  0
CIRCLE
  5
8FF
330
1E
100
AcDbEntity
  8
0
100
AcDbCircle
 10
-5.528588834228756
 20
10.438
 30
0.0
 40
0.1405
  0
LINE
  5
900
330
1E
100
AcDbEntity
  8
0
  6
HIDDEN
100
AcDbLine
 10
-6.653588834228756
 20
12.6875
 30
20.0
 11
-3.528588834228756
 21
12.6875
 31
20.0
  0
LINE
  5
901
330
1E
100
AcDbEntity
  8
0
100
AcDbLine
 10
-6.653588834228756
 20
12.9375
 30
20.0
 11
5.346411165771244
 21
12.9375
 31
20.0
  0
LINE
  5
902
330
1E
100
AcDbEntity
  8
0
  6
HIDDEN
100
AcDbLine
 10
-1.71716772716681
 20
12.6875
 30
20.0
 11
1.701520165771242
 21
12.6875
 31
20.0
  0
ENDSEC
  0
SECTION
  2
OBJECTS
  0
DICTIONARY
  5
C
330
0
100
AcDbDictionary
281
     1
  3
ACAD_COLOR
350
907
  3
ACAD_GROUP
350
D
  3
ACAD_LAYOUT
350
19
  3
ACAD_MATERIAL
350
906
  3
ACAD_MLINESTYLE
350
16
  3
ACAD_PLOTSETTINGS
350
18
  3
ACAD_PLOTSTYLENAME
350
E
  3
ACAD_TABLESTYLE
350
908
  3
ACDBHEADERROUNDTRIPXREC
350
918
  3
AcDbVariableDictionary
350
913
  0
DICTIONARY
  5
907
102
{ACAD_REACTORS
330
C
102
}
330
C
100
AcDbDictionary
281
     1
  0
DICTIONARY
  5
D
102
{ACAD_REACTORS
330
C
102
}
330
C
100
AcDbDictionary
281
     1
  0
DICTIONARY
  5
19
102
{ACAD_REACTORS
330
C
102
}
330
C
100
AcDbDictionary
281
     1
  3
Layout1
350
1D
  3
Model
350
21
  0
DICTIONARY
  5
906
102
{ACAD_REACTORS
330
C
102
}
330
C
100
AcDbDictionary
281
     1
  0
DICTIONARY
  5
16
102
{ACAD_REACTORS
330
C
102
}
330
C
100
AcDbDictionary
281
     1
  3
Standard
350
17
  0
DICTIONARY
  5
18
102
{ACAD_REACTORS
330
C
102
}
330
C
100
AcDbDictionary
281
     1
  0
ACDBDICTIONARYWDFLT
  5
E
102
{ACAD_REACTORS
330
C
102
}
330
C
100
AcDbDictionary
281
     1
  3
Normal
350
F
100
AcDbDictionaryWithDefault
340
F
  0
DICTIONARY
  5
908
102
{ACAD_REACTORS
330
C
102
}
330
C
100
AcDbDictionary
281
     1
  3
Standard
350
909
  0
DICTIONARY
  5
918
102
{ACAD_REACTORS
330
C
102
}
330
C
100
AcDbDictionary
281
     1
  3
COLORDICT
350
919
  3
MATERIALDICT
350
91A
  0
DICTIONARY
  5
913
102
{ACAD_REACTORS
330
C
102
}
330
C
100
AcDbDictionary
281
     1
  3
CTABLESTYLE
350
914
  0
LAYOUT
  5
1D
102
{ACAD_REACTORS
330
19
102
}
102
{ACAD_XDICTIONARY
360
91B
102
}
330
19
100
AcDbPlotSettings
  1

  2
HP LaserJet 2100 Series PS
  4

  6

 40
0.0
 41
0.0
 42
0.0
 43
0.0
 44
0.0
 45
0.0
 46
0.0
 47
0.0
 48
0.0
 49
0.0
140
0.0
141
0.0
142
1.0
143
1.0
 70
   688
 72
     0
 73
     0
 74
     5
  7

 75
    16
147
1.0
148
0.0
149
0.0
100
AcDbLayout
  1
Layout1
 70
     0
 71
     1
 10
0.0
 20
0.0
 11
12.0
 21
9.0
 12
0.0
 22
0.0
 32
0.0
 14
1.000000000000000E+20
 24
1.000000000000000E+20
 34
1.000000000000000E+20
 15
-1.000000000000000E+20
 25
-1.000000000000000E+20
 35
-1.000000000000000E+20
146
0.0
 13
0.0
 23
0.0
 33
0.0
 16
1.0
 26
0.0
 36
0.0
 17
0.0
 27
1.0
 37
0.0
 76
     0
330
1A
  0
LAYOUT
  5
21
102
{ACAD_REACTORS
330
19
102
}
102
{ACAD_XDICTIONARY
360
91D
102
}
330
19
100
AcDbPlotSettings
  1

  2
HP LaserJet 2100 Series PS
  4
Letter
  6

 40
5.365749835968018
 41
5.408073902130127
 42
5.132904052734375
 43
5.090576171875
 44
215.8999938964844
 45
279.3999938964844
 46
0.0
 47
0.0
 48
0.0
 49
0.0
140
0.0
141
0.0
142
1.0
143
1.0
 70
 11952
 72
     0
 73
     1
 74
     0
  7

 75
     0
147
1.0
148
-373.3857396322296
149
39.37976640227355
100
AcDbLayout
  1
Model
 70
     1
 71
     0
 10
0.0
 20
0.0
 11
12.0
 21
9.0
 12
0.0
 22
0.0
 32
0.0
 14
0.0
 24
0.0
 34
0.0
 15
0.0
 25
0.0
 35
0.0
146
0.0
 13
0.0
 23
0.0
 33
0.0
 16
1.0
 26
0.0
 36
0.0
 17
0.0
 27
1.0
 37
0.0
 76
     0
330
1E
  0
MLINESTYLE
  5
17
102
{ACAD_REACTORS
330
16
102
}
330
16
100
AcDbMlineStyle
  2
STANDARD
 70
     0
  3

 62
   256
 51
90.0
 52
90.0
 71
     2
 49
0.5
 62
   256
  6
BYLAYER
 49
-0.5
 62
   256
  6
BYLAYER
  0
ACDBPLACEHOLDER
  5
F
102
{ACAD_REACTORS
330
E
102
}
330
E
  0
ACAD_PROXY_OBJECT
  5
909
102
{ACAD_REACTORS
330
908
102
}
330
908
100
AcDbProxyObject
 90
      499
 91
      515
 95
   983063
 70
     0
 93
     1841
310
4214DD185B99185C9928B81E85EB51B8AE3F2E07A17AD46E2B8FC02B5E8DC0F42B1CFD028000000C1008070000C3001FDFF8000000C1003FBFF000000182007F7FE00000030400FEFFC00000060801FDFF8000000C1003FBFF00000018200000000000000681FA0B0000001820100E000186003FBFF000000182007F7FE000
310
00030400FEFFC00000060801FDFF8000000C1003FBFF000000182007F7FE000000304000AD7A3703D0AC73F4160000003040201C00030C007F7FE00000030400FEFFC00000060801FDFF8000000C1003FBFF000000182007F7FE00000030400FEFFC000000608000
340
11
340
11
340
11
 94
        0
  0
XRECORD
  5
919
102
{ACAD_REACTORS
330
918
102
}
330
918
100
AcDbXrecord
340
907
  0
XRECORD
  5
91A
102
{ACAD_REACTORS
330
918
102
}
330
918
100
AcDbXrecord
340
906
  0
DICTIONARYVAR
  5
914
102
{ACAD_REACTORS
330
913
102
}
330
913
100
DictionaryVariables
280
     0
  1
STANDARD
  0
DICTIONARY
  5
91B
330
1D
100
AcDbDictionary
280
     1
281
     1
  3
ACAD_XREC_ROUNDTRIP
360
91C
  0
DICTIONARY
  5
91D
330
21
100
AcDbDictionary
280
     1
281
     1
  3
ACAD_XREC_ROUNDTRIP
360
91E
  0
XRECORD
  5
91C
102
{ACAD_REACTORS
330
91B
102
}
330
91B
100
AcDbXrecord
102
SHADEPLOT
 70
     0
102
SHADEPLOTRESLEVEL
 70
     2
102
SHADEPLOTCUSTOMDPI
 70
   300
  0
XRECORD
  5
91E
102
{ACAD_REACTORS
330
91D
102
}
330
91D
100
AcDbXrecord
102
SHADEPLOT
 70
     0
102
SHADEPLOTRESLEVEL
 70
     2
102
SHADEPLOTCUSTOMDPI
 70
   300
  0
ENDSEC
  0
EOF
