  0
SECTION
  2
HEADER
  9
$ACADVER
  1
AC1015
  9
$ACADMAINTVER
 70
     6
  9
$DWGCODEPAGE
  3
ANSI_1252
  9
$INSBASE
 10
0.0
 20
0.0
 30
0.0
  9
$EXTMIN
 10
-12.03515401528547
 20
-0.0000000000000338
 30
0.0
  9
$EXTMAX
 10
18.92837382716743
 20
14.63373810100441
 30
0.0
  9
$LIMMIN
 10
0.0
 20
0.0
  9
$LIMMAX
 10
31.5
 20
24.0
  9
$ORTHOMODE
 70
     1
  9
$REGENMODE
 70
     1
  9
$FILLMODE
 70
     1
  9
$QTEXTMODE
 70
     0
  9
$MIRRTEXT
 70
     0
  9
$LTSCALE
 40
0.75
  9
$ATTMODE
 70
     1
  9
$TEXTSIZE
 40
0.225
  9
$TRACEWID
 40
0.05
  9
$TEXTSTYLE
  7
STANDARD
  9
$CLAYER
  8
0
  9
$CELTYPE
  6
BYLAYER
  9
$CECOLOR
 62
   256
  9
$CELTSCALE
 40
1.0
  9
$DISPSILH
 70
     0
  9
$DIMSCALE
 40
2.5
  9
$DIMASZ
 40
0.125
  9
$DIMEXO
 40
0.062
  9
$DIMDLI
 40
0.375
  9
$DIMRND
 40
0.0
  9
$DIMDLE
 40
0.0
  9
$DIMEXE
 40
0.08
  9
$DIMTP
 40
0.0
  9
$DIMTM
 40
0.0
  9
$DIMTXT
 40
0.09
  9
$DIMCEN
 40
-0.0313
  9
$DIMTSZ
 40
0.0
  9
$DIMTOL
 70
     0
  9
$DIMLIM
 70
     0
  9
$DIMTIH
 70
     1
  9
$DIMTOH
 70
     1
  9
$DIMSE1
 70
     0
  9
$DIMSE2
 70
     0
  9
$DIMTAD
 70
     0
  9
$DIMZIN
 70
     0
  9
$DIMBLK
  1

  9
$DIMASO
 70
     0
  9
$DIMSHO
 70
     0
  9
$DIMPOST
  1

  9
$DIMAPOST
  1

  9
$DIMALT
 70
     0
  9
$DIMALTD
 70
     2
  9
$DIMALTF
 40
25.4
  9
$DIMLFAC
 40
1.0
  9
$DIMTOFL
 70
     0
  9
$DIMTVP
 40
0.0
  9
$DIMTIX
 70
     0
  9
$DIMSOXD
 70
     0
  9
$DIMSAH
 70
     0
  9
$DIMBLK1
  1

  9
$DIMBLK2
  1

  9
$DIMSTYLE
  2
STANDARD
  9
$DIMCLRD
 70
     0
  9
$DIMCLRE
 70
     0
  9
$DIMCLRT
 70
     0
  9
$DIMTFAC
 40
1.0
  9
$DIMGAP
 40
0.09
  9
$DIMJUST
 70
     0
  9
$DIMSD1
 70
     0
  9
$DIMSD2
 70
     0
  9
$DIMTOLJ
 70
     1
  9
$DIMTZIN
 70
     0
  9
$DIMALTZ
 70
     0
  9
$DIMALTTZ
 70
     0
  9
$DIMUPT
 70
     0
  9
$DIMDEC
 70
     5
  9
$DIMTDEC
 70
     4
  9
$DIMALTU
 70
     2
  9
$DIMALTTD
 70
     2
  9
$DIMTXSTY
  7
STANDARD
  9
$DIMAUNIT
 70
     0
  9
$DIMADEC
 70
     0
  9
$DIMALTRND
 40
0.0
  9
$DIMAZIN
 70
     0
  9
$DIMDSEP
 70
    46
  9
$DIMATFIT
 70
     3
  9
$DIMFRAC
 70
     2
  9
$DIMLDRBLK
  1

  9
$DIMLUNIT
 70
     5
  9
$DIMLWD
 70
    -2
  9
$DIMLWE
 70
    -2
  9
$DIMTMOVE
 70
     2
  9
$LUNITS
 70
     2
  9
$LUPREC
 70
     4
  9
$SKETCHINC
 40
0.1
  9
$FILLETRAD
 40
0.0
  9
$AUNITS
 70
     0
  9
$AUPREC
 70
     0
  9
$MENU
  1
qa
  9
$ELEVATION
 40
0.0
  9
$PELEVATION
 40
0.0
  9
$THICKNESS
 40
0.0
  9
$LIMCHECK
 70
     0
  9
$CHAMFERA
 40
0.0
  9
$CHAMFERB
 40
0.0
  9
$CHAMFERC
 40
0.0
  9
$CHAMFERD
 40
0.0
  9
$SKPOLY
 70
     0
  9
$TDCREATE
 40
2449686.813559491
  9
$TDUCREATE
 40
2449687.146892824
  9
$TDUPDATE
 40
2454175.92329309
  9
$TDUUPDATE
 40
2454176.256626423
  9
$TDINDWG
 40
0.417124919
  9
$TDUSRTIMER
 40
0.417124919
  9
$USRTIMER
 70
     1
  9
$ANGBASE
 50
0.0
  9
$ANGDIR
 70
     0
  9
$PDMODE
 70
     0
  9
$PDSIZE
 40
0.0
  9
$PLINEWID
 40
0.0
  9
$SPLFRAME
 70
     0
  9
$SPLINETYPE
 70
     6
  9
$SPLINESEGS
 70
     8
  9
$HANDSEED
  5
195
  9
$SURFTAB1
 70
     6
  9
$SURFTAB2
 70
     6
  9
$SURFTYPE
 70
     6
  9
$SURFU
 70
     6
  9
$SURFV
 70
     6
  9
$UCSBASE
  2

  9
$UCSNAME
  2

  9
$UCSORG
 10
0.0
 20
0.0
 30
0.0
  9
$UCSXDIR
 10
1.0
 20
0.0
 30
0.0
  9
$UCSYDIR
 10
0.0
 20
1.0
 30
0.0
  9
$UCSORTHOREF
  2

  9
$UCSORTHOVIEW
 70
     0
  9
$UCSORGTOP
 10
0.0
 20
0.0
 30
0.0
  9
$UCSORGBOTTOM
 10
0.0
 20
0.0
 30
0.0
  9
$UCSORGLEFT
 10
0.0
 20
0.0
 30
0.0
  9
$UCSORGRIGHT
 10
0.0
 20
0.0
 30
0.0
  9
$UCSORGFRONT
 10
0.0
 20
0.0
 30
0.0
  9
$UCSORGBACK
 10
0.0
 20
0.0
 30
0.0
  9
$PUCSBASE
  2

  9
$PUCSNAME
  2

  9
$PUCSORG
 10
0.0
 20
0.0
 30
0.0
  9
$PUCSXDIR
 10
1.0
 20
0.0
 30
0.0
  9
$PUCSYDIR
 10
0.0
 20
1.0
 30
0.0
  9
$PUCSORTHOREF
  2

  9
$PUCSORTHOVIEW
 70
     0
  9
$PUCSORGTOP
 10
0.0
 20
0.0
 30
0.0
  9
$PUCSORGBOTTOM
 10
0.0
 20
0.0
 30
0.0
  9
$PUCSORGLEFT
 10
0.0
 20
0.0
 30
0.0
  9
$PUCSORGRIGHT
 10
0.0
 20
0.0
 30
0.0
  9
$PUCSORGFRONT
 10
0.0
 20
0.0
 30
0.0
  9
$PUCSORGBACK
 10
0.0
 20
0.0
 30
0.0
  9
$USERI1
 70
     0
  9
$USERI2
 70
     0
  9
$USERI3
 70
     0
  9
$USERI4
 70
     0
  9
$USERI5
 70
     0
  9
$USERR1
 40
0.0
  9
$USERR2
 40
0.0
  9
$USERR3
 40
0.0
  9
$USERR4
 40
0.0
  9
$USERR5
 40
0.0
  9
$WORLDVIEW
 70
     1
  9
$SHADEDGE
 70
     3
  9
$SHADEDIF
 70
    70
  9
$TILEMODE
 70
     1
  9
$MAXACTVP
 70
    16
  9
$PINSBASE
 10
0.0
 20
0.0
 30
0.0
  9
$PLIMCHECK
 70
     0
  9
$PEXTMIN
 10
1.000000000000000E+20
 20
1.000000000000000E+20
 30
1.000000000000000E+20
  9
$PEXTMAX
 10
-1.000000000000000E+20
 20
-1.000000000000000E+20
 30
-1.000000000000000E+20
  9
$PLIMMIN
 10
0.0
 20
0.0
  9
$PLIMMAX
 10
12.0
 20
9.0
  9
$UNITMODE
 70
     0
  9
$VISRETAIN
 70
     0
  9
$PLINEGEN
 70
     0
  9
$PSLTSCALE
 70
     0
  9
$TREEDEPTH
 70
  3020
  9
$CMLSTYLE
  2
STANDARD
  9
$CMLJUST
 70
     0
  9
$CMLSCALE
 40
1.0
  9
$PROXYGRAPHICS
 70
     1
  9
$MEASUREMENT
 70
     0
  9
$CELWEIGHT
370
    -1
  9
$ENDCAPS
280
     0
  9
$JOINSTYLE
280
     0
  9
$LWDISPLAY
290
     0
  9
$INSUNITS
 70
     0
  9
$HYPERLINKBASE
  1

  9
$STYLESHEET
  1

  9
$XEDIT
290
     1
  9
$CEPSNTYPE
380
     0
  9
$PSTYLEMODE
290
     1
  9
$FINGERPRINTGUID
  2
{6373DD07-55A5-11D5-BE3F-00508B5FCD51}
  9
$VERSIONGUID
  2
{1737D2CA-D14A-45A6-9190-25DDA9D54184}
  9
$EXTNAMES
290
     1
  9
$PSVPSCALE
 40
0.0
  9
$OLESTARTUP
290
     0
  0
ENDSEC
  0
SECTION
  2
CLASSES
  0
CLASS
  1
DICTIONARYVAR
  2
AcDbDictionaryVar
  3
AutoCAD 2000
 90
        0
280
     0
281
     0
  0
CLASS
  1
LWPOLYLINE
  2
AcDbPolyline
  3
AutoCAD 2000
 90
        0
280
     0
281
     1
  0
CLASS
  1
ACDBDICTIONARYWDFLT
  2
AcDbDictionaryWithDefault
  3
AutoCAD 2000
 90
        0
280
     0
281
     0
  0
CLASS
  1
ACDBPLACEHOLDER
  2
AcDbPlaceHolder
  3
ObjectDBX Classes
 90
        0
280
     0
281
     0
  0
CLASS
  1
LAYOUT
  2
AcDbLayout
  3
ObjectDBX Classes
 90
        0
280
     0
281
     0
  0
CLASS
  1
LONG_TRANSACTION
  2
AcDbLongTransaction
  3
ObjectDBX Classes
 90
   -65536
280
     1
281
     0
  0
CLASS
  1
LWPOLYLINE
  2
AcDbPolyline
  3
AutoCAD 2000
 90
        0
280
     0
281
     1
  0
CLASS
  1
HATCH
  2
AcDbHatch
  3
AutoCAD 2000
 90
        0
280
     0
281
     1
  0
CLASS
  1
XRECORD
  2
AcDbXrecord
  3
AutoCAD 2000
 90
        0
280
     0
281
     0
  0
CLASS
  1
LONG_TRANSACTION
  2
AcDbLongTransaction
  3
ObjectDBX Classes
 90
   -65536
280
     1
281
     0
  0
CLASS
  1
LWPOLYLINE
  2
AcDbPolyline
  3
AutoCAD 2000
 90
        0
280
     0
281
     1
  0
CLASS
  1
HATCH
  2
AcDbHatch
  3
AutoCAD 2000
 90
        0
280
     0
281
     1
  0
CLASS
  1
XRECORD
  2
AcDbXrecord
  3
AutoCAD 2000
 90
        0
280
     0
281
     0
  0
CLASS
  1
LONG_TRANSACTION
  2
AcDbLongTransaction
  3
ObjectDBX Classes
 90
   -65536
280
     1
281
     0
  0
CLASS
  1
LWPOLYLINE
  2
AcDbPolyline
  3
AutoCAD 2000
 90
        0
280
     0
281
     1
  0
CLASS
  1
HATCH
  2
AcDbHatch
  3
AutoCAD 2000
 90
        0
280
     0
281
     1
  0
CLASS
  1
XRECORD
  2
AcDbXrecord
  3
AutoCAD 2000
 90
        0
280
     0
281
     0
  0
CLASS
  1
LONG_TRANSACTION
  2
AcDbLongTransaction
  3
ObjectDBX Classes
 90
   -65536
280
     1
281
     0
  0
CLASS
  1
LWPOLYLINE
  2
AcDbPolyline
  3
AutoCAD 2000
 90
        0
280
     0
281
     1
  0
CLASS
  1
HATCH
  2
AcDbHatch
  3
AutoCAD 2000
 90
        0
280
     0
281
     1
  0
CLASS
  1
XRECORD
  2
AcDbXrecord
  3
AutoCAD 2000
 90
        0
280
     0
281
     0
  0
CLASS
  1
LONG_TRANSACTION
  2
AcDbLongTransaction
  3
ObjectDBX Classes
 90
   -65536
280
     1
281
     0
  0
CLASS
  1
LWPOLYLINE
  2
AcDbPolyline
  3
AutoCAD 2000
 90
        0
280
     0
281
     1
  0
CLASS
  1
HATCH
  2
AcDbHatch
  3
AutoCAD 2000
 90
        0
280
     0
281
     1
  0
CLASS
  1
XRECORD
  2
AcDbXrecord
  3
AutoCAD 2000
 90
        0
280
     0
281
     0
  0
CLASS
  1
LONG_TRANSACTION
  2
AcDbLongTransaction
  3
ObjectDBX Classes
 90
   -65536
280
     1
281
     0
  0
CLASS
  1
LWPOLYLINE
  2
AcDbPolyline
  3
AutoCAD 2000
 90
        0
280
     0
281
     1
  0
CLASS
  1
HATCH
  2
AcDbHatch
  3
AutoCAD 2000
 90
        0
280
     0
281
     1
  0
CLASS
  1
XRECORD
  2
AcDbXrecord
  3
AutoCAD 2000
 90
        0
280
     0
281
     0
  0
CLASS
  1
LONG_TRANSACTION
  2
AcDbLongTransaction
  3
ObjectDBX Classes
 90
   -65536
280
     1
281
     0
  0
CLASS
  1
LWPOLYLINE
  2
AcDbPolyline
  3
AutoCAD 2000
 90
        0
280
     0
281
     1
  0
CLASS
  1
HATCH
  2
AcDbHatch
  3
AutoCAD 2000
 90
        0
280
     0
281
     1
  0
CLASS
  1
XRECORD
  2
AcDbXrecord
  3
AutoCAD 2000
 90
        0
280
     0
281
     0
  0
CLASS
  1
TABLESTYLE
  2
AcDbTableStyle
  3
ObjectDBX Classes
 90
     2047
280
     1
281
     0
  0
ENDSEC
  0
SECTION
  2
TABLES
  0
TABLE
  2
VPORT
  5
1D
330
0
100
AcDbSymbolTable
 70
     2
  0
VPORT
  5
187
330
1D
100
AcDbSymbolTableRecord
100
AcDbViewportTableRecord
  2
*Active
 70
     0
 10
0.0
 20
0.0
 11
1.0
 21
1.0
 12
5.382530058958885
 22
6.416394972814487
 13
0.0
 23
0.0
 14
0.063
 24
0.063
 15
0.25
 25
0.25
 16
0.0
 26
0.0
 36
1.0
 17
0.0
 27
0.0
 37
0.0
 40
20.3739280098218
 41
1.814583333333333
 42
50.0
 43
0.0
 44
0.0
 50
0.0
 51
0.0
 71
     0
 72
   100
 73
     1
 74
     0
 75
     0
 76
     0
 77
     0
 78
     0
281
     0
 65
     1
110
0.0
120
0.0
130
0.0
111
1.0
121
0.0
131
0.0
112
0.0
122
1.0
132
0.0
 79
     0
146
0.0
  0
ENDTAB
  0
TABLE
  2
LTYPE
  5
18
330
0
100
AcDbSymbolTable
 70
     2
  0
LTYPE
  5
19
330
18
100
AcDbSymbolTableRecord
100
AcDbLinetypeTableRecord
  2
BYBLOCK
 70
     0
  3

 72
    65
 73
     0
 40
0.0
  0
LTYPE
  5
1A
330
18
100
AcDbSymbolTableRecord
100
AcDbLinetypeTableRecord
  2
BYLAYER
 70
     0
  3

 72
    65
 73
     0
 40
0.0
  0
LTYPE
  5
A
330
18
100
AcDbSymbolTableRecord
100
AcDbLinetypeTableRecord
  2
CONTINUOUS
 70
     0
  3
Solid line
 72
    65
 73
     0
 40
0.0
  0
LTYPE
  5
17A
330
18
100
AcDbSymbolTableRecord
100
AcDbLinetypeTableRecord
  2
HIDDEN
 70
     0
  3
Hidden __ __ __ __ __ __ __ __ __ __ __ __ __ _
 72
    65
 73
     2
 40
0.375
 49
0.25
 74
     0
 49
-0.125
 74
     0
  0
ENDTAB
  0
TABLE
  2
LAYER
  5
14
330
0
100
AcDbSymbolTable
 70
     1
  0
LAYER
  5
6
330
14
100
AcDbSymbolTableRecord
100
AcDbLayerTableRecord
  2
0
 70
     0
 62
     7
  6
CONTINUOUS
370
    -3
390
7
  0
ENDTAB
  0
TABLE
  2
STYLE
  5
15
330
0
100
AcDbSymbolTable
 70
     1
  0
STYLE
  5
16
330
15
100
AcDbSymbolTableRecord
100
AcDbTextStyleTableRecord
  2
STANDARD
 70
     0
 40
0.0
 41
1.0
 50
0.0
 71
     0
 42
0.225
  3
TXT
  4

  0
ENDTAB
  0
TABLE
  2
VIEW
  5
1B
330
0
100
AcDbSymbolTable
 70
     0
  0
ENDTAB
  0
TABLE
  2
UCS
  5
1C
330
0
100
AcDbSymbolTable
 70
     0
  0
ENDTAB
  0
TABLE
  2
APPID
  5
1F
330
0
100
AcDbSymbolTable
 70
     1
  0
APPID
  5
20
330
1F
100
AcDbSymbolTableRecord
100
AcDbRegAppTableRecord
  2
ACAD
 70
     0
  0
ENDTAB
  0
TABLE
  2
DIMSTYLE
  5
21
330
0
100
AcDbSymbolTable
 70
     1
100
AcDbDimStyleTable
  0
DIMSTYLE
105
28
330
21
100
AcDbSymbolTableRecord
100
AcDbDimStyleTableRecord
  2
STANDARD
 70
     0
  3

  4

340
16
  0
ENDTAB
  0
TABLE
  2
BLOCK_RECORD
  5
1
330
0
100
AcDbSymbolTable
 70
     0
  0
BLOCK_RECORD
  5
2
330
1
100
AcDbSymbolTableRecord
100
AcDbBlockTableRecord
  2
*MODEL_SPACE
340
C
  0
BLOCK_RECORD
  5
E
330
1
100
AcDbSymbolTableRecord
100
AcDbBlockTableRecord
  2
*PAPER_SPACE
340
13
  0
ENDTAB
  0
ENDSEC
  0
SECTION
  2
BLOCKS
  0
BLOCK
  5
5
330
2
100
AcDbEntity
  8
0
100
AcDbBlockBegin
  2
*MODEL_SPACE
 70
     0
 10
0.0
 20
0.0
 30
0.0
  3
*MODEL_SPACE
  1

  4

  0
ENDBLK
  5
B
330
2
100
AcDbEntity
  8
0
100
AcDbBlockEnd
  0
BLOCK
  5
11
330
E
100
AcDbEntity
 67
     1
  8
0
100
AcDbBlockBegin
  2
*PAPER_SPACE
 70
     0
 10
0.0
 20
0.0
 30
0.0
  3
*PAPER_SPACE
  1

  4

  0
ENDBLK
  5
12
330
E
100
AcDbEntity
 67
     1
  8
0
100
AcDbBlockEnd
  0
ENDSEC
  0
SECTION
  2
ENTITIES
  0
LINE
  5
CE
330
2
100
AcDbEntity
  8
0
100
AcDbLine
 10
-1.63583332082816
 20
3.325797351082402
 30
0.0
 11
-1.64060000000005
 21
-0.0000000000000338
 31
0.0
  0
LINE
  5
D0
330
2
100
AcDbEntity
  8
0
100
AcDbLine
 10
1.63583332082814
 20
3.325797351082402
 30
0.0
 11
1.64060000000003
 21
-0.0000000000000338
 31
0.0
  0
LINE
  5
D1
330
2
100
AcDbEntity
  8
0
100
AcDbLine
 10
1.452499999999991
 20
3.643694999999967
 30
0.0
 11
-1.45250000000001
 21
3.643694999999946
 31
0.0
  0
LINE
  5
D2
330
2
100
AcDbEntity
  8
0
100
AcDbLine
 10
1.452499999999991
 20
3.471819999999957
 30
0.0
 11
-1.452499999998076
 21
3.47181999999995
 31
0.0
  0
ARC
  5
D3
330
2
100
AcDbEntity
  8
0
100
AcDbCircle
 10
-1.463972807524766
 20
3.295192807524719
 30
0.0
 40
0.3486909856485455
100
AcDbArc
 50
88.11448491892134
 51
181.8855150810778
  0
ARC
  5
D4
330
2
100
AcDbEntity
  8
0
100
AcDbCircle
 10
-1.451523893011156
 20
3.280927745884961
 30
0.0
 40
0.1908947497076795
100
AcDbArc
 50
90.29297324632785
 51
172.0848394651903
  0
ARC
  5
D5
330
2
100
AcDbEntity
  8
0
100
AcDbCircle
 10
-2.002499962484497
 20
3.4099520532473
 30
0.0
 40
0.3762
100
AcDbArc
 50
312.3574547059348
 51
347.073748161568
  0
LINE
  5
D6
330
2
100
AcDbEntity
  8
0
100
AcDbLine
 10
-1.812475000000013
 20
3.283719999999969
 30
0.0
 11
-1.812475000000014
 21
3.142365421285673
 31
0.0
  0
ARC
  5
D7
330
2
100
AcDbEntity
  8
0
100
AcDbCircle
 10
1.463972807524747
 20
3.295192807524719
 30
0.0
 40
0.3486909856485455
100
AcDbArc
 50
358.1144849189223
 51
91.88551508107867
  0
LINE
  5
D8
330
2
100
AcDbEntity
  8
0
100
AcDbLine
 10
1.812474999999993
 20
3.283719999999969
 30
0.0
 11
1.812474999999995
 21
3.142365421285673
 31
0.0
  0
ARC
  5
D9
330
2
100
AcDbEntity
  8
0
100
AcDbCircle
 10
2.002499962484477
 20
3.4099520532473
 30
0.0
 40
0.3762
100
AcDbArc
 50
192.9262518384321
 51
227.6425452940651
  0
ARC
  5
DA
330
2
100
AcDbEntity
  8
0
100
AcDbCircle
 10
1.451523893011136
 20
3.280927745884961
 30
0.0
 40
0.1908947497076795
100
AcDbArc
 50
7.91516053480972
 51
89.70702675367214
  0
ARC
  5
DB
330
2
100
AcDbEntity
  8
0
100
AcDbCircle
 10
-2.058273477476313
 20
12.78883071605895
 30
0.0
 40
0.4634763209873742
100
AcDbArc
 50
25.68699369397981
 51
107.7512677614925
  0
ARC
  5
DC
330
2
100
AcDbEntity
  8
0
100
AcDbCircle
 10
-2.028526746601981
 20
12.79956833387828
 30
0.0
 40
0.2758457982897771
100
AcDbArc
 50
43.57982185947724
 51
109.363421956459
  0
LINE
  5
DD
330
2
100
AcDbEntity
  8
0
100
AcDbLine
 10
-2.023154364826294
 20
12.98972662524785
 30
0.0
 11
-1.828699999999995
 21
12.79527226042155
 31
0.0
  0
ARC
  5
DE
330
2
100
AcDbEntity
  8
0
100
AcDbCircle
 10
-2.028526746601981
 20
9.154884916617384
 30
0.0
 40
0.2758457982897771
100
AcDbArc
 50
250.636578043541
 51
316.4201781405228
  0
LINE
  5
DF
330
2
100
AcDbEntity
  8
0
100
AcDbLine
 10
-2.023154364826294
 20
8.964726625247817
 30
0.0
 11
-1.828699999999995
 21
9.159180990074116
 31
0.0
  0
ARC
  5
E0
330
2
100
AcDbEntity
  8
0
100
AcDbCircle
 10
-2.058273477476313
 20
9.165622534436714
 30
0.0
 40
0.4634763209873742
100
AcDbArc
 50
252.2487322385075
 51
334.3130063060202
  0
LINE
  5
E1
330
2
100
AcDbEntity
  8
0
100
AcDbLine
 10
-4.078700000000009
 20
12.98972662524783
 30
0.0
 11
-4.078700000000009
 21
8.964726625247828
 31
0.0
  0
LINE
  5
E2
330
2
100
AcDbEntity
  8
0
100
AcDbLine
 10
-2.359950000000006
 20
11.4898599714479
 30
0.0
 11
-2.359950000000006
 21
10.4898599714479
 31
0.0
  0
LINE
  5
E3
330
2
100
AcDbEntity
  8
0
100
AcDbLine
 10
-3.322450000000004
 20
10.4898599714479
 30
0.0
 11
-3.322450000000004
 21
11.4898599714479
 31
0.0
  0
LINE
  5
E4
330
2
100
AcDbEntity
  8
0
100
AcDbLine
 10
-3.941200000000014
 20
8.792851625247835
 30
0.0
 11
-2.452114446083276
 21
8.792851625247824
 31
0.0
  0
LINE
  5
E5
330
2
100
AcDbEntity
  8
0
100
AcDbLine
 10
-4.078700000000009
 20
8.964726625247828
 30
0.0
 11
-2.023154364826294
 21
8.964726625247817
 31
0.0
  0
LINE
  5
E6
330
2
100
AcDbEntity
  8
0
100
AcDbLine
 10
-3.941200000000014
 20
8.964726625247835
 30
0.0
 11
-3.941200000000014
 21
8.792851625247835
 31
0.0
  0
LINE
  5
E7
330
2
100
AcDbEntity
  8
0
100
AcDbLine
 10
-3.941200000000014
 20
8.792851625247845
 30
0.0
 11
-3.941200000000014
 21
8.964726625247838
 31
0.0
  0
LINE
  5
E8
330
2
100
AcDbEntity
  8
0
100
AcDbLine
 10
-3.941200000000014
 20
8.964726625247835
 30
0.0
 11
-3.941200000000014
 21
8.792851625247835
 31
0.0
  0
ARC
  5
E9
330
2
100
AcDbEntity
  8
0
100
AcDbCircle
 10
-2.452114446083276
 20
8.588526625247813
 30
0.0
 40
0.3762
100
AcDbArc
 50
64.96630016275617
 51
89.9999999999999
  0
LINE
  5
EA
330
2
100
AcDbEntity
  8
0
100
AcDbLine
 10
-2.452114446083272
 20
8.792851625247828
 30
0.0
 11
-2.199580628127696
 21
8.724212759634682
 31
0.0
  0
LINE
  5
EB
330
2
100
AcDbEntity
  8
0
100
AcDbLine
 10
-2.292924944146219
 20
8.929386042710544
 30
0.0
 11
-2.119985877159182
 21
8.894642468366055
 31
0.0
  0
ARC
  5
EC
330
2
100
AcDbEntity
  8
0
100
AcDbCircle
 10
-2.841200000000005
 20
10.4898599714479
 30
0.0
 40
0.4812499999999997
100
AcDbArc
 50
180.0
 51
0.0
  0
ARC
  5
ED
330
2
100
AcDbEntity
  8
0
100
AcDbCircle
 10
-2.841200000000005
 20
11.4898599714479
 30
0.0
 40
0.4812499999999997
100
AcDbArc
 50
0.0
 51
180.0
  0
LINE
  5
EE
330
2
100
AcDbEntity
  8
0
100
AcDbLine
 10
-2.452114446083272
 20
13.16160162524784
 30
0.0
 11
-3.941200000000014
 21
13.16160162524783
 31
0.0
  0
LINE
  5
EF
330
2
100
AcDbEntity
  8
0
100
AcDbLine
 10
-2.023154364826294
 20
12.98972662524785
 30
0.0
 11
-4.078700000000009
 21
12.98972662524783
 31
0.0
  0
LINE
  5
F0
330
2
100
AcDbEntity
  8
0
100
AcDbLine
 10
-3.941200000000014
 20
13.16160162524782
 30
0.0
 11
-3.941200000000014
 21
12.98972662524783
 31
0.0
  0
LINE
  5
F1
330
2
100
AcDbEntity
  8
0
100
AcDbLine
 10
-3.941200000000014
 20
13.16160162524782
 30
0.0
 11
-3.941200000000014
 21
12.98972662524783
 31
0.0
  0
ARC
  5
F2
330
2
100
AcDbEntity
  8
0
100
AcDbCircle
 10
-2.452114446083276
 20
13.36592662524785
 30
0.0
 40
0.3762
100
AcDbArc
 50
270.0000000000001
 51
295.0336998372438
  0
LINE
  5
F3
330
2
100
AcDbEntity
  8
0
100
AcDbLine
 10
-2.452114446083272
 20
13.16160162524784
 30
0.0
 11
-2.199580628127696
 21
13.23024049086098
 31
0.0
  0
LINE
  5
F4
330
2
100
AcDbEntity
  8
0
100
AcDbLine
 10
-2.292924944146219
 20
13.02506720778512
 30
0.0
 11
-2.119985877159182
 21
13.05981078212961
 31
0.0
  0
LINE
  5
F5
330
2
100
AcDbEntity
  8
0
100
AcDbLine
 10
4.078700000000008
 20
12.98972662524782
 30
0.0
 11
4.0787
 21
8.96472662524782
 31
0.0
  0
LINE
  5
F6
330
2
100
AcDbEntity
  8
0
100
AcDbLine
 10
-1.828699999999995
 20
8.964726625247828
 30
0.0
 11
-1.828699999999995
 21
12.98972662524784
 31
0.0
  0
LINE
  5
F7
330
2
100
AcDbEntity
  8
0
  6
HIDDEN
100
AcDbLine
 10
-1.640600000000004
 20
8.964726625247803
 30
0.0
 11
-1.640600000000004
 21
12.98972662524787
 31
0.0
  0
LINE
  5
F8
330
2
100
AcDbEntity
  8
0
  6
Continuous
100
AcDbLine
 10
1.8287
 20
8.964726625247824
 30
0.0
 11
1.828699999999993
 21
12.98972662524785
 31
0.0
  0
LINE
  5
F9
330
2
100
AcDbEntity
  8
0
  6
HIDDEN
100
AcDbLine
 10
1.640600000000004
 20
8.964726625247792
 30
0.0
 11
1.640600000000002
 21
12.98972662524786
 31
0.0
  0
LINE
  5
FA
330
2
100
AcDbEntity
  8
0
  6
Continuous
100
AcDbLine
 10
1.8287
 20
8.96472662524781
 30
0.0
 11
1.828699999999993
 21
12.98972662524784
 31
0.0
  0
ARC
  5
FB
330
2
100
AcDbEntity
  8
0
100
AcDbCircle
 10
2.058273477476305
 20
9.165622534436711
 30
0.0
 40
0.4634763209873742
100
AcDbArc
 50
205.6869936939797
 51
287.7512677614924
  0
LINE
  5
FC
330
2
100
AcDbEntity
  8
0
100
AcDbLine
 10
1.82869999999999
 20
8.964726625247824
 30
0.0
 11
-1.828699999999997
 21
8.964726625247828
 31
0.0
  0
LINE
  5
FD
330
2
100
AcDbEntity
  8
0
100
AcDbLine
 10
2.35995
 20
11.48985997144792
 30
0.0
 11
2.35995
 21
10.48985997144792
 31
0.0
  0
LINE
  5
FE
330
2
100
AcDbEntity
  8
0
100
AcDbLine
 10
3.322449999999999
 20
10.48985997144792
 30
0.0
 11
3.322449999999999
 21
11.48985997144792
 31
0.0
  0
LINE
  5
FF
330
2
100
AcDbEntity
  8
0
100
AcDbLine
 10
4.0787
 20
8.96472662524782
 30
0.0
 11
2.023154364826286
 21
8.964726625247813
 31
0.0
  0
LINE
  5
100
330
2
100
AcDbEntity
  8
0
100
AcDbLine
 10
3.941200000000005
 20
8.792851625247828
 30
0.0
 11
2.452114446083267
 21
8.79285162524782
 31
0.0
  0
ARC
  5
101
330
2
100
AcDbEntity
  8
0
100
AcDbCircle
 10
2.8412
 20
10.48985997144792
 30
0.0
 40
0.4812499999999997
100
AcDbArc
 50
180.0
 51
0.000000000000007
  0
ARC
  5
102
330
2
100
AcDbEntity
  8
0
100
AcDbCircle
 10
2.452114446083267
 20
8.588526625247809
 30
0.0
 40
0.3762
100
AcDbArc
 50
90.0
 51
115.0336998372437
  0
LINE
  5
103
330
2
100
AcDbEntity
  8
0
100
AcDbLine
 10
2.452114446083264
 20
8.792851625247824
 30
0.0
 11
2.199580628127687
 21
8.724212759634678
 31
0.0
  0
LINE
  5
104
330
2
100
AcDbEntity
  8
0
100
AcDbLine
 10
2.023154364826286
 20
8.964726625247813
 30
0.0
 11
1.828699999999986
 21
9.159180990074113
 31
0.0
  0
ARC
  5
105
330
2
100
AcDbEntity
  8
0
100
AcDbCircle
 10
2.028526746601972
 20
9.15488491661738
 30
0.0
 40
0.2758457982897771
100
AcDbArc
 50
223.5798218594771
 51
289.3634219564589
  0
LINE
  5
106
330
2
100
AcDbEntity
  8
0
100
AcDbLine
 10
2.29292494414621
 20
8.92938604271054
 30
0.0
 11
2.119985877159173
 21
8.894642468366051
 31
0.0
  0
LINE
  5
107
330
2
100
AcDbEntity
  8
0
100
AcDbLine
 10
3.941200000000005
 20
8.964726625247828
 30
0.0
 11
3.941200000000005
 21
8.792851625247828
 31
0.0
  0
LINE
  5
108
330
2
100
AcDbEntity
  8
0
100
AcDbLine
 10
3.941200000000005
 20
8.792851625247838
 30
0.0
 11
3.941200000000005
 21
8.964726625247831
 31
0.0
  0
LINE
  5
109
330
2
100
AcDbEntity
  8
0
100
AcDbLine
 10
3.941200000000005
 20
8.964726625247828
 30
0.0
 11
3.941200000000005
 21
8.792851625247828
 31
0.0
  0
ARC
  5
10A
330
2
100
AcDbEntity
  8
0
100
AcDbCircle
 10
2.8412
 20
11.48985997144792
 30
0.0
 40
0.4812499999999997
100
AcDbArc
 50
0.000000000000007
 51
180.0
  0
LINE
  5
10B
330
2
100
AcDbEntity
  8
0
100
AcDbLine
 10
-1.828699999999993
 20
12.98972662524784
 30
0.0
 11
1.828699999999993
 21
12.98972662524784
 31
0.0
  0
LINE
  5
10C
330
2
100
AcDbEntity
  8
0
100
AcDbLine
 10
2.023154364826293
 20
12.98972662524785
 30
0.0
 11
4.078700000000008
 21
12.98972662524782
 31
0.0
  0
LINE
  5
10D
330
2
100
AcDbEntity
  8
0
100
AcDbLine
 10
2.452114446083271
 20
13.16160162524783
 30
0.0
 11
3.941200000000012
 21
13.16160162524782
 31
0.0
  0
ARC
  5
10E
330
2
100
AcDbEntity
  8
0
100
AcDbCircle
 10
2.452114446083274
 20
13.36592662524785
 30
0.0
 40
0.3762
100
AcDbArc
 50
244.9663001627561
 51
269.9999999999998
  0
LINE
  5
10F
330
2
100
AcDbEntity
  8
0
100
AcDbLine
 10
2.452114446083271
 20
13.16160162524783
 30
0.0
 11
2.199580628127694
 21
13.23024049086098
 31
0.0
  0
LINE
  5
110
330
2
100
AcDbEntity
  8
0
100
AcDbLine
 10
2.023154364826293
 20
12.98972662524785
 30
0.0
 11
1.828699999999993
 21
12.79527226042155
 31
0.0
  0
ARC
  5
111
330
2
100
AcDbEntity
  8
0
100
AcDbCircle
 10
2.028526746601979
 20
12.79956833387828
 30
0.0
 40
0.2758457982897771
100
AcDbArc
 50
70.63657804354088
 51
136.4201781405227
  0
ARC
  5
112
330
2
100
AcDbEntity
  8
0
100
AcDbCircle
 10
2.058273477476312
 20
12.78883071605895
 30
0.0
 40
0.4634763209873742
100
AcDbArc
 50
72.24873223850742
 51
154.3130063060201
  0
LINE
  5
113
330
2
100
AcDbEntity
  8
0
100
AcDbLine
 10
2.292924944146217
 20
13.02506720778511
 30
0.0
 11
2.11998587715918
 21
13.05981078212961
 31
0.0
  0
LINE
  5
114
330
2
100
AcDbEntity
  8
0
100
AcDbLine
 10
3.941200000000012
 20
13.16160162524782
 30
0.0
 11
3.941200000000012
 21
12.98972662524782
 31
0.0
  0
LINE
  5
115
330
2
100
AcDbEntity
  8
0
100
AcDbLine
 10
3.941200000000012
 20
13.16160162524782
 30
0.0
 11
3.941200000000012
 21
12.98972662524782
 31
0.0
  0
LINE
  5
116
330
2
100
AcDbEntity
  8
0
100
AcDbLine
 10
11.76548622417869
 20
2.483710541746595
 30
0.0
 11
11.76548622417869
 21
-0.0000000000000053
 31
0.0
  0
LINE
  5
117
330
2
100
AcDbEntity
  8
0
100
AcDbLine
 10
11.9535862241787
 20
2.483896685407919
 30
0.0
 11
11.95358622417869
 21
-0.0000000000000053
 31
0.0
  0
LINE
  5
118
330
2
100
AcDbEntity
  8
0
100
AcDbLine
 10
7.702986224178697
 20
2.483710541746591
 30
0.0
 11
7.702986224178701
 21
-0.0000000000000089
 31
0.0
  0
LINE
  5
119
330
2
100
AcDbEntity
  8
0
100
AcDbLine
 10
7.514886224178702
 20
2.483896685407915
 30
0.0
 11
7.514886224178709
 21
-0.0000000000000053
 31
0.0
  0
LINE
  5
11A
330
2
100
AcDbEntity
  8
0
100
AcDbLine
 10
7.702986224178701
 20
0.8687500000000465
 30
0.0
 11
11.76548622417869
 21
0.8687500000000465
 31
0.0
  0
LINE
  5
11B
330
2
100
AcDbEntity
  8
0
100
AcDbLine
 10
7.702986224178701
 20
0.368749999999995
 30
0.0
 11
11.76548622417869
 21
0.368749999999995
 31
0.0
  0
LINE
  5
11C
330
2
100
AcDbEntity
  8
0
100
AcDbLine
 10
7.514886224178709
 20
-0.0000000000000053
 30
0.0
 11
11.9535862241787
 21
-0.0000000000000053
 31
0.0
  0
LINE
  5
11D
330
2
100
AcDbEntity
  8
0
100
AcDbLine
 10
7.514886224178706
 20
0.7562499999999925
 30
0.0
 11
7.702986224178697
 21
0.7562499999999925
 31
0.0
  0
LINE
  5
11E
330
2
100
AcDbEntity
  8
0
100
AcDbLine
 10
11.76548622417869
 20
0.7562499999999961
 30
0.0
 11
11.95358622417869
 21
0.7562499999999961
 31
0.0
  0
LINE
  5
11F
330
2
100
AcDbEntity
  8
0
  6
Continuous
100
AcDbLine
 10
7.702986224178697
 20
3.643694999999942
 30
0.0
 11
11.76548622417871
 21
3.64369499999996
 31
0.0
  0
LINE
  5
120
330
2
100
AcDbEntity
  8
0
  6
HIDDEN
100
AcDbLine
 10
7.702986224178694
 20
3.503069999999942
 30
0.0
 11
11.76548622417871
 21
3.503069999999957
 31
0.0
  0
LINE
  5
121
330
2
100
AcDbEntity
  8
0
100
AcDbLine
 10
7.575979948302151
 20
2.980118711953304
 30
0.0
 11
7.702986224178697
 21
3.107124987829851
 31
0.0
  0
CIRCLE
  5
122
330
2
100
AcDbEntity
  8
0
100
AcDbCircle
 10
8.359236224178702
 20
1.937499999999984
 30
0.0
 40
0.0855
  0
ARC
  5
123
330
2
100
AcDbEntity
  8
0
100
AcDbCircle
 10
7.326786224178696
 20
2.483710541746591
 30
0.0
 40
0.3762
100
AcDbArc
 50
0.0000000000001018
 51
25.03369983724715
  0
ARC
  5
124
330
2
100
AcDbEntity
  8
0
100
AcDbCircle
 10
7.841993519384526
 20
2.714105140870926
 30
0.0
 40
0.3762
100
AcDbArc
 50
135.0
 51
204.0763743990387
  0
ARC
  5
125
330
2
100
AcDbEntity
  8
0
100
AcDbCircle
 10
7.326786224178703
 20
2.483896685407915
 30
0.0
 40
0.1881
100
AcDbArc
 50
0.0000000000002976
 51
24.07637439904274
  0
LINE
  5
126
330
2
100
AcDbEntity
  8
0
100
AcDbLine
 10
7.667645641641431
 20
2.642900043683641
 30
0.0
 11
7.586878960339056
 21
2.815839110670671
 31
0.0
  0
ARC
  5
127
330
2
100
AcDbEntity
  8
0
100
AcDbCircle
 10
7.757308669070425
 20
2.8954338616392
 30
0.0
 40
0.1881
100
AcDbArc
 50
135.0
 51
205.033699837247
  0
CIRCLE
  5
128
330
2
100
AcDbEntity
  8
0
100
AcDbCircle
 10
9.359236224178702
 20
2.062499999999984
 30
0.0
 40
0.0855
  0
CIRCLE
  5
129
330
2
100
AcDbEntity
  8
0
100
AcDbCircle
 10
10.0467362241787
 20
1.874999999999984
 30
0.0
 40
0.0855
  0
CIRCLE
  5
12A
330
2
100
AcDbEntity
  8
0
100
AcDbCircle
 10
9.421736224178702
 20
2.562499999999984
 30
0.0
 40
0.0855
  0
CIRCLE
  5
12B
330
2
100
AcDbEntity
  8
0
100
AcDbCircle
 10
8.734236224178702
 20
2.874999999999984
 30
0.0
 40
0.0855
  0
CIRCLE
  5
12C
330
2
100
AcDbEntity
  8
0
100
AcDbCircle
 10
10.10923622417872
 20
2.749999999999984
 30
0.0
 40
0.0855
  0
LINE
  5
12D
330
2
100
AcDbEntity
  8
0
100
AcDbLine
 10
7.702986224178697
 20
3.107124987829851
 30
0.0
 11
7.702986224178697
 21
3.643694999999942
 31
0.0
  0
LINE
  5
12E
330
2
100
AcDbEntity
  8
0
100
AcDbLine
 10
11.89249250005526
 20
2.980118711953308
 30
0.0
 11
11.76548622417871
 21
3.107124987829854
 31
0.0
  0
ARC
  5
12F
330
2
100
AcDbEntity
  8
0
100
AcDbCircle
 10
11.62647892897288
 20
2.714105140870929
 30
0.0
 40
0.3762
100
AcDbArc
 50
335.9236256009627
 51
45.0
  0
CIRCLE
  5
130
330
2
100
AcDbEntity
  8
0
100
AcDbCircle
 10
10.7342362241787
 20
1.999999999999984
 30
0.0
 40
0.0855
  0
CIRCLE
  5
131
330
2
100
AcDbEntity
  8
0
100
AcDbCircle
 10
11.1092362241787
 20
2.937499999999984
 30
0.0
 40
0.0855
  0
ARC
  5
132
330
2
100
AcDbEntity
  8
0
100
AcDbCircle
 10
12.14168622417871
 20
2.483710541746595
 30
0.0
 40
0.3762
100
AcDbArc
 50
154.9663001627562
 51
179.9999999999999
  0
ARC
  5
133
330
2
100
AcDbEntity
  8
0
100
AcDbCircle
 10
12.14168622417871
 20
2.483896685407919
 30
0.0
 40
0.1881
100
AcDbArc
 50
155.9236256009587
 51
179.9999999999997
  0
LINE
  5
134
330
2
100
AcDbEntity
  8
0
100
AcDbLine
 10
11.80082680671598
 20
2.642900043683644
 30
0.0
 11
11.88159348801835
 21
2.815839110670675
 31
0.0
  0
ARC
  5
135
330
2
100
AcDbEntity
  8
0
100
AcDbCircle
 10
11.71116377928698
 20
2.895433861639203
 30
0.0
 40
0.1881
100
AcDbArc
 50
334.9663001627563
 51
45.0
  0
LINE
  5
136
330
2
100
AcDbEntity
  8
0
100
AcDbLine
 10
11.76548622417871
 20
3.64369499999996
 30
0.0
 11
11.7654862241787
 21
3.107124987829854
 31
0.0
  0
LINE
  5
137
330
2
100
AcDbEntity
  8
0
100
AcDbLine
 10
-3.890600000000052
 20
0.7562499999999925
 30
0.0
 11
-3.890600000000057
 21
-0.0000000000000071
 31
0.0
  0
LINE
  5
138
330
2
100
AcDbEntity
  8
0
100
AcDbLine
 10
-3.789187571793755
 20
0.8687499999999933
 30
0.0
 11
-4.011875000000047
 21
0.8687500000000448
 31
0.0
  0
LINE
  5
139
330
2
100
AcDbEntity
  8
0
100
AcDbLine
 10
-4.011875000000047
 20
0.8687500000000448
 30
0.0
 11
-4.011875000000054
 21
0.368749999999995
 31
0.0
  0
LINE
  5
13A
330
2
100
AcDbEntity
  8
0
100
AcDbLine
 10
-4.011875000000054
 20
0.368749999999995
 30
0.0
 11
-3.890600000000053
 21
0.3687499999999933
 31
0.0
  0
LINE
  5
13B
330
2
100
AcDbEntity
  8
0
  6
Continuous
100
AcDbLine
 10
-3.890600000000057
 20
-0.0000000000000071
 30
0.0
 11
-1.640600000000053
 21
-0.0000000000000338
 31
0.0
  0
LINE
  5
13C
330
2
100
AcDbEntity
  8
0
  6
HIDDEN
100
AcDbLine
 10
-3.789187571793755
 20
0.8687499999999933
 30
0.0
 11
-1.812475000000041
 21
0.8687499999999933
 31
0.0
  0
LINE
  5
13D
330
2
100
AcDbEntity
  8
0
  6
HIDDEN
100
AcDbLine
 10
-3.890600000000053
 20
0.3687499999999933
 30
0.0
 11
-1.812475000000041
 21
0.3687499999999933
 31
0.0
  0
LINE
  5
13E
330
2
100
AcDbEntity
  8
0
100
AcDbLine
 10
-1.749033761223145
 20
3.131956864767103
 30
0.0
 11
-3.890600000000052
 21
0.7562499999999925
 31
0.0
  0
LINE
  5
13F
330
2
100
AcDbEntity
  8
0
100
AcDbLine
 10
-1.812475000000014
 20
3.309319999999969
 30
0.0
 11
-1.812475000000053
 21
-0.0000000000000338
 31
0.0
  0
LINE
  5
140
330
2
100
AcDbEntity
  8
0
100
AcDbLine
 10
-1.63583332082816
 20
3.325797351082402
 30
0.0
 11
-1.64060000000005
 21
-0.0000000000000338
 31
0.0
  0
LINE
  5
141
330
2
100
AcDbEntity
  8
0
100
AcDbLine
 10
3.890600000000032
 20
0.7562499999999925
 30
0.0
 11
3.890600000000037
 21
-0.0000000000000071
 31
0.0
  0
LINE
  5
142
330
2
100
AcDbEntity
  8
0
100
AcDbLine
 10
3.789187571793735
 20
0.8687499999999933
 30
0.0
 11
4.011875000000027
 21
0.8687500000000448
 31
0.0
  0
LINE
  5
143
330
2
100
AcDbEntity
  8
0
100
AcDbLine
 10
4.011875000000027
 20
0.8687500000000448
 30
0.0
 11
4.011875000000035
 21
0.368749999999995
 31
0.0
  0
LINE
  5
144
330
2
100
AcDbEntity
  8
0
100
AcDbLine
 10
4.011875000000035
 20
0.368749999999995
 30
0.0
 11
3.890600000000034
 21
0.3687499999999933
 31
0.0
  0
LINE
  5
145
330
2
100
AcDbEntity
  8
0
  6
Continuous
100
AcDbLine
 10
3.890600000000037
 20
-0.0000000000000071
 30
0.0
 11
1.640600000000034
 21
-0.0000000000000338
 31
0.0
  0
LINE
  5
146
330
2
100
AcDbEntity
  8
0
  6
HIDDEN
100
AcDbLine
 10
3.789187571793735
 20
0.8687499999999933
 30
0.0
 11
1.812475000000021
 21
0.8687499999999933
 31
0.0
  0
LINE
  5
147
330
2
100
AcDbEntity
  8
0
  6
HIDDEN
100
AcDbLine
 10
3.890600000000034
 20
0.3687499999999933
 30
0.0
 11
1.812475000000021
 21
0.3687499999999933
 31
0.0
  0
LINE
  5
148
330
2
100
AcDbEntity
  8
0
100
AcDbLine
 10
1.749033761223125
 20
3.131956864767103
 30
0.0
 11
3.890600000000032
 21
0.7562499999999925
 31
0.0
  0
LINE
  5
149
330
2
100
AcDbEntity
  8
0
100
AcDbLine
 10
1.812474999999995
 20
3.309319999999969
 30
0.0
 11
1.812475000000034
 21
-0.0000000000000338
 31
0.0
  0
LINE
  5
14A
330
2
100
AcDbEntity
  8
0
100
AcDbLine
 10
1.63583332082814
 20
3.325797351082402
 30
0.0
 11
1.64060000000003
 21
-0.0000000000000338
 31
0.0
  0
ARC
  5
14F
330
2
100
AcDbEntity
  8
0
100
AcDbCircle
 10
-12.14168622417872
 20
2.483710541746595
 30
0.0
 40
0.3762
100
AcDbArc
 50
0.0000000000001088
 51
25.03369983724384
  0
LINE
  5
150
330
2
100
AcDbEntity
  8
0
100
AcDbLine
 10
-7.702986224178708
 20
0.8687500000000465
 30
0.0
 11
-11.7654862241787
 21
0.8687500000000465
 31
0.0
  0
LINE
  5
151
330
2
100
AcDbEntity
  8
0
  6
Continuous
100
AcDbLine
 10
-7.702986224178704
 20
3.643694999999942
 30
0.0
 11
-11.76548622417872
 21
3.64369499999996
 31
0.0
  0
LINE
  5
152
330
2
100
AcDbEntity
  8
0
  6
HIDDEN
100
AcDbLine
 10
-7.702986224178701
 20
3.503069999999942
 30
0.0
 11
-11.76548622417871
 21
3.503069999999957
 31
0.0
  0
LINE
  5
153
330
2
100
AcDbEntity
  8
0
100
AcDbLine
 10
-7.702986224178708
 20
0.368749999999995
 30
0.0
 11
-11.7654862241787
 21
0.368749999999995
 31
0.0
  0
LINE
  5
154
330
2
100
AcDbEntity
  8
0
100
AcDbLine
 10
-7.514886224178716
 20
-0.0000000000000053
 30
0.0
 11
-11.9535862241787
 21
-0.0000000000000053
 31
0.0
  0
LINE
  5
155
330
2
100
AcDbEntity
  8
0
100
AcDbLine
 10
-7.702986224178704
 20
2.483710541746591
 30
0.0
 11
-7.702986224178708
 21
-0.0000000000000089
 31
0.0
  0
LINE
  5
156
330
2
100
AcDbEntity
  8
0
100
AcDbLine
 10
-7.514886224178709
 20
2.483896685407915
 30
0.0
 11
-7.514886224178716
 21
-0.0000000000000053
 31
0.0
  0
CIRCLE
  5
157
330
2
100
AcDbEntity
  8
0
100
AcDbCircle
 10
-9.359236224178709
 20
2.062499999999984
 30
0.0
 40
0.0855
  0
ARC
  5
158
330
2
100
AcDbEntity
  8
0
100
AcDbCircle
 10
-7.326786224178703
 20
2.483710541746591
 30
0.0
 40
0.3762
100
AcDbArc
 50
154.9663001627528
 51
179.9999999999999
  0
ARC
  5
159
330
2
100
AcDbEntity
  8
0
100
AcDbCircle
 10
-7.841993519384533
 20
2.714105140870926
 30
0.0
 40
0.3762
100
AcDbArc
 50
335.9236256009613
 51
45.00000000000001
  0
LINE
  5
15A
330
2
100
AcDbEntity
  8
0
100
AcDbLine
 10
-7.514886224178713
 20
0.7562499999999925
 30
0.0
 11
-7.702986224178704
 21
0.7562499999999925
 31
0.0
  0
ARC
  5
15B
330
2
100
AcDbEntity
  8
0
100
AcDbCircle
 10
-7.326786224178711
 20
2.483896685407915
 30
0.0
 40
0.1881
100
AcDbArc
 50
155.9236256009573
 51
179.9999999999997
  0
CIRCLE
  5
15C
330
2
100
AcDbEntity
  8
0
100
AcDbCircle
 10
-8.359236224178709
 20
1.937499999999984
 30
0.0
 40
0.0855
  0
LINE
  5
15D
330
2
100
AcDbEntity
  8
0
100
AcDbLine
 10
-7.702986224178704
 20
3.107124987829851
 30
0.0
 11
-7.702986224178704
 21
3.643694999999942
 31
0.0
  0
LINE
  5
15E
330
2
100
AcDbEntity
  8
0
100
AcDbLine
 10
-7.575979948302158
 20
2.980118711953304
 30
0.0
 11
-7.702986224178704
 21
3.107124987829851
 31
0.0
  0
LINE
  5
15F
330
2
100
AcDbEntity
  8
0
100
AcDbLine
 10
-7.667645641641438
 20
2.642900043683641
 30
0.0
 11
-7.586878960339063
 21
2.815839110670671
 31
0.0
  0
ARC
  5
160
330
2
100
AcDbEntity
  8
0
100
AcDbCircle
 10
-7.757308669070432
 20
2.8954338616392
 30
0.0
 40
0.1881
100
AcDbArc
 50
334.9663001627529
 51
45.00000000000001
  0
CIRCLE
  5
161
330
2
100
AcDbEntity
  8
0
100
AcDbCircle
 10
-8.734236224178709
 20
2.874999999999984
 30
0.0
 40
0.0855
  0
CIRCLE
  5
162
330
2
100
AcDbEntity
  8
0
100
AcDbCircle
 10
-9.421736224178709
 20
2.562499999999984
 30
0.0
 40
0.0855
  0
CIRCLE
  5
163
330
2
100
AcDbEntity
  8
0
100
AcDbCircle
 10
-10.04673622417871
 20
1.874999999999984
 30
0.0
 40
0.0855
  0
CIRCLE
  5
164
330
2
100
AcDbEntity
  8
0
100
AcDbCircle
 10
-10.73423622417871
 20
1.999999999999984
 30
0.0
 40
0.0855
  0
CIRCLE
  5
165
330
2
100
AcDbEntity
  8
0
100
AcDbCircle
 10
-10.10923622417872
 20
2.749999999999984
 30
0.0
 40
0.0855
  0
CIRCLE
  5
166
330
2
100
AcDbEntity
  8
0
100
AcDbCircle
 10
-11.10923622417871
 20
2.937499999999984
 30
0.0
 40
0.0855
  0
LINE
  5
167
330
2
100
AcDbEntity
  8
0
100
AcDbLine
 10
-11.7654862241787
 20
2.483710541746595
 30
0.0
 11
-11.7654862241787
 21
-0.0000000000000053
 31
0.0
  0
LINE
  5
168
330
2
100
AcDbEntity
  8
0
100
AcDbLine
 10
-11.9535862241787
 20
2.483896685407919
 30
0.0
 11
-11.9535862241787
 21
-0.0000000000000053
 31
0.0
  0
ARC
  5
169
330
2
100
AcDbEntity
  8
0
100
AcDbCircle
 10
-11.62647892897289
 20
2.714105140870929
 30
0.0
 40
0.3762
100
AcDbArc
 50
135.0
 51
204.0763743990373
  0
LINE
  5
16A
330
2
100
AcDbEntity
  8
0
100
AcDbLine
 10
-11.7654862241787
 20
0.7562499999999961
 30
0.0
 11
-11.9535862241787
 21
0.7562499999999961
 31
0.0
  0
ARC
  5
16B
330
2
100
AcDbEntity
  8
0
100
AcDbCircle
 10
-12.14168622417871
 20
2.483896685407919
 30
0.0
 40
0.1881
100
AcDbArc
 50
0.0000000000003123
 51
24.07637439904132
  0
LINE
  5
16C
330
2
100
AcDbEntity
  8
0
100
AcDbLine
 10
-11.76548622417872
 20
3.64369499999996
 30
0.0
 11
-11.76548622417871
 21
3.107124987829854
 31
0.0
  0
LINE
  5
16D
330
2
100
AcDbEntity
  8
0
100
AcDbLine
 10
-11.89249250005527
 20
2.980118711953308
 30
0.0
 11
-11.76548622417872
 21
3.107124987829854
 31
0.0
  0
LINE
  5
16E
330
2
100
AcDbEntity
  8
0
100
AcDbLine
 10
-11.80082680671598
 20
2.642900043683644
 30
0.0
 11
-11.88159348801836
 21
2.815839110670675
 31
0.0
  0
ARC
  5
16F
330
2
100
AcDbEntity
  8
0
100
AcDbCircle
 10
-11.71116377928699
 20
2.895433861639203
 30
0.0
 40
0.1881
100
AcDbArc
 50
135.0
 51
205.0336998372437
  0
ENDSEC
  0
SECTION
  2
OBJECTS
  0
DICTIONARY
  5
9
330
0
100
AcDbDictionary
281
     1
  3
ACAD_COLOR
350
173
  3
ACAD_GROUP
350
23
  3
ACAD_LAYOUT
350
D
  3
ACAD_MATERIAL
350
172
  3
ACAD_MLINESTYLE
350
24
  3
ACAD_PLOTSETTINGS
350
25
  3
ACAD_PLOTSTYLENAME
350
8
  3
ACAD_TABLESTYLE
350
174
  3
ACDBHEADERROUNDTRIPXREC
350
18E
  3
AcDbVariableDictionary
350
C1
  0
DICTIONARY
  5
173
102
{ACAD_REACTORS
330
9
102
}
330
9
100
AcDbDictionary
281
     1
  0
DICTIONARY
  5
23
102
{ACAD_REACTORS
330
9
102
}
330
9
100
AcDbDictionary
281
     1
  0
DICTIONARY
  5
D
102
{ACAD_REACTORS
330
9
102
}
330
9
100
AcDbDictionary
281
     1
  3
Layout1
350
13
  3
Model
350
C
  0
DICTIONARY
  5
172
102
{ACAD_REACTORS
330
9
102
}
330
9
100
AcDbDictionary
281
     1
  0
DICTIONARY
  5
24
102
{ACAD_REACTORS
330
9
102
}
330
9
100
AcDbDictionary
281
     1
  3
STANDARD
350
27
  0
DICTIONARY
  5
25
102
{ACAD_REACTORS
330
9
102
}
330
9
100
AcDbDictionary
281
     1
  0
ACDBDICTIONARYWDFLT
  5
8
102
{ACAD_REACTORS
330
9
102
}
330
9
100
AcDbDictionary
281
     1
  3
Normal
350
7
100
AcDbDictionaryWithDefault
340
7
  0
DICTIONARY
  5
174
102
{ACAD_REACTORS
330
9
102
}
330
9
100
AcDbDictionary
281
     1
  3
Standard
350
175
  0
DICTIONARY
  5
18E
102
{ACAD_REACTORS
330
9
102
}
330
9
100
AcDbDictionary
281
     1
  3
COLORDICT
350
18F
  3
MATERIALDICT
350
190
  0
DICTIONARY
  5
C1
102
{ACAD_REACTORS
330
9
102
}
330
9
100
AcDbDictionary
281
     1
  3
CTABLESTYLE
350
181
  3
HIDETEXT
350
18D
  0
LAYOUT
  5
13
102
{ACAD_REACTORS
330
D
102
}
102
{ACAD_XDICTIONARY
360
191
102
}
330
D
100
AcDbPlotSettings
  1

  2
HP LaserJet 2100 Series PS
  4

  6

 40
0.0
 41
0.0
 42
0.0
 43
0.0
 44
0.0
 45
0.0
 46
0.0
 47
0.0
 48
0.0
 49
0.0
140
0.0
141
0.0
142
1.0
143
1.0
 70
   688
 72
     0
 73
     0
 74
     5
  7

 75
    16
147
1.0
148
0.0
149
0.0
100
AcDbLayout
  1
Layout1
 70
     0
 71
     1
 10
0.0
 20
0.0
 11
12.0
 21
9.0
 12
0.0
 22
0.0
 32
0.0
 14
1.000000000000000E+20
 24
1.000000000000000E+20
 34
1.000000000000000E+20
 15
-1.000000000000000E+20
 25
-1.000000000000000E+20
 35
-1.000000000000000E+20
146
0.0
 13
0.0
 23
0.0
 33
0.0
 16
1.0
 26
0.0
 36
0.0
 17
0.0
 27
1.0
 37
0.0
 76
     0
330
E
  0
LAYOUT
  5
C
102
{ACAD_REACTORS
330
D
102
}
102
{ACAD_XDICTIONARY
360
193
102
}
330
D
100
AcDbPlotSettings
  1

  2
HP LaserJet 4.pc3
  4
Letter
  6

 40
7.143749713897705
 41
6.127734661102295
 42
7.14373779296875
 43
7.14373779296875
 44
215.8999938964844
 45
279.3999938964844
 46
0.0
 47
0.0
 48
0.0
 49
0.0
140
0.0
141
0.0
142
1.0
143
3.023621951417749
 70
 11952
 72
     0
 73
     1
 74
     2
  7

 75
     0
147
0.3307291771483233
148
0.0
149
0.0
100
AcDbLayout
  1
Model
 70
     1
 71
     0
 10
0.0
 20
0.0
 11
12.0
 21
9.0
 12
0.0
 22
0.0
 32
0.0
 14
0.0
 24
0.0
 34
0.0
 15
0.0
 25
0.0
 35
0.0
146
0.0
 13
0.0
 23
0.0
 33
0.0
 16
1.0
 26
0.0
 36
0.0
 17
0.0
 27
1.0
 37
0.0
 76
     0
330
2
  0
MLINESTYLE
  5
27
102
{ACAD_REACTORS
330
24
102
}
330
24
100
AcDbMlineStyle
  2
STANDARD
 70
     0
  3

 62
   256
 51
90.0
 52
90.0
 71
     2
 49
0.5
 62
   256
  6
BYLAYER
 49
-0.5
 62
   256
  6
BYLAYER
  0
ACDBPLACEHOLDER
  5
7
102
{ACAD_REACTORS
330
8
102
}
330
8
  0
ACAD_PROXY_OBJECT
  5
175
102
{ACAD_REACTORS
330
174
102
}
330
174
100
AcDbProxyObject
 90
      499
 91
      533
 95
   983063
 70
     0
 93
     1841
310
4214DD185B99185C9928B81E85EB51B8AE3F2E07A17AD46E2B8FC02B5E8DC0F42B1CFD028000000C1008070000C3001FDFF8000000C1003FBFF000000182007F7FE00000030400FEFFC00000060801FDFF8000000C1003FBFF00000018200000000000000681FA0B0000001820100E000186003FBFF000000182007F7FE000
310
00030400FEFFC00000060801FDFF8000000C1003FBFF000000182007F7FE000000304000AD7A3703D0AC73F4160000003040201C00030C007F7FE00000030400FEFFC00000060801FDFF8000000C1003FBFF000000182007F7FE00000030400FEFFC000000608000
340
16
340
16
340
16
 94
        0
  0
XRECORD
  5
18F
102
{ACAD_REACTORS
330
18E
102
}
330
18E
100
AcDbXrecord
340
173
  0
XRECORD
  5
190
102
{ACAD_REACTORS
330
18E
102
}
330
18E
100
AcDbXrecord
340
172
  0
DICTIONARYVAR
  5
181
102
{ACAD_REACTORS
330
C1
102
}
330
C1
100
DictionaryVariables
280
     0
  1
STANDARD
  0
DICTIONARYVAR
  5
18D
102
{ACAD_REACTORS
330
C1
102
}
330
C1
100
DictionaryVariables
280
     0
  1
0
  0
DICTIONARY
  5
191
330
13
100
AcDbDictionary
280
     1
281
     1
  3
ACAD_XREC_ROUNDTRIP
360
192
  0
DICTIONARY
  5
193
330
C
100
AcDbDictionary
280
     1
281
     1
  3
ACAD_XREC_ROUNDTRIP
360
194
  0
XRECORD
  5
192
102
{ACAD_REACTORS
330
191
102
}
330
191
100
AcDbXrecord
102
SHADEPLOT
 70
     0
102
SHADEPLOTRESLEVEL
 70
     2
102
SHADEPLOTCUSTOMDPI
 70
   300
  0
XRECORD
  5
194
102
{ACAD_REACTORS
330
193
102
}
330
193
100
AcDbXrecord
102
SHADEPLOT
 70
     0
102
SHADEPLOTRESLEVEL
 70
     2
102
SHADEPLOTCUSTOMDPI
 70
   300
  0
ENDSEC
  0
EOF
