  0
SECTION
  2
HEADER
  9
$ACADVER
  1
AC1015
  9
$ACADMAINTVER
 70
     6
  9
$DWGCODEPAGE
  3
ANSI_1252
  9
$INSBASE
 10
0.0
 20
0.0
 30
0.0
  9
$EXTMIN
 10
-13.48988256092224
 20
-0.0003659985936437
 30
-0.0000000000112498
  9
$EXTMAX
 10
13.22626130923699
 20
13.33601916705056
 30
0.0000000000002956
  9
$LIMMIN
 10
0.0
 20
0.0
  9
$LIMMAX
 10
31.5
 20
24.0
  9
$ORTHOMODE
 70
     1
  9
$REGENMODE
 70
     1
  9
$FILLMODE
 70
     1
  9
$QTEXTMODE
 70
     0
  9
$MIRRTEXT
 70
     0
  9
$LTSCALE
 40
0.75
  9
$ATTMODE
 70
     1
  9
$TEXTSIZE
 40
0.225
  9
$TRACEWID
 40
0.05
  9
$TEXTSTYLE
  7
STANDARD
  9
$CLAYER
  8
0
  9
$CELTYPE
  6
BYLAYER
  9
$CECOLOR
 62
   256
  9
$CELTSCALE
 40
1.0
  9
$DISPSILH
 70
     0
  9
$DIMSCALE
 40
2.5
  9
$DIMASZ
 40
0.125
  9
$DIMEXO
 40
0.062
  9
$DIMDLI
 40
0.375
  9
$DIMRND
 40
0.0
  9
$DIMDLE
 40
0.0
  9
$DIMEXE
 40
0.08
  9
$DIMTP
 40
0.0
  9
$DIMTM
 40
0.0
  9
$DIMTXT
 40
0.09
  9
$DIMCEN
 40
-0.0313
  9
$DIMTSZ
 40
0.0
  9
$DIMTOL
 70
     0
  9
$DIMLIM
 70
     0
  9
$DIMTIH
 70
     1
  9
$DIMTOH
 70
     1
  9
$DIMSE1
 70
     0
  9
$DIMSE2
 70
     0
  9
$DIMTAD
 70
     0
  9
$DIMZIN
 70
     0
  9
$DIMBLK
  1

  9
$DIMASO
 70
     0
  9
$DIMSHO
 70
     0
  9
$DIMPOST
  1

  9
$DIMAPOST
  1

  9
$DIMALT
 70
     0
  9
$DIMALTD
 70
     2
  9
$DIMALTF
 40
25.4
  9
$DIMLFAC
 40
1.0
  9
$DIMTOFL
 70
     0
  9
$DIMTVP
 40
0.0
  9
$DIMTIX
 70
     0
  9
$DIMSOXD
 70
     0
  9
$DIMSAH
 70
     0
  9
$DIMBLK1
  1

  9
$DIMBLK2
  1

  9
$DIMSTYLE
  2
STANDARD
  9
$DIMCLRD
 70
     0
  9
$DIMCLRE
 70
     0
  9
$DIMCLRT
 70
     0
  9
$DIMTFAC
 40
1.0
  9
$DIMGAP
 40
0.09
  9
$DIMJUST
 70
     0
  9
$DIMSD1
 70
     0
  9
$DIMSD2
 70
     0
  9
$DIMTOLJ
 70
     1
  9
$DIMTZIN
 70
     0
  9
$DIMALTZ
 70
     0
  9
$DIMALTTZ
 70
     0
  9
$DIMUPT
 70
     0
  9
$DIMDEC
 70
     4
  9
$DIMTDEC
 70
     4
  9
$DIMALTU
 70
     2
  9
$DIMALTTD
 70
     2
  9
$DIMTXSTY
  7
STANDARD
  9
$DIMAUNIT
 70
     0
  9
$DIMADEC
 70
     0
  9
$DIMALTRND
 40
0.0
  9
$DIMAZIN
 70
     0
  9
$DIMDSEP
 70
    46
  9
$DIMATFIT
 70
     3
  9
$DIMFRAC
 70
     0
  9
$DIMLDRBLK
  1

  9
$DIMLUNIT
 70
     2
  9
$DIMLWD
 70
    -2
  9
$DIMLWE
 70
    -2
  9
$DIMTMOVE
 70
     2
  9
$LUNITS
 70
     2
  9
$LUPREC
 70
     4
  9
$SKETCHINC
 40
0.1
  9
$FILLETRAD
 40
0.0
  9
$AUNITS
 70
     0
  9
$AUPREC
 70
     0
  9
$MENU
  1
qa
  9
$ELEVATION
 40
0.0
  9
$PELEVATION
 40
0.0
  9
$THICKNESS
 40
0.0
  9
$LIMCHECK
 70
     0
  9
$CHAMFERA
 40
0.0
  9
$CHAMFERB
 40
0.0
  9
$CHAMFERC
 40
0.0
  9
$CHAMFERD
 40
0.0
  9
$SKPOLY
 70
     0
  9
$TDCREATE
 40
2449686.813559491
  9
$TDUCREATE
 40
2449687.146892824
  9
$TDUPDATE
 40
2454175.925214595
  9
$TDUUPDATE
 40
2454176.258547928
  9
$TDINDWG
 40
0.3570216319
  9
$TDUSRTIMER
 40
0.3570216319
  9
$USRTIMER
 70
     1
  9
$ANGBASE
 50
0.0
  9
$ANGDIR
 70
     0
  9
$PDMODE
 70
     0
  9
$PDSIZE
 40
0.0
  9
$PLINEWID
 40
0.0
  9
$SPLFRAME
 70
     0
  9
$SPLINETYPE
 70
     6
  9
$SPLINESEGS
 70
     8
  9
$HANDSEED
  5
193
  9
$SURFTAB1
 70
     6
  9
$SURFTAB2
 70
     6
  9
$SURFTYPE
 70
     6
  9
$SURFU
 70
     6
  9
$SURFV
 70
     6
  9
$UCSBASE
  2

  9
$UCSNAME
  2

  9
$UCSORG
 10
0.0
 20
0.0
 30
0.0
  9
$UCSXDIR
 10
1.0
 20
0.0
 30
0.0
  9
$UCSYDIR
 10
0.0
 20
1.0
 30
0.0
  9
$UCSORTHOREF
  2

  9
$UCSORTHOVIEW
 70
     0
  9
$UCSORGTOP
 10
0.0
 20
0.0
 30
0.0
  9
$UCSORGBOTTOM
 10
0.0
 20
0.0
 30
0.0
  9
$UCSORGLEFT
 10
0.0
 20
0.0
 30
0.0
  9
$UCSORGRIGHT
 10
0.0
 20
0.0
 30
0.0
  9
$UCSORGFRONT
 10
0.0
 20
0.0
 30
0.0
  9
$UCSORGBACK
 10
0.0
 20
0.0
 30
0.0
  9
$PUCSBASE
  2

  9
$PUCSNAME
  2

  9
$PUCSORG
 10
0.0
 20
0.0
 30
0.0
  9
$PUCSXDIR
 10
1.0
 20
0.0
 30
0.0
  9
$PUCSYDIR
 10
0.0
 20
1.0
 30
0.0
  9
$PUCSORTHOREF
  2

  9
$PUCSORTHOVIEW
 70
     0
  9
$PUCSORGTOP
 10
0.0
 20
0.0
 30
0.0
  9
$PUCSORGBOTTOM
 10
0.0
 20
0.0
 30
0.0
  9
$PUCSORGLEFT
 10
0.0
 20
0.0
 30
0.0
  9
$PUCSORGRIGHT
 10
0.0
 20
0.0
 30
0.0
  9
$PUCSORGFRONT
 10
0.0
 20
0.0
 30
0.0
  9
$PUCSORGBACK
 10
0.0
 20
0.0
 30
0.0
  9
$USERI1
 70
     0
  9
$USERI2
 70
     0
  9
$USERI3
 70
     0
  9
$USERI4
 70
     0
  9
$USERI5
 70
     0
  9
$USERR1
 40
0.0
  9
$USERR2
 40
0.0
  9
$USERR3
 40
0.0
  9
$USERR4
 40
0.0
  9
$USERR5
 40
0.0
  9
$WORLDVIEW
 70
     1
  9
$SHADEDGE
 70
     3
  9
$SHADEDIF
 70
    70
  9
$TILEMODE
 70
     1
  9
$MAXACTVP
 70
    16
  9
$PINSBASE
 10
0.0
 20
0.0
 30
0.0
  9
$PLIMCHECK
 70
     0
  9
$PEXTMIN
 10
1.000000000000000E+20
 20
1.000000000000000E+20
 30
1.000000000000000E+20
  9
$PEXTMAX
 10
-1.000000000000000E+20
 20
-1.000000000000000E+20
 30
-1.000000000000000E+20
  9
$PLIMMIN
 10
0.0
 20
0.0
  9
$PLIMMAX
 10
12.0
 20
9.0
  9
$UNITMODE
 70
     0
  9
$VISRETAIN
 70
     0
  9
$PLINEGEN
 70
     0
  9
$PSLTSCALE
 70
     0
  9
$TREEDEPTH
 70
  3020
  9
$CMLSTYLE
  2
STANDARD
  9
$CMLJUST
 70
     0
  9
$CMLSCALE
 40
1.0
  9
$PROXYGRAPHICS
 70
     1
  9
$MEASUREMENT
 70
     0
  9
$CELWEIGHT
370
    -1
  9
$ENDCAPS
280
     0
  9
$JOINSTYLE
280
     0
  9
$LWDISPLAY
290
     0
  9
$INSUNITS
 70
     0
  9
$HYPERLINKBASE
  1

  9
$STYLESHEET
  1

  9
$XEDIT
290
     1
  9
$CEPSNTYPE
380
     0
  9
$PSTYLEMODE
290
     1
  9
$FINGERPRINTGUID
  2
{6373DD4A-55A5-11D5-BE3F-00508B5FCD51}
  9
$VERSIONGUID
  2
{393693B3-465B-4864-9F20-EED3D8F97F09}
  9
$EXTNAMES
290
     1
  9
$PSVPSCALE
 40
0.0
  9
$OLESTARTUP
290
     0
  0
ENDSEC
  0
SECTION
  2
CLASSES
  0
CLASS
  1
DICTIONARYVAR
  2
AcDbDictionaryVar
  3
AutoCAD 2000
 90
        0
280
     0
281
     0
  0
CLASS
  1
LWPOLYLINE
  2
AcDbPolyline
  3
AutoCAD 2000
 90
        0
280
     0
281
     1
  0
CLASS
  1
ACDBDICTIONARYWDFLT
  2
AcDbDictionaryWithDefault
  3
AutoCAD 2000
 90
        0
280
     0
281
     0
  0
CLASS
  1
ACDBPLACEHOLDER
  2
AcDbPlaceHolder
  3
ObjectDBX Classes
 90
        0
280
     0
281
     0
  0
CLASS
  1
LAYOUT
  2
AcDbLayout
  3
ObjectDBX Classes
 90
        0
280
     0
281
     0
  0
CLASS
  1
LONG_TRANSACTION
  2
AcDbLongTransaction
  3
ObjectDBX Classes
 90
   -65536
280
     1
281
     0
  0
CLASS
  1
LWPOLYLINE
  2
AcDbPolyline
  3
AutoCAD 2000
 90
        0
280
     0
281
     1
  0
CLASS
  1
HATCH
  2
AcDbHatch
  3
AutoCAD 2000
 90
        0
280
     0
281
     1
  0
CLASS
  1
XRECORD
  2
AcDbXrecord
  3
AutoCAD 2000
 90
        0
280
     0
281
     0
  0
CLASS
  1
LONG_TRANSACTION
  2
AcDbLongTransaction
  3
ObjectDBX Classes
 90
   -65536
280
     1
281
     0
  0
CLASS
  1
LWPOLYLINE
  2
AcDbPolyline
  3
AutoCAD 2000
 90
        0
280
     0
281
     1
  0
CLASS
  1
HATCH
  2
AcDbHatch
  3
AutoCAD 2000
 90
        0
280
     0
281
     1
  0
CLASS
  1
XRECORD
  2
AcDbXrecord
  3
AutoCAD 2000
 90
        0
280
     0
281
     0
  0
CLASS
  1
LONG_TRANSACTION
  2
AcDbLongTransaction
  3
ObjectDBX Classes
 90
   -65536
280
     1
281
     0
  0
CLASS
  1
LWPOLYLINE
  2
AcDbPolyline
  3
AutoCAD 2000
 90
        0
280
     0
281
     1
  0
CLASS
  1
HATCH
  2
AcDbHatch
  3
AutoCAD 2000
 90
        0
280
     0
281
     1
  0
CLASS
  1
XRECORD
  2
AcDbXrecord
  3
AutoCAD 2000
 90
        0
280
     0
281
     0
  0
CLASS
  1
LONG_TRANSACTION
  2
AcDbLongTransaction
  3
ObjectDBX Classes
 90
   -65536
280
     1
281
     0
  0
CLASS
  1
LWPOLYLINE
  2
AcDbPolyline
  3
AutoCAD 2000
 90
        0
280
     0
281
     1
  0
CLASS
  1
HATCH
  2
AcDbHatch
  3
AutoCAD 2000
 90
        0
280
     0
281
     1
  0
CLASS
  1
XRECORD
  2
AcDbXrecord
  3
AutoCAD 2000
 90
        0
280
     0
281
     0
  0
CLASS
  1
TABLESTYLE
  2
AcDbTableStyle
  3
ObjectDBX Classes
 90
     2047
280
     1
281
     0
  0
ENDSEC
  0
SECTION
  2
TABLES
  0
TABLE
  2
VPORT
  5
1D
330
0
100
AcDbSymbolTable
 70
     3
  0
VPORT
  5
183
330
1D
100
AcDbSymbolTableRecord
100
AcDbViewportTableRecord
  2
*Active
 70
     0
 10
0.0
 20
0.0
 11
1.0
 21
1.0
 12
1.75672591045565
 22
7.435043312619481
 13
0.0
 23
0.0
 14
0.063
 24
0.063
 15
0.25
 25
0.25
 16
0.0
 26
0.0
 36
1.0
 17
0.0
 27
0.0
 37
0.0
 40
24.76083976471882
 41
1.814583333333333
 42
50.0
 43
0.0
 44
0.0
 50
0.0
 51
0.0
 71
     0
 72
   100
 73
     1
 74
     0
 75
     0
 76
     0
 77
     0
 78
     0
281
     0
 65
     1
110
0.0
120
0.0
130
0.0
111
1.0
121
0.0
131
0.0
112
0.0
122
1.0
132
0.0
 79
     0
146
0.0
  0
ENDTAB
  0
TABLE
  2
LTYPE
  5
18
330
0
100
AcDbSymbolTable
 70
     2
  0
LTYPE
  5
19
330
18
100
AcDbSymbolTableRecord
100
AcDbLinetypeTableRecord
  2
BYBLOCK
 70
     0
  3

 72
    65
 73
     0
 40
0.0
  0
LTYPE
  5
1A
330
18
100
AcDbSymbolTableRecord
100
AcDbLinetypeTableRecord
  2
BYLAYER
 70
     0
  3

 72
    65
 73
     0
 40
0.0
  0
LTYPE
  5
A
330
18
100
AcDbSymbolTableRecord
100
AcDbLinetypeTableRecord
  2
CONTINUOUS
 70
     0
  3
Solid line
 72
    65
 73
     0
 40
0.0
  0
LTYPE
  5
182
330
18
100
AcDbSymbolTableRecord
100
AcDbLinetypeTableRecord
  2
HIDDEN
 70
     0
  3
Hidden __ __ __ __ __ __ __ __ __ __ __ __ __ _
 72
    65
 73
     2
 40
0.375
 49
0.25
 74
     0
 49
-0.125
 74
     0
  0
ENDTAB
  0
TABLE
  2
LAYER
  5
14
330
0
100
AcDbSymbolTable
 70
     2
  0
LAYER
  5
6
330
14
100
AcDbSymbolTableRecord
100
AcDbLayerTableRecord
  2
0
 70
     0
 62
     7
  6
CONTINUOUS
370
    -3
390
7
  0
ENDTAB
  0
TABLE
  2
STYLE
  5
15
330
0
100
AcDbSymbolTable
 70
     2
  0
STYLE
  5
16
330
15
100
AcDbSymbolTableRecord
100
AcDbTextStyleTableRecord
  2
STANDARD
 70
     0
 40
0.0
 41
1.0
 50
0.0
 71
     0
 42
0.225
  3
TXT
  4

  0
ENDTAB
  0
TABLE
  2
VIEW
  5
1B
330
0
100
AcDbSymbolTable
 70
     0
  0
ENDTAB
  0
TABLE
  2
UCS
  5
1C
330
0
100
AcDbSymbolTable
 70
     0
  0
ENDTAB
  0
TABLE
  2
APPID
  5
1F
330
0
100
AcDbSymbolTable
 70
     1
  0
APPID
  5
20
330
1F
100
AcDbSymbolTableRecord
100
AcDbRegAppTableRecord
  2
ACAD
 70
     0
  0
ENDTAB
  0
TABLE
  2
DIMSTYLE
  5
21
330
0
100
AcDbSymbolTable
 70
     1
100
AcDbDimStyleTable
  0
DIMSTYLE
105
28
330
21
100
AcDbSymbolTableRecord
100
AcDbDimStyleTableRecord
  2
STANDARD
 70
     0
  3

  4

340
16
  0
ENDTAB
  0
TABLE
  2
BLOCK_RECORD
  5
1
330
0
100
AcDbSymbolTable
 70
     0
  0
BLOCK_RECORD
  5
2
330
1
100
AcDbSymbolTableRecord
100
AcDbBlockTableRecord
  2
*MODEL_SPACE
340
C
  0
BLOCK_RECORD
  5
E
330
1
100
AcDbSymbolTableRecord
100
AcDbBlockTableRecord
  2
*PAPER_SPACE
340
13
  0
ENDTAB
  0
ENDSEC
  0
SECTION
  2
BLOCKS
  0
BLOCK
  5
5
330
2
100
AcDbEntity
  8
0
100
AcDbBlockBegin
  2
*MODEL_SPACE
 70
     0
 10
0.0
 20
0.0
 30
0.0
  3
*MODEL_SPACE
  1

  4

  0
ENDBLK
  5
B
330
2
100
AcDbEntity
  8
0
100
AcDbBlockEnd
  0
BLOCK
  5
11
330
E
100
AcDbEntity
 67
     1
  8
0
100
AcDbBlockBegin
  2
*PAPER_SPACE
 70
     0
 10
0.0
 20
0.0
 30
0.0
  3
*PAPER_SPACE
  1

  4

  0
ENDBLK
  5
12
330
E
100
AcDbEntity
 67
     1
  8
0
100
AcDbBlockEnd
  0
ENDSEC
  0
SECTION
  2
ENTITIES
  0
LINE
  5
D0
330
2
100
AcDbEntity
  8
0
100
AcDbLine
 10
2.215071395002882
 20
3.643694999999999
 30
0.0
 11
-2.34622860499712
 21
3.643694999999978
 31
0.0
  0
LINE
  5
D1
330
2
100
AcDbEntity
  8
0
100
AcDbLine
 10
2.215071395002882
 20
3.47181999999999
 30
0.0
 11
-2.175728604997119
 21
3.47181999999998
 31
0.0
  0
LINE
  5
D2
330
2
100
AcDbEntity
  8
0
100
AcDbLine
 10
-2.706203604997118
 20
3.309319999999982
 30
0.0
 11
-2.706203604997118
 21
-0.0000000000000213
 31
0.0
  0
LINE
  5
D3
330
2
100
AcDbEntity
  8
0
100
AcDbLine
 10
-2.529561925825267
 20
3.325797351082418
 30
0.0
 11
-2.534328604997118
 21
-0.0000000000000213
 31
0.0
  0
LINE
  5
D4
330
2
100
AcDbEntity
  8
0
100
AcDbLine
 10
-2.64276236622025
 20
3.131956864767119
 30
0.0
 11
-4.784328604997118
 21
0.7562500000000263
 31
0.0
  0
LINE
  5
D5
330
2
100
AcDbEntity
  8
0
100
AcDbLine
 10
-4.682916176790819
 20
0.8687500000000288
 30
0.0
 11
-4.905603604997118
 21
0.8687500000000288
 31
0.0
  0
LINE
  5
D6
330
2
100
AcDbEntity
  8
0
100
AcDbLine
 10
-4.905603604997118
 20
0.3687500000000288
 30
0.0
 11
-4.784328604997118
 21
0.3687500000000288
 31
0.0
  0
LINE
  5
D7
330
2
100
AcDbEntity
  8
0
100
AcDbLine
 10
-4.905603604997118
 20
0.8687500000000288
 30
0.0
 11
-4.905603604997118
 21
0.3687500000000288
 31
0.0
  0
LINE
  5
D8
330
2
100
AcDbEntity
  8
0
  6
Continuous
100
AcDbLine
 10
-4.784328604997118
 20
-0.0000000000000213
 30
0.0
 11
-2.534328604997118
 21
-0.0000000000000213
 31
0.0
  0
LINE
  5
D9
330
2
100
AcDbEntity
  8
0
  6
HIDDEN
100
AcDbLine
 10
-2.706203604997118
 20
0.8687500000000288
 30
0.0
 11
-4.682916176790819
 21
0.8687500000000288
 31
0.0
  0
LINE
  5
DA
330
2
100
AcDbEntity
  8
0
  6
HIDDEN
100
AcDbLine
 10
-2.706203604997118
 20
0.3687500000000288
 30
0.0
 11
-4.784328604997118
 21
0.368750000000027
 31
0.0
  0
LINE
  5
DB
330
2
100
AcDbEntity
  8
0
100
AcDbLine
 10
-4.784328604997118
 20
0.7562500000000263
 30
0.0
 11
-4.784328604997118
 21
-0.0000000000000213
 31
0.0
  0
ARC
  5
DC
330
2
100
AcDbEntity
  8
0
100
AcDbCircle
 10
-2.894303604997117
 20
3.142365421285685
 30
0.0
 40
0.1881
100
AcDbArc
 50
312.3574547059351
 51
0.0
  0
ARC
  5
DD
330
2
100
AcDbEntity
  8
0
100
AcDbCircle
 10
-2.345252498008261
 20
3.280927745884977
 30
0.0
 40
0.1908947497076795
100
AcDbArc
 50
90.2929732463285
 51
172.0848394651909
  0
ARC
  5
DE
330
2
100
AcDbEntity
  8
0
100
AcDbCircle
 10
-2.357701412521872
 20
3.295192807524732
 30
0.0
 40
0.3486909856485455
100
AcDbArc
 50
88.11448491892197
 51
181.8855150810784
  0
LINE
  5
DF
330
2
100
AcDbEntity
  8
0
100
AcDbLine
 10
-2.706203604997118
 20
3.283719999999981
 30
0.0
 11
-2.706203604997118
 21
3.142365421285685
 31
0.0
  0
ARC
  5
E0
330
2
100
AcDbEntity
  8
0
100
AcDbCircle
 10
-2.896228567481604
 20
3.409952053247313
 30
0.0
 40
0.3762
100
AcDbArc
 50
312.3574547059355
 51
347.0737481615686
  0
LINE
  5
E1
330
2
100
AcDbEntity
  8
0
100
AcDbLine
 10
2.398404715831031
 20
3.325797351082436
 30
0.0
 11
2.403171395002921
 21
0.0
 31
0.0
  0
LINE
  5
E2
330
2
100
AcDbEntity
  8
0
100
AcDbLine
 10
2.575046395002886
 20
3.309320000000003
 30
0.0
 11
2.575046395002925
 21
0.0
 31
0.0
  0
LINE
  5
E3
330
2
100
AcDbEntity
  8
0
100
AcDbLine
 10
2.511605156226016
 20
3.131956864767139
 30
0.0
 11
4.65317139500292
 21
0.7562500000000263
 31
0.0
  0
LINE
  5
E4
330
2
100
AcDbEntity
  8
0
  6
Continuous
100
AcDbLine
 10
4.653171395002929
 20
0.0000000000000266
 30
0.0
 11
2.403171395002925
 21
0.0
 31
0.0
  0
LINE
  5
E5
330
2
100
AcDbEntity
  8
0
  6
HIDDEN
100
AcDbLine
 10
4.551758966796623
 20
0.868750000000027
 30
0.0
 11
2.575046395002912
 21
0.868750000000027
 31
0.0
  0
LINE
  5
E6
330
2
100
AcDbEntity
  8
0
  6
HIDDEN
100
AcDbLine
 10
4.653171395002925
 20
0.368750000000027
 30
0.0
 11
2.575046395002912
 21
0.368750000000027
 31
0.0
  0
LINE
  5
E7
330
2
100
AcDbEntity
  8
0
100
AcDbLine
 10
4.65317139500292
 20
0.7562500000000263
 30
0.0
 11
4.653171395002929
 21
0.0000000000000266
 31
0.0
  0
LINE
  5
E8
330
2
100
AcDbEntity
  8
0
100
AcDbLine
 10
4.551758966796623
 20
0.868750000000027
 30
0.0
 11
4.774446395002919
 21
0.8687500000000785
 31
0.0
  0
LINE
  5
E9
330
2
100
AcDbEntity
  8
0
100
AcDbLine
 10
4.774446395002919
 20
0.8687500000000785
 30
0.0
 11
4.774446395002926
 21
0.3687500000000288
 31
0.0
  0
LINE
  5
EA
330
2
100
AcDbEntity
  8
0
100
AcDbLine
 10
4.774446395002926
 20
0.3687500000000288
 30
0.0
 11
4.653171395002925
 21
0.368750000000027
 31
0.0
  0
ARC
  5
EB
330
2
100
AcDbEntity
  8
0
100
AcDbCircle
 10
2.763146395002884
 20
3.14236542128571
 30
0.0
 40
0.1881
100
AcDbArc
 50
180.0000000000007
 51
227.6425452940655
  0
ARC
  5
EC
330
2
100
AcDbEntity
  8
0
100
AcDbCircle
 10
2.214095288014027
 20
3.280927745884995
 30
0.0
 40
0.1908947497076795
100
AcDbArc
 50
7.91516053480972
 51
89.70702675367214
  0
ARC
  5
ED
330
2
100
AcDbEntity
  8
0
100
AcDbCircle
 10
2.226544202527637
 20
3.295192807524753
 30
0.0
 40
0.3486909856485455
100
AcDbArc
 50
358.1144849189223
 51
91.88551508107867
  0
ARC
  5
EE
330
2
100
AcDbEntity
  8
0
100
AcDbCircle
 10
2.765071357487368
 20
3.409952053247334
 30
0.0
 40
0.3762
100
AcDbArc
 50
192.9262518384321
 51
227.6425452940651
  0
LINE
  5
EF
330
2
100
AcDbEntity
  8
0
100
AcDbLine
 10
2.575046395002884
 20
3.283720000000002
 30
0.0
 11
2.575046395002886
 21
3.142365421285707
 31
0.0
  0
LINE
  5
F0
330
2
100
AcDbEntity
  8
0
100
AcDbLine
 10
-2.664928604997102
 20
12.98985997144795
 30
0.0
 11
2.403171395002893
 21
12.98972662524787
 31
0.0
  0
LINE
  5
F1
330
2
100
AcDbEntity
  8
0
100
AcDbLine
 10
2.403171395002896
 20
8.964726625247856
 30
0.0
 11
-2.664928604997102
 21
8.964859971447936
 31
0.0
  0
LINE
  5
F2
330
2
100
AcDbEntity
  8
0
100
AcDbLine
 10
-4.914928604997112
 20
12.98985997144794
 30
0.0
 11
-4.914928604997112
 21
8.964859971447936
 31
0.0
  0
LINE
  5
F3
330
2
100
AcDbEntity
  8
0
  6
HIDDEN
100
AcDbLine
 10
-2.476828604997112
 20
8.964859971447911
 30
0.0
 11
-2.476828604997112
 21
12.98985997144797
 31
0.0
  0
LINE
  5
F4
330
2
100
AcDbEntity
  8
0
100
AcDbLine
 10
-2.664928604997102
 20
8.964859971447936
 30
0.0
 11
-2.664928604997102
 21
12.98985997144795
 31
0.0
  0
ARC
  5
F5
330
2
100
AcDbEntity
  8
0
100
AcDbCircle
 10
-2.89450208247342
 20
9.165755880636823
 30
0.0
 40
0.4634763209873742
100
AcDbArc
 50
252.2487322385075
 51
334.3130063060202
  0
LINE
  5
F6
330
2
100
AcDbEntity
  8
0
100
AcDbLine
 10
-4.914928604997112
 20
8.964859971447936
 30
0.0
 11
-2.859382969823401
 21
8.964859971447925
 31
0.0
  0
LINE
  5
F7
330
2
100
AcDbEntity
  8
0
100
AcDbLine
 10
-4.15867860499711
 20
10.48999331764801
 30
0.0
 11
-4.15867860499711
 21
11.48999331764801
 31
0.0
  0
LINE
  5
F8
330
2
100
AcDbEntity
  8
0
100
AcDbLine
 10
-3.196178604997112
 20
11.48999331764801
 30
0.0
 11
-3.196178604997112
 21
10.48999331764801
 31
0.0
  0
LINE
  5
F9
330
2
100
AcDbEntity
  8
0
100
AcDbLine
 10
-3.129153549143326
 20
8.929519388910652
 30
0.0
 11
-2.956214482156288
 21
8.894775814566163
 31
0.0
  0
LINE
  5
FA
330
2
100
AcDbEntity
  8
0
100
AcDbLine
 10
-3.288343051080379
 20
8.792984971447936
 30
0.0
 11
-3.035809233124802
 21
8.72434610583479
 31
0.0
  0
LINE
  5
FB
330
2
100
AcDbEntity
  8
0
100
AcDbLine
 10
-4.77742860499712
 20
8.792984971447943
 30
0.0
 11
-3.288343051080379
 21
8.792984971447933
 31
0.0
  0
LINE
  5
FC
330
2
100
AcDbEntity
  8
0
100
AcDbLine
 10
-4.77742860499712
 20
8.964859971447943
 30
0.0
 11
-4.77742860499712
 21
8.792984971447943
 31
0.0
  0
LINE
  5
FD
330
2
100
AcDbEntity
  8
0
100
AcDbLine
 10
-4.77742860499712
 20
8.792984971447954
 30
0.0
 11
-4.77742860499712
 21
8.964859971447947
 31
0.0
  0
LINE
  5
FE
330
2
100
AcDbEntity
  8
0
100
AcDbLine
 10
-4.77742860499712
 20
8.964859971447943
 30
0.0
 11
-4.77742860499712
 21
8.792984971447943
 31
0.0
  0
ARC
  5
FF
330
2
100
AcDbEntity
  8
0
100
AcDbCircle
 10
-3.288343051080379
 20
8.588659971447921
 30
0.0
 40
0.3762
100
AcDbArc
 50
64.96630016275617
 51
89.9999999999999
  0
ARC
  5
100
330
2
100
AcDbEntity
  8
0
100
AcDbCircle
 10
-3.677428604997111
 20
10.48999331764801
 30
0.0
 40
0.4812499999999997
100
AcDbArc
 50
180.0
 51
0.0
  0
LINE
  5
101
330
2
100
AcDbEntity
  8
0
100
AcDbLine
 10
-2.859382969823401
 20
8.964859971447925
 30
0.0
 11
-2.664928604997105
 21
9.159314336274225
 31
0.0
  0
ARC
  5
102
330
2
100
AcDbEntity
  8
0
100
AcDbCircle
 10
-2.86475535159909
 20
9.155018262817492
 30
0.0
 40
0.2758457982897771
100
AcDbArc
 50
250.636578043541
 51
316.4201781405228
  0
ARC
  5
103
330
2
100
AcDbEntity
  8
0
100
AcDbCircle
 10
-3.677428604997111
 20
11.48999331764801
 30
0.0
 40
0.4812499999999997
100
AcDbArc
 50
0.0
 51
180.0
  0
LINE
  5
104
330
2
100
AcDbEntity
  8
0
100
AcDbLine
 10
-2.859382969823401
 20
12.98985997144796
 30
0.0
 11
-4.914928604997112
 21
12.98985997144794
 31
0.0
  0
LINE
  5
105
330
2
100
AcDbEntity
  8
0
100
AcDbLine
 10
-3.129153549143326
 20
13.02520055398523
 30
0.0
 11
-2.956214482156288
 21
13.05994412832972
 31
0.0
  0
LINE
  5
106
330
2
100
AcDbEntity
  8
0
100
AcDbLine
 10
-3.288343051080379
 20
13.16173497144795
 30
0.0
 11
-3.035809233124802
 21
13.23037383706109
 31
0.0
  0
LINE
  5
107
330
2
100
AcDbEntity
  8
0
100
AcDbLine
 10
-3.288343051080379
 20
13.16173497144795
 30
0.0
 11
-4.77742860499712
 21
13.16173497144794
 31
0.0
  0
LINE
  5
108
330
2
100
AcDbEntity
  8
0
100
AcDbLine
 10
-4.77742860499712
 20
13.16173497144793
 30
0.0
 11
-4.77742860499712
 21
12.98985997144794
 31
0.0
  0
LINE
  5
109
330
2
100
AcDbEntity
  8
0
100
AcDbLine
 10
-4.77742860499712
 20
13.16173497144793
 30
0.0
 11
-4.77742860499712
 21
12.98985997144794
 31
0.0
  0
ARC
  5
10A
330
2
100
AcDbEntity
  8
0
100
AcDbCircle
 10
-3.288343051080379
 20
13.36605997144796
 30
0.0
 40
0.3762
100
AcDbArc
 50
270.0000000000001
 51
295.0336998372438
  0
LINE
  5
10B
330
2
100
AcDbEntity
  8
0
100
AcDbLine
 10
-2.859382969823401
 20
12.98985997144796
 30
0.0
 11
-2.664928604997105
 21
12.79540560662166
 31
0.0
  0
ARC
  5
10C
330
2
100
AcDbEntity
  8
0
100
AcDbCircle
 10
-2.86475535159909
 20
12.79970168007839
 30
0.0
 40
0.2758457982897771
100
AcDbArc
 50
43.57982185947724
 51
109.363421956459
  0
ARC
  5
10D
330
2
100
AcDbEntity
  8
0
100
AcDbCircle
 10
-2.89450208247342
 20
12.78896406225906
 30
0.0
 40
0.4634763209873742
100
AcDbArc
 50
25.68699369397981
 51
107.7512677614925
  0
LINE
  5
10E
330
2
100
AcDbEntity
  8
0
100
AcDbLine
 10
4.841271395002892
 20
12.98972662524783
 30
0.0
 11
4.841271395002892
 21
8.964726625247842
 31
0.0
  0
LINE
  5
10F
330
2
100
AcDbEntity
  8
0
  6
HIDDEN
100
AcDbLine
 10
2.403171395002894
 20
8.964726625247824
 30
0.0
 11
2.403171395002893
 21
12.98972662524789
 31
0.0
  0
LINE
  5
110
330
2
100
AcDbEntity
  8
0
  6
Continuous
100
AcDbLine
 10
2.591271395002891
 20
8.964726625247842
 30
0.0
 11
2.591271395002884
 21
12.98972662524787
 31
0.0
  0
LINE
  5
111
330
2
100
AcDbEntity
  8
0
  6
Continuous
100
AcDbLine
 10
4.841271395002892
 20
8.964726625247842
 30
0.0
 11
4.841271395002885
 21
12.98972662524787
 31
0.0
  0
ARC
  5
112
330
2
100
AcDbEntity
  8
0
100
AcDbCircle
 10
2.820844872479201
 20
9.165622534436739
 30
0.0
 40
0.4634763209873742
100
AcDbArc
 50
205.6869936939798
 51
287.7512677614925
  0
LINE
  5
113
330
2
100
AcDbEntity
  8
0
100
AcDbLine
 10
4.08502139500289
 20
10.48985997144794
 30
0.0
 11
4.08502139500289
 21
11.48985997144794
 31
0.0
  0
LINE
  5
114
330
2
100
AcDbEntity
  8
0
100
AcDbLine
 10
3.122521395002891
 20
11.48985997144794
 30
0.0
 11
3.122521395002891
 21
10.48985997144794
 31
0.0
  0
LINE
  5
115
330
2
100
AcDbEntity
  8
0
100
AcDbLine
 10
2.785725427810415
 20
8.96449334929569
 30
0.0
 11
4.841271395002892
 21
8.964726625247842
 31
0.0
  0
LINE
  5
116
330
2
100
AcDbEntity
  8
0
100
AcDbLine
 10
3.21468584108616
 20
8.792851625247856
 30
0.0
 11
4.703771395002898
 21
8.79285162524787
 31
0.0
  0
ARC
  5
117
330
2
100
AcDbEntity
  8
0
100
AcDbCircle
 10
3.603771395002891
 20
10.48985997144794
 30
0.0
 40
0.4812499999999997
100
AcDbArc
 50
180.0
 51
0.000000000000007
  0
ARC
  5
118
330
2
100
AcDbEntity
  8
0
100
AcDbCircle
 10
2.791098141604868
 20
9.154884916617412
 30
0.0
 40
0.2758457982897771
100
AcDbArc
 50
223.5798218594773
 51
289.363421956459
  0
LINE
  5
119
330
2
100
AcDbEntity
  8
0
100
AcDbLine
 10
2.785725759829182
 20
8.964493017276926
 30
0.0
 11
2.591271395002884
 21
9.158947382103225
 31
0.0
  0
LINE
  5
11A
330
2
100
AcDbEntity
  8
0
100
AcDbLine
 10
3.055496339149106
 20
8.929386042710572
 30
0.0
 11
2.882557272162069
 21
8.894642468366083
 31
0.0
  0
LINE
  5
11B
330
2
100
AcDbEntity
  8
0
100
AcDbLine
 10
3.21468584108616
 20
8.792851625247856
 30
0.0
 11
2.962152023130581
 21
8.72421275963471
 31
0.0
  0
ARC
  5
11C
330
2
100
AcDbEntity
  8
0
100
AcDbCircle
 10
3.214685841086161
 20
8.588526625247837
 30
0.0
 40
0.3762
100
AcDbArc
 50
90.0000000000001
 51
115.0336998372438
  0
LINE
  5
11D
330
2
100
AcDbEntity
  8
0
100
AcDbLine
 10
4.703771395002898
 20
8.792851625247849
 30
0.0
 11
4.703771395002898
 21
8.964726625247842
 31
0.0
  0
LINE
  5
11E
330
2
100
AcDbEntity
  8
0
100
AcDbLine
 10
4.703771395002898
 20
8.964726625247835
 30
0.0
 11
4.703771395002898
 21
8.792851625247835
 31
0.0
  0
ARC
  5
11F
330
2
100
AcDbEntity
  8
0
100
AcDbCircle
 10
3.603771395002891
 20
11.48985997144794
 30
0.0
 40
0.4812499999999997
100
AcDbArc
 50
0.000000000000007
 51
180.0
  0
LINE
  5
120
330
2
100
AcDbEntity
  8
0
100
AcDbLine
 10
2.785725427810415
 20
12.98995990120003
 30
0.0
 11
4.841271395002885
 21
12.98972662524787
 31
0.0
  0
LINE
  5
121
330
2
100
AcDbEntity
  8
0
100
AcDbLine
 10
3.21468584108616
 20
13.16160162524787
 30
0.0
 11
4.703771395002898
 21
13.16160162524785
 31
0.0
  0
ARC
  5
122
330
2
100
AcDbEntity
  8
0
100
AcDbCircle
 10
2.791098141604868
 20
12.79956833387831
 30
0.0
 40
0.2758457982897771
100
AcDbArc
 50
70.63657804354097
 51
136.4201781405228
  0
ARC
  5
123
330
2
100
AcDbEntity
  8
0
100
AcDbCircle
 10
2.820844872479201
 20
12.78883071605898
 30
0.0
 40
0.4634763209873742
100
AcDbArc
 50
72.24873223850753
 51
154.3130063060202
  0
LINE
  5
124
330
2
100
AcDbEntity
  8
0
100
AcDbLine
 10
2.785725759829182
 20
12.9899602332188
 30
0.0
 11
2.591271395002884
 21
12.79550586839249
 31
0.0
  0
LINE
  5
125
330
2
100
AcDbEntity
  8
0
100
AcDbLine
 10
3.055496339149106
 20
13.02506720778515
 30
0.0
 11
2.882557272162069
 21
13.05981078212964
 31
0.0
  0
ARC
  5
126
330
2
100
AcDbEntity
  8
0
100
AcDbCircle
 10
3.214685841086161
 20
13.36592662524788
 30
0.0
 40
0.3762
100
AcDbArc
 50
244.9663001627562
 51
269.9999999999999
  0
LINE
  5
127
330
2
100
AcDbEntity
  8
0
100
AcDbLine
 10
3.21468584108616
 20
13.16160162524787
 30
0.0
 11
2.962152023130581
 21
13.23024049086101
 31
0.0
  0
LINE
  5
128
330
2
100
AcDbEntity
  8
0
100
AcDbLine
 10
4.703771395002898
 20
13.16160162524782
 30
0.0
 11
4.703771395002898
 21
12.98972662524783
 31
0.0
  0
LINE
  5
129
330
2
100
AcDbEntity
  8
0
100
AcDbLine
 10
8.705622348721168
 20
2.483896685407949
 30
0.0
 11
8.705622348721175
 21
0.0000000000000284
 31
0.0
  0
LINE
  5
12A
330
2
100
AcDbEntity
  8
0
100
AcDbLine
 10
8.893722348721163
 20
2.483710541746625
 30
0.0
 11
8.893722348721166
 21
0.0000000000000249
 31
0.0
  0
LINE
  5
12B
330
2
100
AcDbEntity
  8
0
100
AcDbLine
 10
13.14432234872116
 20
2.483896685407952
 30
0.0
 11
13.14432234872116
 21
0.0000000000000284
 31
0.0
  0
LINE
  5
12C
330
2
100
AcDbEntity
  8
0
100
AcDbLine
 10
12.95622234872116
 20
2.483710541746628
 30
0.0
 11
12.95622234872116
 21
0.0000000000000266
 31
0.0
  0
LINE
  5
12D
330
2
100
AcDbEntity
  8
0
100
AcDbLine
 10
8.705622348721175
 20
0.0000000000000266
 30
0.0
 11
13.14432234872116
 21
0.0000000000000266
 31
0.0
  0
LINE
  5
12E
330
2
100
AcDbEntity
  8
0
100
AcDbLine
 10
8.893722348721166
 20
0.368750000000027
 30
0.0
 11
12.95622234872116
 21
0.368750000000027
 31
0.0
  0
LINE
  5
12F
330
2
100
AcDbEntity
  8
0
100
AcDbLine
 10
8.893722348721166
 20
0.8687500000000785
 30
0.0
 11
12.95622234872116
 21
0.8687500000000785
 31
0.0
  0
LINE
  5
130
330
2
100
AcDbEntity
  8
0
100
AcDbLine
 10
8.705622348721171
 20
0.7562500000000263
 30
0.0
 11
8.893722348721163
 21
0.7562500000000263
 31
0.0
  0
LINE
  5
131
330
2
100
AcDbEntity
  8
0
100
AcDbLine
 10
12.95622234872116
 20
0.7562500000000298
 30
0.0
 11
13.14432234872115
 21
0.7562500000000298
 31
0.0
  0
CIRCLE
  5
132
330
2
100
AcDbEntity
  8
0
100
AcDbCircle
 10
11.29997234872118
 20
2.750000000000018
 30
0.0
 40
0.0855
  0
CIRCLE
  5
133
330
2
100
AcDbEntity
  8
0
100
AcDbCircle
 10
11.23747234872117
 20
1.875000000000018
 30
0.0
 40
0.0855
  0
LINE
  5
134
330
2
100
AcDbEntity
  8
0
  6
HIDDEN
100
AcDbLine
 10
8.893722348721159
 20
3.503069999999976
 30
0.0
 11
12.95622234872117
 21
3.50306999999999
 31
0.0
  0
LINE
  5
135
330
2
100
AcDbEntity
  8
0
  6
Continuous
100
AcDbLine
 10
8.893722348721163
 20
3.643694999999976
 30
0.0
 11
12.95622234872117
 21
3.643694999999994
 31
0.0
  0
LINE
  5
136
330
2
100
AcDbEntity
  8
0
100
AcDbLine
 10
8.766716072844616
 20
2.980118711953338
 30
0.0
 11
8.893722348721163
 21
3.107124987829884
 31
0.0
  0
ARC
  5
137
330
2
100
AcDbEntity
  8
0
100
AcDbCircle
 10
8.94804479361289
 20
2.895433861639233
 30
0.0
 40
0.1881
100
AcDbArc
 50
135.0
 51
205.033699837247
  0
CIRCLE
  5
138
330
2
100
AcDbEntity
  8
0
100
AcDbCircle
 10
9.549972348721166
 20
1.937500000000018
 30
0.0
 40
0.0855
  0
ARC
  5
139
330
2
100
AcDbEntity
  8
0
100
AcDbCircle
 10
8.517522348721169
 20
2.483896685407949
 30
0.0
 40
0.1881
100
AcDbArc
 50
0.0000000000002976
 51
24.07637439904274
  0
ARC
  5
13A
330
2
100
AcDbEntity
  8
0
100
AcDbCircle
 10
9.032729643926992
 20
2.714105140870959
 30
0.0
 40
0.3762
100
AcDbArc
 50
135.0
 51
204.0763743990387
  0
ARC
  5
13B
330
2
100
AcDbEntity
  8
0
100
AcDbCircle
 10
8.517522348721162
 20
2.483710541746625
 30
0.0
 40
0.3762
100
AcDbArc
 50
0.0000000000001018
 51
25.03369983724715
  0
LINE
  5
13C
330
2
100
AcDbEntity
  8
0
100
AcDbLine
 10
8.858381766183896
 20
2.642900043683675
 30
0.0
 11
8.777615084881521
 21
2.815839110670705
 31
0.0
  0
CIRCLE
  5
13D
330
2
100
AcDbEntity
  8
0
100
AcDbCircle
 10
10.54997234872117
 20
2.062500000000018
 30
0.0
 40
0.0855
  0
CIRCLE
  5
13E
330
2
100
AcDbEntity
  8
0
100
AcDbCircle
 10
9.924972348721166
 20
2.875000000000018
 30
0.0
 40
0.0855
  0
CIRCLE
  5
13F
330
2
100
AcDbEntity
  8
0
100
AcDbCircle
 10
10.61247234872117
 20
2.562500000000018
 30
0.0
 40
0.0855
  0
LINE
  5
140
330
2
100
AcDbEntity
  8
0
100
AcDbLine
 10
8.893722348721163
 20
3.107124987829884
 30
0.0
 11
8.893722348721163
 21
3.643694999999976
 31
0.0
  0
LINE
  5
141
330
2
100
AcDbEntity
  8
0
100
AcDbLine
 10
13.08322862459772
 20
2.980118711953342
 30
0.0
 11
12.95622234872118
 21
3.107124987829888
 31
0.0
  0
ARC
  5
142
330
2
100
AcDbEntity
  8
0
100
AcDbCircle
 10
12.90189990382945
 20
2.895433861639237
 30
0.0
 40
0.1881
100
AcDbArc
 50
334.9663001627563
 51
45.0
  0
LINE
  5
143
330
2
100
AcDbEntity
  8
0
100
AcDbLine
 10
12.99156293125844
 20
2.642900043683678
 30
0.0
 11
13.07232961256081
 21
2.815839110670709
 31
0.0
  0
CIRCLE
  5
144
330
2
100
AcDbEntity
  8
0
100
AcDbCircle
 10
11.92497234872117
 20
2.000000000000018
 30
0.0
 40
0.0855
  0
ARC
  5
145
330
2
100
AcDbEntity
  8
0
100
AcDbCircle
 10
13.33242234872117
 20
2.483710541746628
 30
0.0
 40
0.3762
100
AcDbArc
 50
154.9663001627562
 51
179.9999999999999
  0
CIRCLE
  5
146
330
2
100
AcDbEntity
  8
0
100
AcDbCircle
 10
12.29997234872117
 20
2.937500000000018
 30
0.0
 40
0.0855
  0
ARC
  5
147
330
2
100
AcDbEntity
  8
0
100
AcDbCircle
 10
13.33242234872117
 20
2.483896685407952
 30
0.0
 40
0.1881
100
AcDbArc
 50
155.9236256009587
 51
179.9999999999997
  0
ARC
  5
148
330
2
100
AcDbEntity
  8
0
100
AcDbCircle
 10
12.81721505351534
 20
2.714105140870963
 30
0.0
 40
0.3762
100
AcDbArc
 50
335.9236256009627
 51
45.0
  0
LINE
  5
149
330
2
100
AcDbEntity
  8
0
100
AcDbLine
 10
12.95622234872118
 20
3.643694999999994
 30
0.0
 11
12.95622234872116
 21
3.107124987829888
 31
0.0
  0
LINE
  5
14E
330
2
100
AcDbEntity
  8
0
100
AcDbLine
 10
-9.155479558715371
 20
0.8687500000000785
 30
0.0
 11
-13.21797955871536
 21
0.8687500000000785
 31
0.0
  0
LINE
  5
14F
330
2
100
AcDbEntity
  8
0
  6
HIDDEN
100
AcDbLine
 10
-9.155479558715364
 20
3.503069999999976
 30
0.0
 11
-13.21797955871537
 21
3.50306999999999
 31
0.0
  0
LINE
  5
150
330
2
100
AcDbEntity
  8
0
  6
Continuous
100
AcDbLine
 10
-9.155479558715367
 20
3.643694999999976
 30
0.0
 11
-13.21797955871538
 21
3.643694999999994
 31
0.0
  0
LINE
  5
151
330
2
100
AcDbEntity
  8
0
100
AcDbLine
 10
-9.155479558715371
 20
0.368750000000027
 30
0.0
 11
-13.21797955871536
 21
0.368750000000027
 31
0.0
  0
LINE
  5
152
330
2
100
AcDbEntity
  8
0
100
AcDbLine
 10
-8.967379558715379
 20
0.0000000000000266
 30
0.0
 11
-13.40607955871537
 21
0.0000000000000266
 31
0.0
  0
LINE
  5
153
330
2
100
AcDbEntity
  8
0
100
AcDbLine
 10
-8.967379558715372
 20
2.483896685407949
 30
0.0
 11
-8.967379558715379
 21
0.0000000000000284
 31
0.0
  0
LINE
  5
154
330
2
100
AcDbEntity
  8
0
100
AcDbLine
 10
-9.155479558715367
 20
2.483710541746625
 30
0.0
 11
-9.155479558715371
 21
0.0000000000000249
 31
0.0
  0
ARC
  5
155
330
2
100
AcDbEntity
  8
0
100
AcDbCircle
 10
-9.294486853921196
 20
2.714105140870959
 30
0.0
 40
0.3762
100
AcDbArc
 50
335.9236256009613
 51
45.00000000000001
  0
ARC
  5
156
330
2
100
AcDbEntity
  8
0
100
AcDbCircle
 10
-8.779279558715366
 20
2.483710541746625
 30
0.0
 40
0.3762
100
AcDbArc
 50
154.9663001627528
 51
179.9999999999999
  0
LINE
  5
157
330
2
100
AcDbEntity
  8
0
100
AcDbLine
 10
-8.967379558715376
 20
0.7562500000000263
 30
0.0
 11
-9.155479558715367
 21
0.7562500000000263
 31
0.0
  0
ARC
  5
158
330
2
100
AcDbEntity
  8
0
100
AcDbCircle
 10
-8.779279558715373
 20
2.483896685407949
 30
0.0
 40
0.1881
100
AcDbArc
 50
155.9236256009573
 51
179.9999999999997
  0
LINE
  5
159
330
2
100
AcDbEntity
  8
0
100
AcDbLine
 10
-9.155479558715367
 20
3.107124987829884
 30
0.0
 11
-9.155479558715367
 21
3.643694999999976
 31
0.0
  0
LINE
  5
15A
330
2
100
AcDbEntity
  8
0
100
AcDbLine
 10
-9.028473282838821
 20
2.980118711953338
 30
0.0
 11
-9.155479558715367
 21
3.107124987829884
 31
0.0
  0
ARC
  5
15B
330
2
100
AcDbEntity
  8
0
100
AcDbCircle
 10
-9.209802003607095
 20
2.895433861639233
 30
0.0
 40
0.1881
100
AcDbArc
 50
334.9663001627529
 51
45.00000000000001
  0
LINE
  5
15C
330
2
100
AcDbEntity
  8
0
100
AcDbLine
 10
-9.120138976178101
 20
2.642900043683675
 30
0.0
 11
-9.039372294875726
 21
2.815839110670705
 31
0.0
  0
CIRCLE
  5
15D
330
2
100
AcDbEntity
  8
0
100
AcDbCircle
 10
-10.87422955871537
 20
2.562500000000018
 30
0.0
 40
0.0855
  0
CIRCLE
  5
15E
330
2
100
AcDbEntity
  8
0
100
AcDbCircle
 10
-9.811729558715371
 20
1.937500000000018
 30
0.0
 40
0.0855
  0
CIRCLE
  5
15F
330
2
100
AcDbEntity
  8
0
100
AcDbCircle
 10
-10.81172955871537
 20
2.062500000000018
 30
0.0
 40
0.0855
  0
CIRCLE
  5
160
330
2
100
AcDbEntity
  8
0
100
AcDbCircle
 10
-11.49922955871537
 20
1.875000000000018
 30
0.0
 40
0.0855
  0
CIRCLE
  5
161
330
2
100
AcDbEntity
  8
0
100
AcDbCircle
 10
-12.18672955871537
 20
2.000000000000018
 30
0.0
 40
0.0855
  0
CIRCLE
  5
162
330
2
100
AcDbEntity
  8
0
100
AcDbCircle
 10
-10.18672955871537
 20
2.875000000000018
 30
0.0
 40
0.0855
  0
CIRCLE
  5
163
330
2
100
AcDbEntity
  8
0
100
AcDbCircle
 10
-11.56172955871539
 20
2.750000000000018
 30
0.0
 40
0.0855
  0
LINE
  5
164
330
2
100
AcDbEntity
  8
0
100
AcDbLine
 10
-13.40607955871537
 20
2.483896685407952
 30
0.0
 11
-13.40607955871536
 21
0.0000000000000284
 31
0.0
  0
LINE
  5
165
330
2
100
AcDbEntity
  8
0
100
AcDbLine
 10
-13.21797955871536
 20
2.483710541746628
 30
0.0
 11
-13.21797955871536
 21
0.0000000000000266
 31
0.0
  0
ARC
  5
166
330
2
100
AcDbEntity
  8
0
100
AcDbCircle
 10
-13.07897226350955
 20
2.714105140870963
 30
0.0
 40
0.3762
100
AcDbArc
 50
135.0
 51
204.0763743990373
  0
ARC
  5
167
330
2
100
AcDbEntity
  8
0
100
AcDbCircle
 10
-13.59417955871538
 20
2.483710541746628
 30
0.0
 40
0.3762
100
AcDbArc
 50
0.0000000000001088
 51
25.03369983724384
  0
LINE
  5
168
330
2
100
AcDbEntity
  8
0
100
AcDbLine
 10
-13.21797955871536
 20
0.7562500000000298
 30
0.0
 11
-13.40607955871536
 21
0.7562500000000298
 31
0.0
  0
ARC
  5
169
330
2
100
AcDbEntity
  8
0
100
AcDbCircle
 10
-13.59417955871538
 20
2.483896685407952
 30
0.0
 40
0.1881
100
AcDbArc
 50
0.0000000000003123
 51
24.07637439904132
  0
LINE
  5
16A
330
2
100
AcDbEntity
  8
0
100
AcDbLine
 10
-13.21797955871538
 20
3.643694999999994
 30
0.0
 11
-13.21797955871537
 21
3.107124987829888
 31
0.0
  0
CIRCLE
  5
16B
330
2
100
AcDbEntity
  8
0
100
AcDbCircle
 10
-12.56172955871537
 20
2.937500000000018
 30
0.0
 40
0.0855
  0
LINE
  5
16C
330
2
100
AcDbEntity
  8
0
100
AcDbLine
 10
-13.34498583459193
 20
2.980118711953342
 30
0.0
 11
-13.21797955871538
 21
3.107124987829888
 31
0.0
  0
LINE
  5
16D
330
2
100
AcDbEntity
  8
0
100
AcDbLine
 10
-13.25332014125264
 20
2.642900043683678
 30
0.0
 11
-13.33408682255502
 21
2.815839110670709
 31
0.0
  0
ARC
  5
16E
330
2
100
AcDbEntity
  8
0
100
AcDbCircle
 10
-13.16365711382365
 20
2.895433861639237
 30
0.0
 40
0.1881
100
AcDbArc
 50
135.0
 51
205.0336998372437
  0
ENDSEC
  0
SECTION
  2
OBJECTS
  0
DICTIONARY
  5
9
330
0
100
AcDbDictionary
281
     1
  3
ACAD_COLOR
350
172
  3
ACAD_GROUP
350
23
  3
ACAD_LAYOUT
350
D
  3
ACAD_MATERIAL
350
171
  3
ACAD_MLINESTYLE
350
24
  3
ACAD_PLOTSETTINGS
350
25
  3
ACAD_PLOTSTYLENAME
350
8
  3
ACAD_TABLESTYLE
350
173
  3
ACDBHEADERROUNDTRIPXREC
350
18C
  3
AcDbVariableDictionary
350
C4
  0
DICTIONARY
  5
172
102
{ACAD_REACTORS
330
9
102
}
330
9
100
AcDbDictionary
281
     1
  0
DICTIONARY
  5
23
102
{ACAD_REACTORS
330
9
102
}
330
9
100
AcDbDictionary
281
     1
  0
DICTIONARY
  5
D
102
{ACAD_REACTORS
330
9
102
}
330
9
100
AcDbDictionary
281
     1
  3
Layout1
350
13
  3
Model
350
C
  0
DICTIONARY
  5
171
102
{ACAD_REACTORS
330
9
102
}
330
9
100
AcDbDictionary
281
     1
  0
DICTIONARY
  5
24
102
{ACAD_REACTORS
330
9
102
}
330
9
100
AcDbDictionary
281
     1
  3
STANDARD
350
27
  0
DICTIONARY
  5
25
102
{ACAD_REACTORS
330
9
102
}
330
9
100
AcDbDictionary
281
     1
  0
ACDBDICTIONARYWDFLT
  5
8
102
{ACAD_REACTORS
330
9
102
}
330
9
100
AcDbDictionary
281
     1
  3
Normal
350
7
100
AcDbDictionaryWithDefault
340
7
  0
DICTIONARY
  5
173
102
{ACAD_REACTORS
330
9
102
}
330
9
100
AcDbDictionary
281
     1
  3
Standard
350
174
  0
DICTIONARY
  5
18C
102
{ACAD_REACTORS
330
9
102
}
330
9
100
AcDbDictionary
281
     1
  3
COLORDICT
350
18D
  3
MATERIALDICT
350
18E
  0
DICTIONARY
  5
C4
102
{ACAD_REACTORS
330
9
102
}
330
9
100
AcDbDictionary
281
     1
  3
CTABLESTYLE
350
189
  3
HIDETEXT
350
18B
  0
LAYOUT
  5
13
102
{ACAD_REACTORS
330
D
102
}
102
{ACAD_XDICTIONARY
360
18F
102
}
330
D
100
AcDbPlotSettings
  1

  2
HP LaserJet 2100 Series PS
  4

  6

 40
0.0
 41
0.0
 42
0.0
 43
0.0
 44
0.0
 45
0.0
 46
0.0
 47
0.0
 48
0.0
 49
0.0
140
0.0
141
0.0
142
1.0
143
1.0
 70
   688
 72
     0
 73
     0
 74
     5
  7

 75
    16
147
1.0
148
0.0
149
0.0
100
AcDbLayout
  1
Layout1
 70
     0
 71
     1
 10
0.0
 20
0.0
 11
12.0
 21
9.0
 12
0.0
 22
0.0
 32
0.0
 14
1.000000000000000E+20
 24
1.000000000000000E+20
 34
1.000000000000000E+20
 15
-1.000000000000000E+20
 25
-1.000000000000000E+20
 35
-1.000000000000000E+20
146
0.0
 13
0.0
 23
0.0
 33
0.0
 16
1.0
 26
0.0
 36
0.0
 17
0.0
 27
1.0
 37
0.0
 76
     0
330
E
  0
LAYOUT
  5
C
102
{ACAD_REACTORS
330
D
102
}
102
{ACAD_XDICTIONARY
360
191
102
}
330
D
100
AcDbPlotSettings
  1

  2
HP LaserJet 4.pc3
  4
Letter
  6

 40
7.143749713897705
 41
6.127734661102295
 42
7.14373779296875
 43
7.14373779296875
 44
215.8999938964844
 45
279.3999938964844
 46
0.0
 47
0.0
 48
0.0
 49
0.0
140
0.0
141
0.0
142
1.0
143
3.023621951417749
 70
 11952
 72
     0
 73
     1
 74
     2
  7

 75
     0
147
0.3307291771483233
148
0.0
149
0.0
100
AcDbLayout
  1
Model
 70
     1
 71
     0
 10
0.0
 20
0.0
 11
12.0
 21
9.0
 12
0.0
 22
0.0
 32
0.0
 14
0.0
 24
0.0
 34
0.0
 15
0.0
 25
0.0
 35
0.0
146
0.0
 13
0.0
 23
0.0
 33
0.0
 16
1.0
 26
0.0
 36
0.0
 17
0.0
 27
1.0
 37
0.0
 76
     0
330
2
  0
MLINESTYLE
  5
27
102
{ACAD_REACTORS
330
24
102
}
330
24
100
AcDbMlineStyle
  2
STANDARD
 70
     0
  3

 62
   256
 51
90.0
 52
90.0
 71
     2
 49
0.5
 62
   256
  6
BYLAYER
 49
-0.5
 62
   256
  6
BYLAYER
  0
ACDBPLACEHOLDER
  5
7
102
{ACAD_REACTORS
330
8
102
}
330
8
  0
ACAD_PROXY_OBJECT
  5
174
102
{ACAD_REACTORS
330
173
102
}
330
173
100
AcDbProxyObject
 90
      499
 91
      521
 95
   983063
 70
     0
 93
     1841
310
4214DD185B99185C9928B81E85EB51B8AE3F2E07A17AD46E2B8FC02B5E8DC0F42B1CFD028000000C1008070000C3001FDFF8000000C1003FBFF000000182007F7FE00000030400FEFFC00000060801FDFF8000000C1003FBFF00000018200000000000000681FA0B0000001820100E000186003FBFF000000182007F7FE000
310
00030400FEFFC00000060801FDFF8000000C1003FBFF000000182007F7FE000000304000AD7A3703D0AC73F4160000003040201C00030C007F7FE00000030400FEFFC00000060801FDFF8000000C1003FBFF000000182007F7FE00000030400FEFFC000000608000
340
16
340
16
340
16
 94
        0
  0
XRECORD
  5
18D
102
{ACAD_REACTORS
330
18C
102
}
330
18C
100
AcDbXrecord
340
172
  0
XRECORD
  5
18E
102
{ACAD_REACTORS
330
18C
102
}
330
18C
100
AcDbXrecord
340
171
  0
DICTIONARYVAR
  5
189
102
{ACAD_REACTORS
330
C4
102
}
330
C4
100
DictionaryVariables
280
     0
  1
STANDARD
  0
DICTIONARYVAR
  5
18B
102
{ACAD_REACTORS
330
C4
102
}
330
C4
100
DictionaryVariables
280
     0
  1
0
  0
DICTIONARY
  5
18F
330
13
100
AcDbDictionary
280
     1
281
     1
  3
ACAD_XREC_ROUNDTRIP
360
190
  0
DICTIONARY
  5
191
330
C
100
AcDbDictionary
280
     1
281
     1
  3
ACAD_XREC_ROUNDTRIP
360
192
  0
XRECORD
  5
190
102
{ACAD_REACTORS
330
18F
102
}
330
18F
100
AcDbXrecord
102
SHADEPLOT
 70
     0
102
SHADEPLOTRESLEVEL
 70
     2
102
SHADEPLOTCUSTOMDPI
 70
   300
  0
XRECORD
  5
192
102
{ACAD_REACTORS
330
191
102
}
330
191
100
AcDbXrecord
102
SHADEPLOT
 70
     0
102
SHADEPLOTRESLEVEL
 70
     2
102
SHADEPLOTCUSTOMDPI
 70
   300
  0
ENDSEC
  0
EOF
