  0
SECTION
  2
HEADER
  9
$ACADVER
  1
AC1015
  9
$ACADMAINTVER
 70
     6
  9
$DWGCODEPAGE
  3
ANSI_1252
  9
$INSBASE
 10
0.0
 20
0.0
 30
0.0
  9
$EXTMIN
 10
-23.89801015949111
 20
-0.092773344475745
 30
-0.0015258207003583
  9
$EXTMAX
 10
22.83336648174256
 20
17.42736823091677
 30
0.0000000349246037
  9
$LIMMIN
 10
0.0
 20
0.0
  9
$LIMMAX
 10
52.5
 20
40.0
  9
$ORTHOMODE
 70
     0
  9
$REGENMODE
 70
     1
  9
$FILLMODE
 70
     1
  9
$QTEXTMODE
 70
     0
  9
$MIRRTEXT
 70
     0
  9
$LTSCALE
 40
1.0
  9
$ATTMODE
 70
     1
  9
$TEXTSIZE
 40
0.45
  9
$TRACEWID
 40
0.05
  9
$TEXTSTYLE
  7
STANDARD
  9
$CLAYER
  8
0
  9
$CELTYPE
  6
BYLAYER
  9
$CECOLOR
 62
   256
  9
$CELTSCALE
 40
1.0
  9
$DISPSILH
 70
     0
  9
$DIMSCALE
 40
5.0
  9
$DIMASZ
 40
0.125
  9
$DIMEXO
 40
0.062
  9
$DIMDLI
 40
0.375
  9
$DIMRND
 40
0.0
  9
$DIMDLE
 40
0.0
  9
$DIMEXE
 40
0.08
  9
$DIMTP
 40
0.0
  9
$DIMTM
 40
0.0
  9
$DIMTXT
 40
0.09
  9
$DIMCEN
 40
-0.06
  9
$DIMTSZ
 40
0.0
  9
$DIMTOL
 70
     0
  9
$DIMLIM
 70
     0
  9
$DIMTIH
 70
     1
  9
$DIMTOH
 70
     1
  9
$DIMSE1
 70
     0
  9
$DIMSE2
 70
     0
  9
$DIMTAD
 70
     0
  9
$DIMZIN
 70
     0
  9
$DIMBLK
  1

  9
$DIMASO
 70
     0
  9
$DIMSHO
 70
     0
  9
$DIMPOST
  1

  9
$DIMAPOST
  1

  9
$DIMALT
 70
     0
  9
$DIMALTD
 70
     2
  9
$DIMALTF
 40
25.4
  9
$DIMLFAC
 40
1.0
  9
$DIMTOFL
 70
     0
  9
$DIMTVP
 40
0.0
  9
$DIMTIX
 70
     0
  9
$DIMSOXD
 70
     0
  9
$DIMSAH
 70
     0
  9
$DIMBLK1
  1

  9
$DIMBLK2
  1

  9
$DIMSTYLE
  2
STANDARD
  9
$DIMCLRD
 70
     0
  9
$DIMCLRE
 70
     0
  9
$DIMCLRT
 70
     0
  9
$DIMTFAC
 40
1.0
  9
$DIMGAP
 40
0.09375
  9
$DIMJUST
 70
     0
  9
$DIMSD1
 70
     0
  9
$DIMSD2
 70
     0
  9
$DIMTOLJ
 70
     1
  9
$DIMTZIN
 70
     0
  9
$DIMALTZ
 70
     0
  9
$DIMALTTZ
 70
     0
  9
$DIMUPT
 70
     0
  9
$DIMDEC
 70
     5
  9
$DIMTDEC
 70
     5
  9
$DIMALTU
 70
     5
  9
$DIMALTTD
 70
     2
  9
$DIMTXSTY
  7
STANDARD
  9
$DIMAUNIT
 70
     0
  9
$DIMADEC
 70
     0
  9
$DIMALTRND
 40
0.0
  9
$DIMAZIN
 70
     0
  9
$DIMDSEP
 70
    46
  9
$DIMATFIT
 70
     3
  9
$DIMFRAC
 70
     2
  9
$DIMLDRBLK
  1

  9
$DIMLUNIT
 70
     5
  9
$DIMLWD
 70
    -2
  9
$DIMLWE
 70
    -2
  9
$DIMTMOVE
 70
     2
  9
$LUNITS
 70
     5
  9
$LUPREC
 70
     5
  9
$SKETCHINC
 40
0.1
  9
$FILLETRAD
 40
0.0
  9
$AUNITS
 70
     0
  9
$AUPREC
 70
     0
  9
$MENU
  1
qa
  9
$ELEVATION
 40
0.0
  9
$PELEVATION
 40
0.0
  9
$THICKNESS
 40
0.0
  9
$LIMCHECK
 70
     0
  9
$CHAMFERA
 40
0.0
  9
$CHAMFERB
 40
0.0
  9
$CHAMFERC
 40
0.0
  9
$CHAMFERD
 40
0.0
  9
$SKPOLY
 70
     0
  9
$TDCREATE
 40
2450575.69274919
  9
$TDUCREATE
 40
2450576.026082523
  9
$TDUPDATE
 40
2454167.657993021
  9
$TDUUPDATE
 40
2454167.991326354
  9
$TDINDWG
 40
0.3889444907
  9
$TDUSRTIMER
 40
0.3889444907
  9
$USRTIMER
 70
     1
  9
$ANGBASE
 50
0.0
  9
$ANGDIR
 70
     0
  9
$PDMODE
 70
     0
  9
$PDSIZE
 40
0.0
  9
$PLINEWID
 40
0.0
  9
$SPLFRAME
 70
     0
  9
$SPLINETYPE
 70
     6
  9
$SPLINESEGS
 70
     8
  9
$HANDSEED
  5
14FA
  9
$SURFTAB1
 70
     6
  9
$SURFTAB2
 70
     6
  9
$SURFTYPE
 70
     6
  9
$SURFU
 70
     6
  9
$SURFV
 70
     6
  9
$UCSBASE
  2

  9
$UCSNAME
  2

  9
$UCSORG
 10
0.0
 20
0.0
 30
0.0
  9
$UCSXDIR
 10
1.0
 20
0.0
 30
0.0
  9
$UCSYDIR
 10
0.0
 20
1.0
 30
0.0
  9
$UCSORTHOREF
  2

  9
$UCSORTHOVIEW
 70
     0
  9
$UCSORGTOP
 10
0.0
 20
0.0
 30
0.0
  9
$UCSORGBOTTOM
 10
0.0
 20
0.0
 30
0.0
  9
$UCSORGLEFT
 10
0.0
 20
0.0
 30
0.0
  9
$UCSORGRIGHT
 10
0.0
 20
0.0
 30
0.0
  9
$UCSORGFRONT
 10
0.0
 20
0.0
 30
0.0
  9
$UCSORGBACK
 10
0.0
 20
0.0
 30
0.0
  9
$PUCSBASE
  2

  9
$PUCSNAME
  2

  9
$PUCSORG
 10
0.0
 20
0.0
 30
0.0
  9
$PUCSXDIR
 10
1.0
 20
0.0
 30
0.0
  9
$PUCSYDIR
 10
0.0
 20
1.0
 30
0.0
  9
$PUCSORTHOREF
  2

  9
$PUCSORTHOVIEW
 70
     0
  9
$PUCSORGTOP
 10
0.0
 20
0.0
 30
0.0
  9
$PUCSORGBOTTOM
 10
0.0
 20
0.0
 30
0.0
  9
$PUCSORGLEFT
 10
0.0
 20
0.0
 30
0.0
  9
$PUCSORGRIGHT
 10
0.0
 20
0.0
 30
0.0
  9
$PUCSORGFRONT
 10
0.0
 20
0.0
 30
0.0
  9
$PUCSORGBACK
 10
0.0
 20
0.0
 30
0.0
  9
$USERI1
 70
     0
  9
$USERI2
 70
     0
  9
$USERI3
 70
     0
  9
$USERI4
 70
     0
  9
$USERI5
 70
     0
  9
$USERR1
 40
0.0
  9
$USERR2
 40
0.0
  9
$USERR3
 40
0.0
  9
$USERR4
 40
0.0
  9
$USERR5
 40
0.0
  9
$WORLDVIEW
 70
     1
  9
$SHADEDGE
 70
     3
  9
$SHADEDIF
 70
    70
  9
$TILEMODE
 70
     1
  9
$MAXACTVP
 70
    16
  9
$PINSBASE
 10
0.0
 20
0.0
 30
0.0
  9
$PLIMCHECK
 70
     0
  9
$PEXTMIN
 10
1.000000000000000E+20
 20
1.000000000000000E+20
 30
1.000000000000000E+20
  9
$PEXTMAX
 10
-1.000000000000000E+20
 20
-1.000000000000000E+20
 30
-1.000000000000000E+20
  9
$PLIMMIN
 10
0.0
 20
0.0
  9
$PLIMMAX
 10
12.0
 20
9.0
  9
$UNITMODE
 70
     0
  9
$VISRETAIN
 70
     0
  9
$PLINEGEN
 70
     0
  9
$PSLTSCALE
 70
     0
  9
$TREEDEPTH
 70
  3020
  9
$CMLSTYLE
  2
STANDARD
  9
$CMLJUST
 70
     0
  9
$CMLSCALE
 40
1.0
  9
$PROXYGRAPHICS
 70
     1
  9
$MEASUREMENT
 70
     0
  9
$CELWEIGHT
370
    -1
  9
$ENDCAPS
280
     0
  9
$JOINSTYLE
280
     0
  9
$LWDISPLAY
290
     0
  9
$INSUNITS
 70
     0
  9
$HYPERLINKBASE
  1

  9
$STYLESHEET
  1

  9
$XEDIT
290
     1
  9
$CEPSNTYPE
380
     0
  9
$PSTYLEMODE
290
     1
  9
$FINGERPRINTGUID
  2
{2988C309-482F-4F84-9C51-487784A65633}
  9
$VERSIONGUID
  2
{EF9D4141-CBC4-4B81-94EF-A8ADC3500085}
  9
$EXTNAMES
290
     1
  9
$PSVPSCALE
 40
0.0
  9
$OLESTARTUP
290
     0
  0
ENDSEC
  0
SECTION
  2
CLASSES
  0
CLASS
  1
DICTIONARYVAR
  2
AcDbDictionaryVar
  3
AutoCAD 2000
 90
        0
280
     0
281
     0
  0
CLASS
  1
LWPOLYLINE
  2
AcDbPolyline
  3
AutoCAD 2000
 90
        0
280
     0
281
     1
  0
CLASS
  1
ACDBDICTIONARYWDFLT
  2
AcDbDictionaryWithDefault
  3
AutoCAD 2000
 90
        0
280
     0
281
     0
  0
CLASS
  1
ACDBPLACEHOLDER
  2
AcDbPlaceHolder
  3
ObjectDBX Classes
 90
        0
280
     0
281
     0
  0
CLASS
  1
LAYOUT
  2
AcDbLayout
  3
ObjectDBX Classes
 90
        0
280
     0
281
     0
  0
CLASS
  1
LONG_TRANSACTION
  2
AcDbLongTransaction
  3
ObjectDBX Classes
 90
   -65536
280
     1
281
     0
  0
CLASS
  1
LWPOLYLINE
  2
AcDbPolyline
  3
AutoCAD 2000
 90
        0
280
     0
281
     1
  0
CLASS
  1
HATCH
  2
AcDbHatch
  3
AutoCAD 2000
 90
        0
280
     0
281
     1
  0
CLASS
  1
XRECORD
  2
AcDbXrecord
  3
AutoCAD 2000
 90
        0
280
     0
281
     0
  0
CLASS
  1
TABLESTYLE
  2
AcDbTableStyle
  3
ObjectDBX Classes
 90
     2047
280
     1
281
     0
  0
ENDSEC
  0
SECTION
  2
TABLES
  0
TABLE
  2
VPORT
  5
8
330
0
100
AcDbSymbolTable
 70
     3
  0
VPORT
  5
14E9
330
8
100
AcDbSymbolTableRecord
100
AcDbViewportTableRecord
  2
*Active
 70
     0
 10
0.0
 20
0.0
 11
1.0
 21
1.0
 12
14.30099492025445
 22
19.95361332776213
 13
0.0
 23
0.0
 14
0.063
 24
0.063
 15
0.25
 25
0.25
 16
0.0
 26
0.0
 36
1.0
 17
0.0
 27
0.0
 37
0.0
 40
42.39165682011407
 41
1.814583333333333
 42
50.0
 43
0.0
 44
0.0
 50
0.0
 51
0.0
 71
     0
 72
   100
 73
     1
 74
     0
 75
     0
 76
     0
 77
     0
 78
     0
281
     0
 65
     1
110
0.0
120
0.0
130
0.0
111
1.0
121
0.0
131
0.0
112
0.0
122
1.0
132
0.0
 79
     0
146
0.0
  0
ENDTAB
  0
TABLE
  2
LTYPE
  5
5
330
0
100
AcDbSymbolTable
 70
     2
  0
LTYPE
  5
11
330
5
100
AcDbSymbolTableRecord
100
AcDbLinetypeTableRecord
  2
BYBLOCK
 70
     0
  3

 72
    65
 73
     0
 40
0.0
  0
LTYPE
  5
12
330
5
100
AcDbSymbolTableRecord
100
AcDbLinetypeTableRecord
  2
BYLAYER
 70
     0
  3

 72
    65
 73
     0
 40
0.0
  0
LTYPE
  5
13
330
5
100
AcDbSymbolTableRecord
100
AcDbLinetypeTableRecord
  2
CONTINUOUS
 70
     0
  3
Solid line
 72
    65
 73
     0
 40
0.0
  0
LTYPE
  5
2D
330
5
100
AcDbSymbolTableRecord
100
AcDbLinetypeTableRecord
  2
HIDDEN
 70
     0
  3
_ _ _ _ _ _ _ _ _ _ _ _ _ _ _ _ _ _ _ _ _ _ _
 72
    65
 73
     2
 40
0.375
 49
0.25
 74
     0
 49
-0.125
 74
     0
  0
ENDTAB
  0
TABLE
  2
LAYER
  5
2
330
0
100
AcDbSymbolTable
 70
     5
  0
LAYER
  5
E
330
2
100
AcDbSymbolTableRecord
100
AcDbLayerTableRecord
  2
0
 70
     0
 62
     7
  6
CONTINUOUS
370
    -3
390
874
  0
ENDTAB
  0
TABLE
  2
STYLE
  5
3
330
0
100
AcDbSymbolTable
 70
     1
  0
STYLE
  5
F
330
3
100
AcDbSymbolTableRecord
100
AcDbTextStyleTableRecord
  2
STANDARD
 70
     0
 40
0.0
 41
1.0
 50
0.0
 71
     0
 42
0.45
  3
TXT
  4

  0
ENDTAB
  0
TABLE
  2
VIEW
  5
6
330
0
100
AcDbSymbolTable
 70
     0
  0
ENDTAB
  0
TABLE
  2
UCS
  5
7
330
0
100
AcDbSymbolTable
 70
     0
  0
ENDTAB
  0
TABLE
  2
APPID
  5
9
330
0
100
AcDbSymbolTable
 70
     1
  0
APPID
  5
10
330
9
100
AcDbSymbolTableRecord
100
AcDbRegAppTableRecord
  2
ACAD
 70
     0
  0
ENDTAB
  0
TABLE
  2
DIMSTYLE
  5
A
330
0
100
AcDbSymbolTable
 70
     1
100
AcDbDimStyleTable
  0
DIMSTYLE
105
45E
330
A
100
AcDbSymbolTableRecord
100
AcDbDimStyleTableRecord
  2
STANDARD
 70
     0
  3

  4

340
F
  0
ENDTAB
  0
TABLE
  2
BLOCK_RECORD
  5
1
330
0
100
AcDbSymbolTable
 70
     0
  0
BLOCK_RECORD
  5
17
330
1
100
AcDbSymbolTableRecord
100
AcDbBlockTableRecord
  2
*MODEL_SPACE
340
877
  0
BLOCK_RECORD
  5
14
330
1
100
AcDbSymbolTableRecord
100
AcDbBlockTableRecord
  2
*PAPER_SPACE
340
878
  0
ENDTAB
  0
ENDSEC
  0
SECTION
  2
BLOCKS
  0
BLOCK
  5
48
330
17
100
AcDbEntity
  8
0
100
AcDbBlockBegin
  2
*MODEL_SPACE
 70
     0
 10
0.0
 20
0.0
 30
0.0
  3
*MODEL_SPACE
  1

  4

  0
ENDBLK
  5
49
330
17
100
AcDbEntity
  8
0
100
AcDbBlockEnd
  0
BLOCK
  5
46
330
14
100
AcDbEntity
 67
     1
  8
0
100
AcDbBlockBegin
  2
*PAPER_SPACE
 70
     0
 10
0.0
 20
0.0
 30
0.0
  3
*PAPER_SPACE
  1

  4

  0
ENDBLK
  5
47
330
14
100
AcDbEntity
 67
     1
  8
0
100
AcDbBlockEnd
  0
ENDSEC
  0
SECTION
  2
ENTITIES
  0
LINE
  5
A73
330
17
100
AcDbEntity
  8
0
  6
Continuous
100
AcDbLine
 10
22.47282340149939
 20
-0.0000000000000071
 30
0.0
 11
17.22282340149909
 21
0.0
 31
0.0
  0
LINE
  5
A77
330
17
100
AcDbEntity
  8
0
  6
HIDDEN
100
AcDbLine
 10
22.47282340149937
 20
0.2349999999999852
 30
0.0
 11
17.22282340149922
 21
0.2349999999999994
 31
0.0
  0
LINE
  5
A78
330
17
100
AcDbEntity
  8
0
  6
Continuous
100
AcDbLine
 10
22.83282340149913
 20
17.4250000000001
 30
0.0
 11
17.22282340149956
 21
17.42500000000008
 31
0.0
  0
LINE
  5
A7E
330
17
100
AcDbEntity
  8
0
  6
Continuous
100
AcDbLine
 10
17.22282340149957
 20
17.42500000000008
 30
0.0
 11
17.22282340149909
 21
0.0
 31
0.0
  0
LINE
  5
ABB
330
17
100
AcDbEntity
  8
0
  6
Continuous
100
AcDbLine
 10
22.83282340149914
 20
17.42500000000008
 30
0.0
 11
22.8328234014993
 21
6.925000000000072
 31
0.0
  0
LINE
  5
ABC
330
17
100
AcDbEntity
  8
0
  6
Continuous
100
AcDbLine
 10
22.66032340149915
 20
17.42500000000008
 30
0.0
 11
22.66032340149931
 21
6.925000000000072
 31
0.0
  0
LINE
  5
AC1
330
17
100
AcDbEntity
  8
0
  6
Continuous
100
AcDbLine
 10
22.47282340149936
 20
6.925000000000043
 30
0.0
 11
22.47282340149939
 21
-0.0000000000000071
 31
0.0
  0
LINE
  5
ACE
330
17
100
AcDbEntity
  8
0
  6
Continuous
100
AcDbLine
 10
22.47282340149936
 20
6.925000000000043
 30
0.0
 11
22.8328234014993
 21
6.925000000000072
 31
0.0
  0
LINE
  5
D5E
330
17
100
AcDbEntity
  8
0
  6
Continuous
100
AcDbLine
 10
-23.53701330690929
 20
6.924999999999905
 30
0.0
 11
-23.53701330690932
 21
-0.0000000000000071
 31
0.0
  0
LINE
  5
D5F
330
17
100
AcDbEntity
  8
0
  6
Continuous
100
AcDbLine
 10
-18.28701330690952
 20
17.42500000000007
 30
0.0
 11
-18.28701330690902
 21
0.0
 31
0.0
  0
LINE
  5
D62
330
17
100
AcDbEntity
  8
0
  6
HIDDEN
100
AcDbLine
 10
-23.53701330690931
 20
0.2349999999999852
 30
0.0
 11
-18.28701330690915
 21
0.2349999999999994
 31
0.0
  0
LINE
  5
D63
330
17
100
AcDbEntity
  8
0
  6
Continuous
100
AcDbLine
 10
-23.53701330690932
 20
-0.0000000000000071
 30
0.0
 11
-18.28701330690902
 21
0.0
 31
0.0
  0
LINE
  5
D77
330
17
100
AcDbEntity
  8
0
  6
Continuous
100
AcDbLine
 10
-23.89701330690907
 20
17.42500000000007
 30
0.0
 11
-23.89701330690924
 21
6.924999999999933
 31
0.0
  0
LINE
  5
D78
330
17
100
AcDbEntity
  8
0
  6
Continuous
100
AcDbLine
 10
-23.72451330690908
 20
17.42500000000007
 30
0.0
 11
-23.72451330690924
 21
6.924999999999933
 31
0.0
  0
LINE
  5
D8E
330
17
100
AcDbEntity
  8
0
  6
Continuous
100
AcDbLine
 10
-23.53701330690929
 20
6.924999999999905
 30
0.0
 11
-23.89701330690924
 21
6.924999999999933
 31
0.0
  0
LINE
  5
D94
330
17
100
AcDbEntity
  8
0
  6
Continuous
100
AcDbLine
 10
-23.89701330690908
 20
17.4250000000001
 30
0.0
 11
-18.28701330690952
 21
17.42500000000008
 31
0.0
  0
LINE
  5
11B9
330
17
100
AcDbEntity
  8
0
 62
     7
100
AcDbLine
 10
3.205749999999959
 20
-0.0000000000000355
 30
0.0
 11
-3.205749999999959
 21
0.0000000000000355
 31
0.0
  0
LINE
  5
11BA
330
17
100
AcDbEntity
  8
0
 62
     7
100
AcDbLine
 10
3.205749999999959
 20
0.1749999999999758
 30
0.0
 11
-3.205749999999959
 21
0.1750000000000256
 31
0.0
  0
LINE
  5
11BC
330
17
100
AcDbEntity
  8
0
 62
     7
100
AcDbLine
 10
-3.643749999999891
 20
17.42500000000008
 30
0.0
 11
-3.643750000000118
 21
0.3500000000000298
 31
0.0
  0
LINE
  5
11BD
330
17
100
AcDbEntity
  8
0
 62
     7
100
AcDbLine
 10
-3.468749999999965
 20
0.4380000000000237
 30
0.0
 11
-3.468749999999908
 21
17.42500000000009
 31
0.0
  0
ARC
  5
11BE
330
17
100
AcDbEntity
  8
0
 62
     7
100
AcDbCircle
 10
-3.205749999999959
 20
0.4380000000000237
 30
0.0
 40
0.4380000000001535
100
AcDbArc
 50
179.9999999999996
 51
270.0
  0
ARC
  5
11BF
330
17
100
AcDbEntity
  8
0
 62
     7
100
AcDbCircle
 10
-3.205749999999959
 20
0.4380000000000237
 30
0.0
 40
0.263
100
AcDbArc
 50
180.0
 51
270.0
  0
LINE
  5
11C1
330
17
100
AcDbEntity
  8
0
 62
     7
100
AcDbLine
 10
-8.3937053026849
 20
17.42500000000008
 30
0.0
 11
-8.393705302684928
 21
6.924999999999933
 31
0.0
  0
LINE
  5
11C3
330
17
100
AcDbEntity
  8
0
  6
Continuous
100
AcDbLine
 10
-8.393705302684928
 20
6.924999999999933
 30
0.0
 11
-3.643750000000022
 21
6.924999999999933
 31
0.0
  0
LINE
  5
11D2
330
17
100
AcDbEntity
  8
0
 62
     7
100
AcDbLine
 10
-3.468749999999908
 20
17.42500000000003
 30
0.0
 11
-8.3937053026849
 21
17.42500000000008
 31
0.0
  0
LINE
  5
11DA
330
17
100
AcDbEntity
  8
0
 62
     7
100
AcDbLine
 10
3.468749999999965
 20
0.4379999999999669
 30
0.0
 11
3.468750000000036
 21
17.42500000000009
 31
0.0
  0
LINE
  5
11DB
330
17
100
AcDbEntity
  8
0
 62
     7
100
AcDbLine
 10
3.643750000000047
 20
17.42500000000008
 30
0.0
 11
3.643750000000146
 21
0.4379999999999669
 31
0.0
  0
ARC
  5
11E1
330
17
100
AcDbEntity
  8
0
 62
     7
100
AcDbCircle
 10
3.205749999999959
 20
0.4379999999999669
 30
0.0
 40
0.4380000000001535
100
AcDbArc
 50
270.0
 51
0.0
  0
ARC
  5
11E2
330
17
100
AcDbEntity
  8
0
 62
     7
100
AcDbCircle
 10
3.205749999999959
 20
0.4379999999999669
 30
0.0
 40
0.263
100
AcDbArc
 50
270.0
 51
0.0
  0
LINE
  5
11EB
330
17
100
AcDbEntity
  8
0
 62
     7
100
AcDbLine
 10
8.393705302685053
 20
17.42500000000008
 30
0.0
 11
8.39370530268511
 21
6.925000000000075
 31
0.0
  0
LINE
  5
11EC
330
17
100
AcDbEntity
  8
0
 62
     7
100
AcDbLine
 10
3.643750000000104
 20
6.925000000000033
 30
0.0
 11
8.39370530268511
 21
6.925000000000075
 31
0.0
  0
LINE
  5
11F8
330
17
100
AcDbEntity
  8
0
 62
     7
100
AcDbLine
 10
3.468750000000036
 20
17.42500000000003
 30
0.0
 11
8.393705302685053
 21
17.42500000000008
 31
0.0
  0
CIRCLE
  5
147B
330
17
100
AcDbEntity
  8
0
100
AcDbCircle
 10
-7.6437053026849
 20
11.05000000000005
 30
0.0
 40
0.1405
  0
CIRCLE
  5
147C
330
17
100
AcDbEntity
  8
0
100
AcDbCircle
 10
-4.643705302684928
 20
11.05000000000005
 30
0.0
 40
0.1405
  0
CIRCLE
  5
147D
330
17
100
AcDbEntity
  8
0
100
AcDbCircle
 10
-6.143705302684928
 20
10.42500000000002
 30
0.0
 40
0.1405
  0
CIRCLE
  5
147E
330
17
100
AcDbEntity
  8
0
100
AcDbCircle
 10
-6.893705302684957
 20
9.800000000000075
 30
0.0
 40
0.1405
  0
CIRCLE
  5
1480
330
17
100
AcDbEntity
  8
0
100
AcDbCircle
 10
-5.393705302684928
 20
9.175000000000047
 30
0.0
 40
0.1405
  0
CIRCLE
  5
1481
330
17
100
AcDbEntity
  8
0
100
AcDbCircle
 10
-7.6437053026849
 20
8.550000000000047
 30
0.0
 40
0.1405
  0
CIRCLE
  5
1482
330
17
100
AcDbEntity
  8
0
100
AcDbCircle
 10
-6.143705302684928
 20
7.925000000000075
 30
0.0
 40
0.1405
  0
CIRCLE
  5
1483
330
17
100
AcDbEntity
  8
0
100
AcDbCircle
 10
-4.643705302684928
 20
8.550000000000047
 30
0.0
 40
0.1405
  0
CIRCLE
  5
1484
330
17
100
AcDbEntity
  8
0
100
AcDbCircle
 10
-5.393705302684928
 20
11.67500000000005
 30
0.0
 40
0.1405
  0
CIRCLE
  5
1485
330
17
100
AcDbEntity
  8
0
100
AcDbCircle
 10
-6.893705302684957
 20
12.30000000000002
 30
0.0
 40
0.1405
  0
CIRCLE
  5
1486
330
17
100
AcDbEntity
  8
0
100
AcDbCircle
 10
-6.143705302684957
 20
12.92500000000005
 30
0.0
 40
0.1405
  0
CIRCLE
  5
1487
330
17
100
AcDbEntity
  8
0
100
AcDbCircle
 10
-7.643705302684928
 20
13.55000000000008
 30
0.0
 40
0.1405
  0
CIRCLE
  5
1488
330
17
100
AcDbEntity
  8
0
100
AcDbCircle
 10
-4.643705302684928
 20
13.55000000000008
 30
0.0
 40
0.1405
  0
CIRCLE
  5
1489
330
17
100
AcDbEntity
  8
0
100
AcDbCircle
 10
-5.393705302684872
 20
14.17500000000008
 30
0.0
 40
0.1405
  0
CIRCLE
  5
148A
330
17
100
AcDbEntity
  8
0
100
AcDbCircle
 10
-6.893705302684843
 20
14.80000000000002
 30
0.0
 40
0.1405
  0
CIRCLE
  5
148B
330
17
100
AcDbEntity
  8
0
100
AcDbCircle
 10
-7.643705302684957
 20
16.05000000000002
 30
0.0
 40
0.1405
  0
CIRCLE
  5
148C
330
17
100
AcDbEntity
  8
0
100
AcDbCircle
 10
-6.143705302684928
 20
15.42499999999996
 30
0.0
 40
0.1405
  0
CIRCLE
  5
148D
330
17
100
AcDbEntity
  8
0
100
AcDbCircle
 10
-4.643705302684928
 20
16.05000000000005
 30
0.0
 40
0.1405
  0
CIRCLE
  5
148F
330
17
100
AcDbEntity
  8
0
100
AcDbCircle
 10
7.643705302684897
 20
8.550000000000047
 30
0.0
 40
0.1405
  0
CIRCLE
  5
1490
330
17
100
AcDbEntity
  8
0
100
AcDbCircle
 10
6.893705302684953
 20
9.800000000000075
 30
0.0
 40
0.1405
  0
CIRCLE
  5
1491
330
17
100
AcDbEntity
  8
0
100
AcDbCircle
 10
4.643705302684928
 20
8.550000000000047
 30
0.0
 40
0.1405
  0
CIRCLE
  5
1492
330
17
100
AcDbEntity
  8
0
100
AcDbCircle
 10
6.143705302684928
 20
7.925000000000075
 30
0.0
 40
0.1405
  0
CIRCLE
  5
1493
330
17
100
AcDbEntity
  8
0
100
AcDbCircle
 10
5.393705302684928
 20
9.175000000000047
 30
0.0
 40
0.1405
  0
CIRCLE
  5
1494
330
17
100
AcDbEntity
  8
0
100
AcDbCircle
 10
7.643705302684897
 20
11.05000000000005
 30
0.0
 40
0.1405
  0
CIRCLE
  5
1495
330
17
100
AcDbEntity
  8
0
100
AcDbCircle
 10
6.893705302684953
 20
12.30000000000002
 30
0.0
 40
0.1405
  0
CIRCLE
  5
1496
330
17
100
AcDbEntity
  8
0
100
AcDbCircle
 10
6.89370530268484
 20
14.80000000000002
 30
0.0
 40
0.1405
  0
CIRCLE
  5
1497
330
17
100
AcDbEntity
  8
0
100
AcDbCircle
 10
7.643705302684925
 20
13.55000000000008
 30
0.0
 40
0.1405
  0
CIRCLE
  5
1498
330
17
100
AcDbEntity
  8
0
100
AcDbCircle
 10
7.643705302684953
 20
16.05000000000002
 30
0.0
 40
0.1405
  0
CIRCLE
  5
1499
330
17
100
AcDbEntity
  8
0
100
AcDbCircle
 10
5.393705302684928
 20
11.67500000000005
 30
0.0
 40
0.1405
  0
CIRCLE
  5
149A
330
17
100
AcDbEntity
  8
0
100
AcDbCircle
 10
6.143705302684928
 20
10.42500000000002
 30
0.0
 40
0.1405
  0
CIRCLE
  5
149B
330
17
100
AcDbEntity
  8
0
100
AcDbCircle
 10
4.643705302684928
 20
11.05000000000005
 30
0.0
 40
0.1405
  0
CIRCLE
  5
149C
330
17
100
AcDbEntity
  8
0
100
AcDbCircle
 10
6.143705302684957
 20
12.92500000000005
 30
0.0
 40
0.1405
  0
CIRCLE
  5
149D
330
17
100
AcDbEntity
  8
0
100
AcDbCircle
 10
5.393705302684872
 20
14.17500000000008
 30
0.0
 40
0.1405
  0
CIRCLE
  5
149E
330
17
100
AcDbEntity
  8
0
100
AcDbCircle
 10
4.643705302684928
 20
13.55000000000008
 30
0.0
 40
0.1405
  0
CIRCLE
  5
149F
330
17
100
AcDbEntity
  8
0
100
AcDbCircle
 10
6.143705302684928
 20
15.42499999999996
 30
0.0
 40
0.1405
  0
CIRCLE
  5
14A0
330
17
100
AcDbEntity
  8
0
100
AcDbCircle
 10
4.643705302684928
 20
16.05000000000005
 30
0.0
 40
0.1405
  0
CIRCLE
  5
14A1
330
17
100
AcDbEntity
  8
0
100
AcDbCircle
 10
17.97282340149932
 20
1.264999999999787
 30
0.0
 40
0.1405
  0
CIRCLE
  5
14A5
330
17
100
AcDbEntity
  8
0
100
AcDbCircle
 10
17.97282340149931
 20
9.26499999999978
 30
0.0
 40
0.1405
  0
CIRCLE
  5
14A6
330
17
100
AcDbEntity
  8
0
100
AcDbCircle
 10
20.97282340149925
 20
9.26499999999978
 30
0.0
 40
0.1405
  0
CIRCLE
  5
14A7
330
17
100
AcDbEntity
  8
0
100
AcDbCircle
 10
19.47282340149925
 20
8.264999999999752
 30
0.0
 40
0.1405
  0
CIRCLE
  5
14A8
330
17
100
AcDbEntity
  8
0
100
AcDbCircle
 10
18.72282340149925
 20
7.264999999999809
 30
0.0
 40
0.1405
  0
CIRCLE
  5
14A9
330
17
100
AcDbEntity
  8
0
100
AcDbCircle
 10
20.97282340149925
 20
5.26499999999978
 30
0.0
 40
0.1405
  0
CIRCLE
  5
14AA
330
17
100
AcDbEntity
  8
0
100
AcDbCircle
 10
20.22282340149926
 20
6.26499999999978
 30
0.0
 40
0.1405
  0
CIRCLE
  5
14AB
330
17
100
AcDbEntity
  8
0
100
AcDbCircle
 10
17.97282340149932
 20
5.26499999999978
 30
0.0
 40
0.1405
  0
CIRCLE
  5
14AC
330
17
100
AcDbEntity
  8
0
100
AcDbCircle
 10
19.47282340149926
 20
4.264999999999809
 30
0.0
 40
0.1405
  0
CIRCLE
  5
14AD
330
17
100
AcDbEntity
  8
0
100
AcDbCircle
 10
18.72282340149926
 20
3.264999999999809
 30
0.0
 40
0.1405
  0
CIRCLE
  5
14AE
330
17
100
AcDbEntity
  8
0
100
AcDbCircle
 10
20.97282340149925
 20
1.264999999999787
 30
0.0
 40
0.1405
  0
CIRCLE
  5
14AF
330
17
100
AcDbEntity
  8
0
100
AcDbCircle
 10
20.22282340149926
 20
2.26499999999978
 30
0.0
 40
0.1405
  0
CIRCLE
  5
14B2
330
17
100
AcDbEntity
  8
0
100
AcDbCircle
 10
-20.0370133069092
 20
10.2649999999998
 30
0.0
 40
0.1405
  0
CIRCLE
  5
14B4
330
17
100
AcDbEntity
  8
0
100
AcDbCircle
 10
-20.7870133069092
 20
9.26499999999978
 30
0.0
 40
0.1405
  0
CIRCLE
  5
14B5
330
17
100
AcDbEntity
  8
0
100
AcDbCircle
 10
-19.2870133069092
 20
8.264999999999766
 30
0.0
 40
0.1405
  0
CIRCLE
  5
14B6
330
17
100
AcDbEntity
  8
0
100
AcDbCircle
 10
-21.7870133069092
 20
8.264999999999752
 30
0.0
 40
0.1405
  0
CIRCLE
  5
14B7
330
17
100
AcDbEntity
  8
0
100
AcDbCircle
 10
-21.0370133069092
 20
7.264999999999809
 30
0.0
 40
0.1405
  0
CIRCLE
  5
14B8
330
17
100
AcDbEntity
  8
0
100
AcDbCircle
 10
-20.0370133069092
 20
6.264999999999795
 30
0.0
 40
0.1405
  0
CIRCLE
  5
14B9
330
17
100
AcDbEntity
  8
0
100
AcDbCircle
 10
-20.78701330690918
 20
5.26499999999978
 30
0.0
 40
0.1405
  0
CIRCLE
  5
14BA
330
17
100
AcDbEntity
  8
0
100
AcDbCircle
 10
-21.78701330690919
 20
4.264999999999809
 30
0.0
 40
0.1405
  0
CIRCLE
  5
14BB
330
17
100
AcDbEntity
  8
0
100
AcDbCircle
 10
-21.03701330690919
 20
3.264999999999809
 30
0.0
 40
0.1405
  0
CIRCLE
  5
14BC
330
17
100
AcDbEntity
  8
0
100
AcDbCircle
 10
-19.28701330690919
 20
4.264999999999809
 30
0.0
 40
0.1405
  0
CIRCLE
  5
14BD
330
17
100
AcDbEntity
  8
0
100
AcDbCircle
 10
-20.03701330690919
 20
2.26499999999978
 30
0.0
 40
0.1405
  0
CIRCLE
  5
14BE
330
17
100
AcDbEntity
  8
0
100
AcDbCircle
 10
-20.78701330690918
 20
1.26499999999978
 30
0.0
 40
0.1405
  0
ENDSEC
  0
SECTION
  2
OBJECTS
  0
DICTIONARY
  5
C
330
0
100
AcDbDictionary
281
     1
  3
ACAD_COLOR
350
14DA
  3
ACAD_GROUP
350
D
  3
ACAD_LAYOUT
350
875
  3
ACAD_MATERIAL
350
14D9
  3
ACAD_MLINESTYLE
350
1A
  3
ACAD_PLOTSETTINGS
350
876
  3
ACAD_PLOTSTYLENAME
350
873
  3
ACAD_TABLESTYLE
350
14DB
  3
ACDBHEADERROUNDTRIPXREC
350
14F3
  3
ACDBVARIABLEDICTIONARY
350
4A
  0
DICTIONARY
  5
14DA
102
{ACAD_REACTORS
330
C
102
}
330
C
100
AcDbDictionary
281
     1
  0
DICTIONARY
  5
D
102
{ACAD_REACTORS
330
C
102
}
330
C
100
AcDbDictionary
281
     1
  0
DICTIONARY
  5
875
102
{ACAD_REACTORS
330
C
102
}
330
C
100
AcDbDictionary
281
     1
  3
Layout1
350
878
  3
Model
350
877
  0
DICTIONARY
  5
14D9
102
{ACAD_REACTORS
330
C
102
}
330
C
100
AcDbDictionary
281
     1
  0
DICTIONARY
  5
1A
102
{ACAD_REACTORS
330
C
102
}
330
C
100
AcDbDictionary
281
     1
  3
STANDARD
350
1B
  0
DICTIONARY
  5
876
102
{ACAD_REACTORS
330
C
102
}
330
C
100
AcDbDictionary
281
     1
  0
ACDBDICTIONARYWDFLT
  5
873
102
{ACAD_REACTORS
330
C
102
}
330
C
100
AcDbDictionary
281
     1
  3
Normal
350
874
100
AcDbDictionaryWithDefault
340
874
  0
DICTIONARY
  5
14DB
102
{ACAD_REACTORS
330
C
102
}
330
C
100
AcDbDictionary
281
     1
  3
Standard
350
14DC
  0
DICTIONARY
  5
14F3
102
{ACAD_REACTORS
330
C
102
}
330
C
100
AcDbDictionary
281
     1
  3
COLORDICT
350
14F4
  3
MATERIALDICT
350
14F5
  0
DICTIONARY
  5
4A
102
{ACAD_REACTORS
330
C
102
}
330
C
100
AcDbDictionary
281
     1
  3
CTABLESTYLE
350
14EF
  3
DIMADEC
350
4B
  0
LAYOUT
  5
878
102
{ACAD_REACTORS
330
875
102
}
102
{ACAD_XDICTIONARY
360
14F6
102
}
330
875
100
AcDbPlotSettings
  1

  2
C:\ACAD2000\plotters\HP LaserJet 2100 Series PS.pc3
  4

  6

 40
0.0
 41
0.0
 42
0.0
 43
0.0
 44
0.0
 45
0.0
 46
0.0
 47
0.0
 48
0.0
 49
0.0
140
0.0
141
0.0
142
1.0
143
1.0
 70
   688
 72
     0
 73
     0
 74
     5
  7

 75
    16
147
1.0
148
0.0
149
0.0
100
AcDbLayout
  1
Layout1
 70
     0
 71
     1
 10
0.0
 20
0.0
 11
12.0
 21
9.0
 12
0.0
 22
0.0
 32
0.0
 14
1.000000000000000E+20
 24
1.000000000000000E+20
 34
1.000000000000000E+20
 15
-1.000000000000000E+20
 25
-1.000000000000000E+20
 35
-1.000000000000000E+20
146
0.0
 13
0.0
 23
0.0
 33
0.0
 16
1.0
 26
0.0
 36
0.0
 17
0.0
 27
1.0
 37
0.0
 76
     0
330
14
  0
LAYOUT
  5
877
102
{ACAD_REACTORS
330
875
102
}
102
{ACAD_XDICTIONARY
360
14F8
102
}
330
875
100
AcDbPlotSettings
  1

  2
HP LaserJet 2100 Series PS
  4
Letter
  6

 40
5.365749835968018
 41
5.408073902130127
 42
5.132904052734375
 43
5.090576171875
 44
215.8999938964844
 45
279.3999938964844
 46
0.0
 47
0.0
 48
0.0
 49
0.0
140
0.0
141
0.0
142
1.0
143
6.492167967110039
 70
 28336
 72
     0
 73
     0
 74
     2
  7

 75
     0
147
0.1540317510369569
148
0.0
149
0.0
100
AcDbLayout
  1
Model
 70
     1
 71
     0
 10
0.0
 20
0.0
 11
12.0
 21
9.0
 12
0.0
 22
0.0
 32
0.0
 14
0.0
 24
0.0
 34
0.0
 15
0.0
 25
0.0
 35
0.0
146
0.0
 13
0.0
 23
0.0
 33
0.0
 16
1.0
 26
0.0
 36
0.0
 17
0.0
 27
1.0
 37
0.0
 76
     0
330
17
  0
MLINESTYLE
  5
1B
102
{ACAD_REACTORS
330
1A
102
}
330
1A
100
AcDbMlineStyle
  2
STANDARD
 70
     0
  3

 62
   256
 51
90.0
 52
90.0
 71
     2
 49
0.5
 62
   256
  6
BYLAYER
 49
-0.5
 62
   256
  6
BYLAYER
  0
ACDBPLACEHOLDER
  5
874
102
{ACAD_REACTORS
330
873
102
}
330
873
  0
ACAD_PROXY_OBJECT
  5
14DC
102
{ACAD_REACTORS
330
14DB
102
}
330
14DB
100
AcDbProxyObject
 90
      499
 91
      509
 95
   983063
 70
     0
 93
     1841
310
4214DD185B99185C9928B81E85EB51B8AE3F2E07A17AD46E2B8FC02B5E8DC0F42B1CFD028000000C1008070000C3001FDFF8000000C1003FBFF000000182007F7FE00000030400FEFFC00000060801FDFF8000000C1003FBFF00000018200000000000000681FA0B0000001820100E000186003FBFF000000182007F7FE000
310
00030400FEFFC00000060801FDFF8000000C1003FBFF000000182007F7FE000000304000AD7A3703D0AC73F4160000003040201C00030C007F7FE00000030400FEFFC00000060801FDFF8000000C1003FBFF000000182007F7FE00000030400FEFFC000000608000
340
F
340
F
340
F
 94
        0
  0
XRECORD
  5
14F4
102
{ACAD_REACTORS
330
14F3
102
}
330
14F3
100
AcDbXrecord
340
14DA
  0
XRECORD
  5
14F5
102
{ACAD_REACTORS
330
14F3
102
}
330
14F3
100
AcDbXrecord
340
14D9
  0
DICTIONARYVAR
  5
14EF
102
{ACAD_REACTORS
330
4A
102
}
330
4A
100
DictionaryVariables
280
     0
  1
STANDARD
  0
DICTIONARYVAR
  5
4B
102
{ACAD_REACTORS
330
4A
102
}
330
4A
100
DictionaryVariables
280
     0
  1
0
  0
DICTIONARY
  5
14F6
330
878
100
AcDbDictionary
280
     1
281
     1
  3
ACAD_XREC_ROUNDTRIP
360
14F7
  0
DICTIONARY
  5
14F8
330
877
100
AcDbDictionary
280
     1
281
     1
  3
ACAD_XREC_ROUNDTRIP
360
14F9
  0
XRECORD
  5
14F7
102
{ACAD_REACTORS
330
14F6
102
}
330
14F6
100
AcDbXrecord
102
SHADEPLOT
 70
     0
102
SHADEPLOTRESLEVEL
 70
     2
102
SHADEPLOTCUSTOMDPI
 70
   300
  0
XRECORD
  5
14F9
102
{ACAD_REACTORS
330
14F8
102
}
330
14F8
100
AcDbXrecord
102
SHADEPLOT
 70
     0
102
SHADEPLOTRESLEVEL
 70
     2
102
SHADEPLOTCUSTOMDPI
 70
   300
  0
ENDSEC
  0
EOF
