  0
SECTION
  2
HEADER
  9
$ACADVER
  1
AC1015
  9
$ACADMAINTVER
 70
     6
  9
$DWGCODEPAGE
  3
ANSI_1252
  9
$INSBASE
 10
0.0
 20
0.0
 30
0.0
  9
$EXTMIN
 10
-23.89701330690924
 20
-0.0907127701599262
 30
0.0
  9
$EXTMAX
 10
22.8328234014993
 20
17.4250000000001
 30
0.0
  9
$LIMMIN
 10
0.0
 20
0.0
  9
$LIMMAX
 10
52.5
 20
40.0
  9
$ORTHOMODE
 70
     1
  9
$REGENMODE
 70
     1
  9
$FILLMODE
 70
     1
  9
$QTEXTMODE
 70
     0
  9
$MIRRTEXT
 70
     0
  9
$LTSCALE
 40
1.0
  9
$ATTMODE
 70
     1
  9
$TEXTSIZE
 40
0.45
  9
$TRACEWID
 40
0.05
  9
$TEXTSTYLE
  7
STANDARD
  9
$CLAYER
  8
0
  9
$CELTYPE
  6
BYLAYER
  9
$CECOLOR
 62
   256
  9
$CELTSCALE
 40
1.0
  9
$DISPSILH
 70
     0
  9
$DIMSCALE
 40
5.0
  9
$DIMASZ
 40
0.125
  9
$DIMEXO
 40
0.062
  9
$DIMDLI
 40
0.375
  9
$DIMRND
 40
0.0
  9
$DIMDLE
 40
0.0
  9
$DIMEXE
 40
0.08
  9
$DIMTP
 40
0.0
  9
$DIMTM
 40
0.0
  9
$DIMTXT
 40
0.09
  9
$DIMCEN
 40
-0.06
  9
$DIMTSZ
 40
0.0
  9
$DIMTOL
 70
     0
  9
$DIMLIM
 70
     0
  9
$DIMTIH
 70
     1
  9
$DIMTOH
 70
     1
  9
$DIMSE1
 70
     0
  9
$DIMSE2
 70
     0
  9
$DIMTAD
 70
     0
  9
$DIMZIN
 70
     0
  9
$DIMBLK
  1

  9
$DIMASO
 70
     0
  9
$DIMSHO
 70
     0
  9
$DIMPOST
  1

  9
$DIMAPOST
  1

  9
$DIMALT
 70
     0
  9
$DIMALTD
 70
     2
  9
$DIMALTF
 40
25.4
  9
$DIMLFAC
 40
1.0
  9
$DIMTOFL
 70
     0
  9
$DIMTVP
 40
0.0
  9
$DIMTIX
 70
     0
  9
$DIMSOXD
 70
     0
  9
$DIMSAH
 70
     0
  9
$DIMBLK1
  1

  9
$DIMBLK2
  1

  9
$DIMSTYLE
  2
STANDARD
  9
$DIMCLRD
 70
     0
  9
$DIMCLRE
 70
     0
  9
$DIMCLRT
 70
     0
  9
$DIMTFAC
 40
1.0
  9
$DIMGAP
 40
0.09375
  9
$DIMJUST
 70
     0
  9
$DIMSD1
 70
     0
  9
$DIMSD2
 70
     0
  9
$DIMTOLJ
 70
     1
  9
$DIMTZIN
 70
     0
  9
$DIMALTZ
 70
     0
  9
$DIMALTTZ
 70
     0
  9
$DIMUPT
 70
     0
  9
$DIMDEC
 70
     5
  9
$DIMTDEC
 70
     5
  9
$DIMALTU
 70
     5
  9
$DIMALTTD
 70
     2
  9
$DIMTXSTY
  7
STANDARD
  9
$DIMAUNIT
 70
     0
  9
$DIMADEC
 70
     0
  9
$DIMALTRND
 40
0.0
  9
$DIMAZIN
 70
     0
  9
$DIMDSEP
 70
    46
  9
$DIMATFIT
 70
     3
  9
$DIMFRAC
 70
     2
  9
$DIMLDRBLK
  1

  9
$DIMLUNIT
 70
     5
  9
$DIMLWD
 70
    -2
  9
$DIMLWE
 70
    -2
  9
$DIMTMOVE
 70
     2
  9
$LUNITS
 70
     5
  9
$LUPREC
 70
     5
  9
$SKETCHINC
 40
0.1
  9
$FILLETRAD
 40
0.0
  9
$AUNITS
 70
     0
  9
$AUPREC
 70
     0
  9
$MENU
  1
qa
  9
$ELEVATION
 40
0.0
  9
$PELEVATION
 40
0.0
  9
$THICKNESS
 40
0.0
  9
$LIMCHECK
 70
     0
  9
$CHAMFERA
 40
0.0
  9
$CHAMFERB
 40
0.0
  9
$CHAMFERC
 40
0.0
  9
$CHAMFERD
 40
0.0
  9
$SKPOLY
 70
     0
  9
$TDCREATE
 40
2450575.69274919
  9
$TDUCREATE
 40
2450576.026082523
  9
$TDUPDATE
 40
2454175.927025602
  9
$TDUUPDATE
 40
2454176.260358935
  9
$TDINDWG
 40
0.4898868056
  9
$TDUSRTIMER
 40
0.4898868056
  9
$USRTIMER
 70
     1
  9
$ANGBASE
 50
0.0
  9
$ANGDIR
 70
     0
  9
$PDMODE
 70
     0
  9
$PDSIZE
 40
0.0
  9
$PLINEWID
 40
0.0
  9
$SPLFRAME
 70
     0
  9
$SPLINETYPE
 70
     6
  9
$SPLINESEGS
 70
     8
  9
$HANDSEED
  5
1974
  9
$SURFTAB1
 70
     6
  9
$SURFTAB2
 70
     6
  9
$SURFTYPE
 70
     6
  9
$SURFU
 70
     6
  9
$SURFV
 70
     6
  9
$UCSBASE
  2

  9
$UCSNAME
  2

  9
$UCSORG
 10
0.0
 20
0.0
 30
0.0
  9
$UCSXDIR
 10
1.0
 20
0.0
 30
0.0
  9
$UCSYDIR
 10
0.0
 20
1.0
 30
0.0
  9
$UCSORTHOREF
  2

  9
$UCSORTHOVIEW
 70
     0
  9
$UCSORGTOP
 10
0.0
 20
0.0
 30
0.0
  9
$UCSORGBOTTOM
 10
0.0
 20
0.0
 30
0.0
  9
$UCSORGLEFT
 10
0.0
 20
0.0
 30
0.0
  9
$UCSORGRIGHT
 10
0.0
 20
0.0
 30
0.0
  9
$UCSORGFRONT
 10
0.0
 20
0.0
 30
0.0
  9
$UCSORGBACK
 10
0.0
 20
0.0
 30
0.0
  9
$PUCSBASE
  2

  9
$PUCSNAME
  2

  9
$PUCSORG
 10
0.0
 20
0.0
 30
0.0
  9
$PUCSXDIR
 10
1.0
 20
0.0
 30
0.0
  9
$PUCSYDIR
 10
0.0
 20
1.0
 30
0.0
  9
$PUCSORTHOREF
  2

  9
$PUCSORTHOVIEW
 70
     0
  9
$PUCSORGTOP
 10
0.0
 20
0.0
 30
0.0
  9
$PUCSORGBOTTOM
 10
0.0
 20
0.0
 30
0.0
  9
$PUCSORGLEFT
 10
0.0
 20
0.0
 30
0.0
  9
$PUCSORGRIGHT
 10
0.0
 20
0.0
 30
0.0
  9
$PUCSORGFRONT
 10
0.0
 20
0.0
 30
0.0
  9
$PUCSORGBACK
 10
0.0
 20
0.0
 30
0.0
  9
$USERI1
 70
     0
  9
$USERI2
 70
     0
  9
$USERI3
 70
     0
  9
$USERI4
 70
     0
  9
$USERI5
 70
     0
  9
$USERR1
 40
0.0
  9
$USERR2
 40
0.0
  9
$USERR3
 40
0.0
  9
$USERR4
 40
0.0
  9
$USERR5
 40
0.0
  9
$WORLDVIEW
 70
     1
  9
$SHADEDGE
 70
     3
  9
$SHADEDIF
 70
    70
  9
$TILEMODE
 70
     1
  9
$MAXACTVP
 70
    16
  9
$PINSBASE
 10
0.0
 20
0.0
 30
0.0
  9
$PLIMCHECK
 70
     0
  9
$PEXTMIN
 10
1.000000000000000E+20
 20
1.000000000000000E+20
 30
1.000000000000000E+20
  9
$PEXTMAX
 10
-1.000000000000000E+20
 20
-1.000000000000000E+20
 30
-1.000000000000000E+20
  9
$PLIMMIN
 10
0.0
 20
0.0
  9
$PLIMMAX
 10
12.0
 20
9.0
  9
$UNITMODE
 70
     0
  9
$VISRETAIN
 70
     0
  9
$PLINEGEN
 70
     0
  9
$PSLTSCALE
 70
     0
  9
$TREEDEPTH
 70
  3020
  9
$CMLSTYLE
  2
STANDARD
  9
$CMLJUST
 70
     0
  9
$CMLSCALE
 40
1.0
  9
$PROXYGRAPHICS
 70
     1
  9
$MEASUREMENT
 70
     0
  9
$CELWEIGHT
370
    -1
  9
$ENDCAPS
280
     0
  9
$JOINSTYLE
280
     0
  9
$LWDISPLAY
290
     0
  9
$INSUNITS
 70
     0
  9
$HYPERLINKBASE
  1

  9
$STYLESHEET
  1

  9
$XEDIT
290
     1
  9
$CEPSNTYPE
380
     0
  9
$PSTYLEMODE
290
     1
  9
$FINGERPRINTGUID
  2
{2988C309-482F-4F84-9C51-487784A65633}
  9
$VERSIONGUID
  2
{AEE0F8CE-86B0-4ABE-A835-821F46CAE483}
  9
$EXTNAMES
290
     1
  9
$PSVPSCALE
 40
0.0
  9
$OLESTARTUP
290
     0
  0
ENDSEC
  0
SECTION
  2
CLASSES
  0
CLASS
  1
DICTIONARYVAR
  2
AcDbDictionaryVar
  3
AutoCAD 2000
 90
        0
280
     0
281
     0
  0
CLASS
  1
LWPOLYLINE
  2
AcDbPolyline
  3
AutoCAD 2000
 90
        0
280
     0
281
     1
  0
CLASS
  1
ACDBDICTIONARYWDFLT
  2
AcDbDictionaryWithDefault
  3
AutoCAD 2000
 90
        0
280
     0
281
     0
  0
CLASS
  1
ACDBPLACEHOLDER
  2
AcDbPlaceHolder
  3
ObjectDBX Classes
 90
        0
280
     0
281
     0
  0
CLASS
  1
LAYOUT
  2
AcDbLayout
  3
ObjectDBX Classes
 90
        0
280
     0
281
     0
  0
CLASS
  1
LONG_TRANSACTION
  2
AcDbLongTransaction
  3
ObjectDBX Classes
 90
   -65536
280
     1
281
     0
  0
CLASS
  1
LWPOLYLINE
  2
AcDbPolyline
  3
AutoCAD 2000
 90
        0
280
     0
281
     1
  0
CLASS
  1
HATCH
  2
AcDbHatch
  3
AutoCAD 2000
 90
        0
280
     0
281
     1
  0
CLASS
  1
XRECORD
  2
AcDbXrecord
  3
AutoCAD 2000
 90
        0
280
     0
281
     0
  0
CLASS
  1
TABLESTYLE
  2
AcDbTableStyle
  3
ObjectDBX Classes
 90
     2047
280
     1
281
     0
  0
ENDSEC
  0
SECTION
  2
TABLES
  0
TABLE
  2
VPORT
  5
8
330
0
100
AcDbSymbolTable
 70
     3
  0
VPORT
  5
1966
330
8
100
AcDbSymbolTableRecord
100
AcDbViewportTableRecord
  2
*Active
 70
     0
 10
0.0
 20
0.0
 11
1.0
 21
1.0
 12
1.836287062911765
 22
11.95231086265885
 13
0.0
 23
0.0
 14
0.063
 24
0.063
 15
0.25
 25
0.25
 16
0.0
 26
0.0
 36
1.0
 17
0.0
 27
0.0
 37
0.0
 40
36.31562765860292
 41
1.814583333333333
 42
50.0
 43
0.0
 44
0.0
 50
0.0
 51
0.0
 71
     0
 72
   100
 73
     1
 74
     0
 75
     0
 76
     0
 77
     0
 78
     0
281
     0
 65
     1
110
0.0
120
0.0
130
0.0
111
1.0
121
0.0
131
0.0
112
0.0
122
1.0
132
0.0
 79
     0
146
0.0
  0
ENDTAB
  0
TABLE
  2
LTYPE
  5
5
330
0
100
AcDbSymbolTable
 70
     2
  0
LTYPE
  5
11
330
5
100
AcDbSymbolTableRecord
100
AcDbLinetypeTableRecord
  2
BYBLOCK
 70
     0
  3

 72
    65
 73
     0
 40
0.0
  0
LTYPE
  5
12
330
5
100
AcDbSymbolTableRecord
100
AcDbLinetypeTableRecord
  2
BYLAYER
 70
     0
  3

 72
    65
 73
     0
 40
0.0
  0
LTYPE
  5
13
330
5
100
AcDbSymbolTableRecord
100
AcDbLinetypeTableRecord
  2
CONTINUOUS
 70
     0
  3
Solid line
 72
    65
 73
     0
 40
0.0
  0
LTYPE
  5
2D
330
5
100
AcDbSymbolTableRecord
100
AcDbLinetypeTableRecord
  2
HIDDEN
 70
     0
  3
_ _ _ _ _ _ _ _ _ _ _ _ _ _ _ _ _ _ _ _ _ _ _
 72
    65
 73
     2
 40
0.375
 49
0.25
 74
     0
 49
-0.125
 74
     0
  0
ENDTAB
  0
TABLE
  2
LAYER
  5
2
330
0
100
AcDbSymbolTable
 70
     1
  0
LAYER
  5
E
330
2
100
AcDbSymbolTableRecord
100
AcDbLayerTableRecord
  2
0
 70
     0
 62
     7
  6
CONTINUOUS
370
    -3
390
874
  0
ENDTAB
  0
TABLE
  2
STYLE
  5
3
330
0
100
AcDbSymbolTable
 70
     1
  0
STYLE
  5
F
330
3
100
AcDbSymbolTableRecord
100
AcDbTextStyleTableRecord
  2
STANDARD
 70
     0
 40
0.0
 41
1.0
 50
0.0
 71
     0
 42
0.45
  3
TXT
  4

  0
ENDTAB
  0
TABLE
  2
VIEW
  5
6
330
0
100
AcDbSymbolTable
 70
     0
  0
ENDTAB
  0
TABLE
  2
UCS
  5
7
330
0
100
AcDbSymbolTable
 70
     0
  0
ENDTAB
  0
TABLE
  2
APPID
  5
9
330
0
100
AcDbSymbolTable
 70
     2
  0
APPID
  5
10
330
9
100
AcDbSymbolTableRecord
100
AcDbRegAppTableRecord
  2
ACAD
 70
     0
  0
APPID
  5
15CD
330
9
100
AcDbSymbolTableRecord
100
AcDbRegAppTableRecord
  2
ACAD_PSEXT
 70
     0
  0
ENDTAB
  0
TABLE
  2
DIMSTYLE
  5
A
330
0
100
AcDbSymbolTable
 70
     1
100
AcDbDimStyleTable
  0
DIMSTYLE
105
45E
330
A
100
AcDbSymbolTableRecord
100
AcDbDimStyleTableRecord
  2
STANDARD
 70
     0
  3

  4

340
F
  0
ENDTAB
  0
TABLE
  2
BLOCK_RECORD
  5
1
330
0
100
AcDbSymbolTable
 70
     0
  0
BLOCK_RECORD
  5
17
330
1
100
AcDbSymbolTableRecord
100
AcDbBlockTableRecord
  2
*MODEL_SPACE
340
877
  0
BLOCK_RECORD
  5
14
330
1
100
AcDbSymbolTableRecord
100
AcDbBlockTableRecord
  2
*PAPER_SPACE
340
878
  0
ENDTAB
  0
ENDSEC
  0
SECTION
  2
BLOCKS
  0
BLOCK
  5
48
330
17
100
AcDbEntity
  8
0
100
AcDbBlockBegin
  2
*MODEL_SPACE
 70
     0
 10
0.0
 20
0.0
 30
0.0
  3
*MODEL_SPACE
  1

  4

  0
ENDBLK
  5
49
330
17
100
AcDbEntity
  8
0
100
AcDbBlockEnd
  0
BLOCK
  5
46
330
14
100
AcDbEntity
 67
     1
  8
0
100
AcDbBlockBegin
  2
*PAPER_SPACE
 70
     0
 10
0.0
 20
0.0
 30
0.0
  3
*PAPER_SPACE
  1

  4

  0
ENDBLK
  5
47
330
14
100
AcDbEntity
 67
     1
  8
0
100
AcDbBlockEnd
  0
ENDSEC
  0
SECTION
  2
ENTITIES
  0
LINE
  5
190B
330
17
100
AcDbEntity
  8
0
  6
Continuous
100
AcDbLine
 10
3.205749999999959
 20
0.1749999999999758
 30
0.0
 11
-3.205749999999959
 21
0.1750000000000256
 31
0.0
  0
LINE
  5
190C
330
17
100
AcDbEntity
  8
0
  6
Continuous
100
AcDbLine
 10
3.205749999999959
 20
-0.0000000000000355
 30
0.0
 11
-3.205749999999959
 21
0.0000000000000355
 31
0.0
  0
LINE
  5
190D
330
17
100
AcDbEntity
  8
0
  6
Continuous
100
AcDbLine
 10
-3.468749999999965
 20
0.4380000000000237
 30
0.0
 11
-3.468749999999908
 21
17.42500000000009
 31
0.0
  0
LINE
  5
190E
330
17
100
AcDbEntity
  8
0
  6
Continuous
100
AcDbLine
 10
-3.643749999999891
 20
17.42500000000008
 30
0.0
 11
-3.643750000000114
 21
0.4380000000000273
 31
0.0
  0
ARC
  5
1916
330
17
100
AcDbEntity
  8
0
  6
Continuous
100
AcDbCircle
 10
-3.205749999999959
 20
0.4380000000000237
 30
0.0
 40
0.4380000000001535
100
AcDbArc
 50
179.9999999999996
 51
270.0
  0
ARC
  5
1917
330
17
100
AcDbEntity
  8
0
  6
Continuous
100
AcDbCircle
 10
-3.205749999999959
 20
0.4380000000000237
 30
0.0
 40
0.263
100
AcDbArc
 50
180.0
 51
270.0
  0
LWPOLYLINE
  5
1925
330
17
100
AcDbEntity
  8
0
  6
Continuous
100
AcDbPolyline
 90
        6
 70
     1
 43
0.0
 10
-7.39370530268523
 20
16.20849364905418
 10
-7.01870530268523
 20
15.99198729810807
 10
-6.64370530268523
 20
16.20849364905418
 10
-6.64370530268523
 20
16.6415063509464
 10
-7.01870530268523
 20
16.85801270189251
 10
-7.39370530268523
 20
16.6415063509464
  0
LINE
  5
1926
330
17
100
AcDbEntity
  8
0
  6
Continuous
100
AcDbLine
 10
-8.3937053026849
 20
17.42500000000008
 30
0.0
 11
-8.393705302684928
 21
7.049999999999933
 31
0.0
  0
LWPOLYLINE
  5
1927
330
17
100
AcDbEntity
  8
0
  6
Continuous
100
AcDbPolyline
 90
        6
 70
     1
 43
0.0
 10
-7.76870530268523
 20
11.20849364905418
 10
-7.39370530268523
 20
10.99198729810807
 10
-7.01870530268523
 20
11.20849364905418
 10
-7.01870530268523
 20
11.6415063509464
 10
-7.39370530268523
 20
11.85801270189251
 10
-7.76870530268523
 20
11.6415063509464
  0
LINE
  5
1928
330
17
100
AcDbEntity
  8
0
  6
Continuous
100
AcDbLine
 10
-8.393705302684928
 20
7.049999999999933
 30
0.0
 11
-3.643750000000022
 21
7.049999999999933
 31
0.0
  0
LWPOLYLINE
  5
1929
330
17
100
AcDbEntity
  8
0
  6
Continuous
100
AcDbPolyline
 90
        6
 70
     1
 43
0.0
 10
-5.76870530268523
 20
8.708493649054176
 10
-5.39370530268523
 20
8.491987298108072
 10
-5.01870530268523
 20
8.708493649054176
 10
-5.01870530268523
 20
9.141506350946401
 10
-5.39370530268523
 20
9.358012701892505
 10
-5.76870530268523
 20
9.141506350946401
  0
LWPOLYLINE
  5
192A
330
17
100
AcDbEntity
  8
0
  6
Continuous
100
AcDbPolyline
 90
        6
 70
     1
 43
0.0
 10
-5.39370530268523
 20
13.70849364905418
 10
-5.01870530268523
 20
13.49198729810807
 10
-4.64370530268523
 20
13.70849364905418
 10
-4.64370530268523
 20
14.1415063509464
 10
-5.01870530268523
 20
14.35801270189251
 10
-5.39370530268523
 20
14.1415063509464
  0
LINE
  5
192B
330
17
100
AcDbEntity
  8
0
  6
Continuous
100
AcDbLine
 10
-3.468749999999908
 20
17.42500000000003
 30
0.0
 11
-8.3937053026849
 21
17.42500000000008
 31
0.0
  0
LINE
  5
192C
330
17
100
AcDbEntity
  8
0
  6
Continuous
100
AcDbLine
 10
3.643750000000047
 20
17.42500000000008
 30
0.0
 11
3.643750000000146
 21
0.4379999999999669
 31
0.0
  0
LINE
  5
192D
330
17
100
AcDbEntity
  8
0
  6
Continuous
100
AcDbLine
 10
3.468749999999965
 20
0.4379999999999669
 30
0.0
 11
3.468750000000036
 21
17.42500000000009
 31
0.0
  0
ARC
  5
1930
330
17
100
AcDbEntity
  8
0
  6
Continuous
100
AcDbCircle
 10
3.205749999999959
 20
0.4379999999999669
 30
0.0
 40
0.4380000000001535
100
AcDbArc
 50
270.0
 51
0.0
  0
ARC
  5
1931
330
17
100
AcDbEntity
  8
0
  6
Continuous
100
AcDbCircle
 10
3.205749999999959
 20
0.4379999999999669
 30
0.0
 40
0.263
100
AcDbArc
 50
270.0
 51
0.0
  0
LWPOLYLINE
  5
1938
330
17
100
AcDbEntity
  8
0
  6
Continuous
100
AcDbPolyline
 90
        6
 70
     1
 43
0.0
 10
6.643705302685252
 20
16.20849364905418
 10
7.018705302685252
 20
15.99198729810807
 10
7.393705302685252
 20
16.20849364905418
 10
7.393705302685252
 20
16.6415063509464
 10
7.018705302685252
 20
16.85801270189251
 10
6.643705302685252
 20
16.6415063509464
  0
LINE
  5
1939
330
17
100
AcDbEntity
  8
0
  6
Continuous
100
AcDbLine
 10
8.393705302685053
 20
17.42500000000008
 30
0.0
 11
8.39370530268511
 21
7.050000000000075
 31
0.0
  0
LINE
  5
193A
330
17
100
AcDbEntity
  8
0
  6
Continuous
100
AcDbLine
 10
3.643750000000104
 20
7.050000000000033
 30
0.0
 11
8.39370530268511
 21
7.050000000000075
 31
0.0
  0
LWPOLYLINE
  5
193B
330
17
100
AcDbEntity
  8
0
  6
Continuous
100
AcDbPolyline
 90
        6
 70
     1
 43
0.0
 10
5.018705302685252
 20
8.708493649054176
 10
5.393705302685252
 20
8.491987298108072
 10
5.768705302685252
 20
8.708493649054176
 10
5.768705302685252
 20
9.141506350946401
 10
5.393705302685252
 20
9.358012701892505
 10
5.018705302685252
 20
9.141506350946401
  0
LWPOLYLINE
  5
193C
330
17
100
AcDbEntity
  8
0
  6
Continuous
100
AcDbPolyline
 90
        6
 70
     1
 43
0.0
 10
7.018705302685252
 20
11.20849364905418
 10
7.393705302685252
 20
10.99198729810807
 10
7.768705302685252
 20
11.20849364905418
 10
7.768705302685252
 20
11.6415063509464
 10
7.393705302685252
 20
11.85801270189251
 10
7.018705302685252
 20
11.6415063509464
  0
LWPOLYLINE
  5
193D
330
17
100
AcDbEntity
  8
0
  6
Continuous
100
AcDbPolyline
 90
        6
 70
     1
 43
0.0
 10
4.643705302685252
 20
13.70849364905418
 10
5.018705302685252
 20
13.49198729810807
 10
5.393705302685252
 20
13.70849364905418
 10
5.393705302685252
 20
14.1415063509464
 10
5.018705302685252
 20
14.35801270189251
 10
4.643705302685252
 20
14.1415063509464
  0
LINE
  5
193E
330
17
100
AcDbEntity
  8
0
  6
Continuous
100
AcDbLine
 10
3.468750000000036
 20
17.42500000000003
 30
0.0
 11
8.393705302685053
 21
17.42500000000008
 31
0.0
  0
ENDSEC
  0
SECTION
  2
OBJECTS
  0
DICTIONARY
  5
C
330
0
100
AcDbDictionary
281
     1
  3
ACAD_COLOR
350
194F
  3
ACAD_GROUP
350
D
  3
ACAD_LAYOUT
350
875
  3
ACAD_MATERIAL
350
194E
  3
ACAD_MLINESTYLE
350
1A
  3
ACAD_PLOTSETTINGS
350
876
  3
ACAD_PLOTSTYLENAME
350
873
  3
ACAD_TABLESTYLE
350
1950
  3
ACDBHEADERROUNDTRIPXREC
350
196D
  3
ACDBVARIABLEDICTIONARY
350
4A
  0
DICTIONARY
  5
194F
102
{ACAD_REACTORS
330
C
102
}
330
C
100
AcDbDictionary
281
     1
  0
DICTIONARY
  5
D
102
{ACAD_REACTORS
330
C
102
}
330
C
100
AcDbDictionary
281
     1
  0
DICTIONARY
  5
875
102
{ACAD_REACTORS
330
C
102
}
330
C
100
AcDbDictionary
281
     1
  3
Layout1
350
878
  3
Model
350
877
  0
DICTIONARY
  5
194E
102
{ACAD_REACTORS
330
C
102
}
330
C
100
AcDbDictionary
281
     1
  0
DICTIONARY
  5
1A
102
{ACAD_REACTORS
330
C
102
}
330
C
100
AcDbDictionary
281
     1
  3
STANDARD
350
1B
  0
DICTIONARY
  5
876
102
{ACAD_REACTORS
330
C
102
}
330
C
100
AcDbDictionary
281
     1
  0
ACDBDICTIONARYWDFLT
  5
873
102
{ACAD_REACTORS
330
C
102
}
330
C
100
AcDbDictionary
281
     1
  3
Normal
350
874
100
AcDbDictionaryWithDefault
340
874
  0
DICTIONARY
  5
1950
102
{ACAD_REACTORS
330
C
102
}
330
C
100
AcDbDictionary
281
     1
  3
Standard
350
1951
  0
DICTIONARY
  5
196D
102
{ACAD_REACTORS
330
C
102
}
330
C
100
AcDbDictionary
281
     1
  3
COLORDICT
350
196E
  3
MATERIALDICT
350
196F
  0
DICTIONARY
  5
4A
102
{ACAD_REACTORS
330
C
102
}
330
C
100
AcDbDictionary
281
     1
  3
CTABLESTYLE
350
195B
  3
DIMADEC
350
4B
  0
LAYOUT
  5
878
102
{ACAD_REACTORS
330
875
102
}
102
{ACAD_XDICTIONARY
360
1970
102
}
330
875
100
AcDbPlotSettings
  1

  2
C:\ACAD2000\plotters\HP LaserJet 2100 Series PS.pc3
  4

  6

 40
0.0
 41
0.0
 42
0.0
 43
0.0
 44
0.0
 45
0.0
 46
0.0
 47
0.0
 48
0.0
 49
0.0
140
0.0
141
0.0
142
1.0
143
1.0
 70
   688
 72
     0
 73
     0
 74
     5
  7

 75
    16
147
1.0
148
0.0
149
0.0
100
AcDbLayout
  1
Layout1
 70
     0
 71
     1
 10
0.0
 20
0.0
 11
12.0
 21
9.0
 12
0.0
 22
0.0
 32
0.0
 14
1.000000000000000E+20
 24
1.000000000000000E+20
 34
1.000000000000000E+20
 15
-1.000000000000000E+20
 25
-1.000000000000000E+20
 35
-1.000000000000000E+20
146
0.0
 13
0.0
 23
0.0
 33
0.0
 16
1.0
 26
0.0
 36
0.0
 17
0.0
 27
1.0
 37
0.0
 76
     0
330
14
  0
LAYOUT
  5
877
102
{ACAD_REACTORS
330
875
102
}
102
{ACAD_XDICTIONARY
360
1972
102
}
330
875
100
AcDbPlotSettings
  1

  2
\\23nt\dgray
  4
Letter
  6

 40
7.143749713897705
 41
6.127734661102295
 42
7.14373779296875
 43
7.14373779296875
 44
215.8999938964844
 45
279.3999938964844
 46
0.0
 47
0.0
 48
0.125
 49
0.0
140
52.5
141
38.625
142
1.0
143
4.998806564548794
 70
 28336
 72
     0
 73
     1
 74
     4
  7

 75
     0
147
0.200047748815074
148
-3.175
149
0.0
100
AcDbLayout
  1
Model
 70
     1
 71
     0
 10
0.0
 20
0.0
 11
12.0
 21
9.0
 12
0.0
 22
0.0
 32
0.0
 14
0.0
 24
0.0
 34
0.0
 15
0.0
 25
0.0
 35
0.0
146
0.0
 13
0.0
 23
0.0
 33
0.0
 16
1.0
 26
0.0
 36
0.0
 17
0.0
 27
1.0
 37
0.0
 76
     0
330
17
  0
MLINESTYLE
  5
1B
102
{ACAD_REACTORS
330
1A
102
}
330
1A
100
AcDbMlineStyle
  2
STANDARD
 70
     0
  3

 62
   256
 51
90.0
 52
90.0
 71
     2
 49
0.5
 62
   256
  6
BYLAYER
 49
-0.5
 62
   256
  6
BYLAYER
  0
ACDBPLACEHOLDER
  5
874
102
{ACAD_REACTORS
330
873
102
}
330
873
  0
ACAD_PROXY_OBJECT
  5
1951
102
{ACAD_REACTORS
330
1950
102
}
330
1950
100
AcDbProxyObject
 90
      499
 91
      509
 95
   983063
 70
     0
 93
     1841
310
4214DD185B99185C9928B81E85EB51B8AE3F2E07A17AD46E2B8FC02B5E8DC0F42B1CFD028000000C1008070000C3001FDFF8000000C1003FBFF000000182007F7FE00000030400FEFFC00000060801FDFF8000000C1003FBFF00000018200000000000000681FA0B0000001820100E000186003FBFF000000182007F7FE000
310
00030400FEFFC00000060801FDFF8000000C1003FBFF000000182007F7FE000000304000AD7A3703D0AC73F4160000003040201C00030C007F7FE00000030400FEFFC00000060801FDFF8000000C1003FBFF000000182007F7FE00000030400FEFFC000000608000
340
F
340
F
340
F
 94
        0
  0
XRECORD
  5
196E
102
{ACAD_REACTORS
330
196D
102
}
330
196D
100
AcDbXrecord
340
194F
  0
XRECORD
  5
196F
102
{ACAD_REACTORS
330
196D
102
}
330
196D
100
AcDbXrecord
340
194E
  0
DICTIONARYVAR
  5
195B
102
{ACAD_REACTORS
330
4A
102
}
330
4A
100
DictionaryVariables
280
     0
  1
STANDARD
  0
DICTIONARYVAR
  5
4B
102
{ACAD_REACTORS
330
4A
102
}
330
4A
100
DictionaryVariables
280
     0
  1
0
  0
DICTIONARY
  5
1970
330
878
100
AcDbDictionary
280
     1
281
     1
  3
ACAD_XREC_ROUNDTRIP
360
1971
  0
DICTIONARY
  5
1972
330
877
100
AcDbDictionary
280
     1
281
     1
  3
ACAD_XREC_ROUNDTRIP
360
1973
  0
XRECORD
  5
1971
102
{ACAD_REACTORS
330
1970
102
}
330
1970
100
AcDbXrecord
102
SHADEPLOT
 70
     0
102
SHADEPLOTRESLEVEL
 70
     2
102
SHADEPLOTCUSTOMDPI
 70
   300
  0
XRECORD
  5
1973
102
{ACAD_REACTORS
330
1972
102
}
330
1972
100
AcDbXrecord
102
SHADEPLOT
 70
     0
102
SHADEPLOTRESLEVEL
 70
     2
102
SHADEPLOTCUSTOMDPI
 70
   300
  0
ENDSEC
  0
EOF
