  0
SECTION
  2
HEADER
  9
$ACADVER
  1
AC1015
  9
$ACADMAINTVER
 70
     6
  9
$DWGCODEPAGE
  3
ANSI_1252
  9
$INSBASE
 10
0.0
 20
0.0
 30
0.0
  9
$EXTMIN
 10
-13.02943262222267
 20
-0.0429690402420135
 30
-0.0000000000000058
  9
$EXTMAX
 10
13.02931868536443
 20
19.65080853923573
 30
0.0000000000000104
  9
$LIMMIN
 10
0.0
 20
0.0
  9
$LIMMAX
 10
42.0
 20
32.0
  9
$ORTHOMODE
 70
     1
  9
$REGENMODE
 70
     1
  9
$FILLMODE
 70
     1
  9
$QTEXTMODE
 70
     0
  9
$MIRRTEXT
 70
     0
  9
$LTSCALE
 40
1.0
  9
$ATTMODE
 70
     1
  9
$TEXTSIZE
 40
0.36
  9
$TRACEWID
 40
0.05
  9
$TEXTSTYLE
  7
STANDARD
  9
$CLAYER
  8
0
  9
$CELTYPE
  6
BYLAYER
  9
$CECOLOR
 62
   256
  9
$CELTSCALE
 40
1.0
  9
$DISPSILH
 70
     0
  9
$DIMSCALE
 40
4.0
  9
$DIMASZ
 40
0.125
  9
$DIMEXO
 40
0.062
  9
$DIMDLI
 40
0.375
  9
$DIMRND
 40
0.0
  9
$DIMDLE
 40
0.0
  9
$DIMEXE
 40
0.08
  9
$DIMTP
 40
0.0
  9
$DIMTM
 40
0.0
  9
$DIMTXT
 40
0.09
  9
$DIMCEN
 40
-0.06
  9
$DIMTSZ
 40
0.0
  9
$DIMTOL
 70
     0
  9
$DIMLIM
 70
     0
  9
$DIMTIH
 70
     1
  9
$DIMTOH
 70
     1
  9
$DIMSE1
 70
     0
  9
$DIMSE2
 70
     0
  9
$DIMTAD
 70
     0
  9
$DIMZIN
 70
     0
  9
$DIMBLK
  1

  9
$DIMASO
 70
     0
  9
$DIMSHO
 70
     0
  9
$DIMPOST
  1

  9
$DIMAPOST
  1

  9
$DIMALT
 70
     0
  9
$DIMALTD
 70
     2
  9
$DIMALTF
 40
25.4
  9
$DIMLFAC
 40
1.0
  9
$DIMTOFL
 70
     0
  9
$DIMTVP
 40
0.0
  9
$DIMTIX
 70
     0
  9
$DIMSOXD
 70
     0
  9
$DIMSAH
 70
     0
  9
$DIMBLK1
  1

  9
$DIMBLK2
  1

  9
$DIMSTYLE
  2
STANDARD
  9
$DIMCLRD
 70
     0
  9
$DIMCLRE
 70
     0
  9
$DIMCLRT
 70
     0
  9
$DIMTFAC
 40
1.0
  9
$DIMGAP
 40
0.09
  9
$DIMJUST
 70
     0
  9
$DIMSD1
 70
     0
  9
$DIMSD2
 70
     0
  9
$DIMTOLJ
 70
     1
  9
$DIMTZIN
 70
     0
  9
$DIMALTZ
 70
     0
  9
$DIMALTTZ
 70
     0
  9
$DIMUPT
 70
     0
  9
$DIMDEC
 70
     5
  9
$DIMTDEC
 70
     5
  9
$DIMALTU
 70
     5
  9
$DIMALTTD
 70
     2
  9
$DIMTXSTY
  7
STANDARD
  9
$DIMAUNIT
 70
     0
  9
$DIMADEC
 70
     0
  9
$DIMALTRND
 40
0.0
  9
$DIMAZIN
 70
     0
  9
$DIMDSEP
 70
    46
  9
$DIMATFIT
 70
     3
  9
$DIMFRAC
 70
     2
  9
$DIMLDRBLK
  1

  9
$DIMLUNIT
 70
     5
  9
$DIMLWD
 70
    -2
  9
$DIMLWE
 70
    -2
  9
$DIMTMOVE
 70
     2
  9
$LUNITS
 70
     5
  9
$LUPREC
 70
     5
  9
$SKETCHINC
 40
0.1
  9
$FILLETRAD
 40
0.0
  9
$AUNITS
 70
     0
  9
$AUPREC
 70
     0
  9
$MENU
  1
qa
  9
$ELEVATION
 40
0.0
  9
$PELEVATION
 40
0.0
  9
$THICKNESS
 40
0.0
  9
$LIMCHECK
 70
     0
  9
$CHAMFERA
 40
0.0
  9
$CHAMFERB
 40
0.0
  9
$CHAMFERC
 40
0.0
  9
$CHAMFERD
 40
0.0
  9
$SKPOLY
 70
     0
  9
$TDCREATE
 40
2449937.813747801
  9
$TDUCREATE
 40
2449938.147081134
  9
$TDUPDATE
 40
2454165.943695243
  9
$TDUUPDATE
 40
2454166.277028577
  9
$TDINDWG
 40
0.1523349769
  9
$TDUSRTIMER
 40
0.1523349769
  9
$USRTIMER
 70
     1
  9
$ANGBASE
 50
0.0
  9
$ANGDIR
 70
     0
  9
$PDMODE
 70
     0
  9
$PDSIZE
 40
0.0
  9
$PLINEWID
 40
0.0
  9
$SPLFRAME
 70
     0
  9
$SPLINETYPE
 70
     6
  9
$SPLINESEGS
 70
     8
  9
$HANDSEED
  5
488
  9
$SURFTAB1
 70
     6
  9
$SURFTAB2
 70
     6
  9
$SURFTYPE
 70
     6
  9
$SURFU
 70
     6
  9
$SURFV
 70
     6
  9
$UCSBASE
  2

  9
$UCSNAME
  2

  9
$UCSORG
 10
0.0
 20
0.0
 30
0.0
  9
$UCSXDIR
 10
1.0
 20
0.0
 30
0.0
  9
$UCSYDIR
 10
0.0
 20
1.0
 30
0.0
  9
$UCSORTHOREF
  2

  9
$UCSORTHOVIEW
 70
     0
  9
$UCSORGTOP
 10
0.0
 20
0.0
 30
0.0
  9
$UCSORGBOTTOM
 10
0.0
 20
0.0
 30
0.0
  9
$UCSORGLEFT
 10
0.0
 20
0.0
 30
0.0
  9
$UCSORGRIGHT
 10
0.0
 20
0.0
 30
0.0
  9
$UCSORGFRONT
 10
0.0
 20
0.0
 30
0.0
  9
$UCSORGBACK
 10
0.0
 20
0.0
 30
0.0
  9
$PUCSBASE
  2

  9
$PUCSNAME
  2

  9
$PUCSORG
 10
0.0
 20
0.0
 30
0.0
  9
$PUCSXDIR
 10
1.0
 20
0.0
 30
0.0
  9
$PUCSYDIR
 10
0.0
 20
1.0
 30
0.0
  9
$PUCSORTHOREF
  2

  9
$PUCSORTHOVIEW
 70
     0
  9
$PUCSORGTOP
 10
0.0
 20
0.0
 30
0.0
  9
$PUCSORGBOTTOM
 10
0.0
 20
0.0
 30
0.0
  9
$PUCSORGLEFT
 10
0.0
 20
0.0
 30
0.0
  9
$PUCSORGRIGHT
 10
0.0
 20
0.0
 30
0.0
  9
$PUCSORGFRONT
 10
0.0
 20
0.0
 30
0.0
  9
$PUCSORGBACK
 10
0.0
 20
0.0
 30
0.0
  9
$USERI1
 70
     0
  9
$USERI2
 70
     0
  9
$USERI3
 70
     0
  9
$USERI4
 70
     0
  9
$USERI5
 70
     0
  9
$USERR1
 40
0.0
  9
$USERR2
 40
0.0
  9
$USERR3
 40
0.0
  9
$USERR4
 40
0.0
  9
$USERR5
 40
0.0
  9
$WORLDVIEW
 70
     1
  9
$SHADEDGE
 70
     3
  9
$SHADEDIF
 70
    70
  9
$TILEMODE
 70
     1
  9
$MAXACTVP
 70
    16
  9
$PINSBASE
 10
0.0
 20
0.0
 30
0.0
  9
$PLIMCHECK
 70
     0
  9
$PEXTMIN
 10
1.000000000000000E+20
 20
1.000000000000000E+20
 30
1.000000000000000E+20
  9
$PEXTMAX
 10
-1.000000000000000E+20
 20
-1.000000000000000E+20
 30
-1.000000000000000E+20
  9
$PLIMMIN
 10
0.0
 20
0.0
  9
$PLIMMAX
 10
12.0
 20
9.0
  9
$UNITMODE
 70
     0
  9
$VISRETAIN
 70
     0
  9
$PLINEGEN
 70
     0
  9
$PSLTSCALE
 70
     0
  9
$TREEDEPTH
 70
  3020
  9
$CMLSTYLE
  2
STANDARD
  9
$CMLJUST
 70
     0
  9
$CMLSCALE
 40
1.0
  9
$PROXYGRAPHICS
 70
     1
  9
$MEASUREMENT
 70
     0
  9
$CELWEIGHT
370
    -1
  9
$ENDCAPS
280
     0
  9
$JOINSTYLE
280
     0
  9
$LWDISPLAY
290
     0
  9
$INSUNITS
 70
     0
  9
$HYPERLINKBASE
  1

  9
$STYLESHEET
  1

  9
$XEDIT
290
     1
  9
$CEPSNTYPE
380
     0
  9
$PSTYLEMODE
290
     1
  9
$FINGERPRINTGUID
  2
{69B101B3-8CA8-11D5-BE3F-00508B5FCD51}
  9
$VERSIONGUID
  2
{D66E9D47-D076-4CDB-A65D-2B24CD67948D}
  9
$EXTNAMES
290
     1
  9
$PSVPSCALE
 40
0.0
  9
$OLESTARTUP
290
     0
  0
ENDSEC
  0
SECTION
  2
CLASSES
  0
CLASS
  1
DICTIONARYVAR
  2
AcDbDictionaryVar
  3
AutoCAD 2000
 90
        0
280
     0
281
     0
  0
CLASS
  1
LWPOLYLINE
  2
AcDbPolyline
  3
AutoCAD 2000
 90
        0
280
     0
281
     1
  0
CLASS
  1
ACDBDICTIONARYWDFLT
  2
AcDbDictionaryWithDefault
  3
AutoCAD 2000
 90
        0
280
     0
281
     0
  0
CLASS
  1
ACDBPLACEHOLDER
  2
AcDbPlaceHolder
  3
ObjectDBX Classes
 90
        0
280
     0
281
     0
  0
CLASS
  1
LAYOUT
  2
AcDbLayout
  3
ObjectDBX Classes
 90
        0
280
     0
281
     0
  0
CLASS
  1
LONG_TRANSACTION
  2
AcDbLongTransaction
  3
ObjectDBX Classes
 90
   -65536
280
     1
281
     0
  0
CLASS
  1
LWPOLYLINE
  2
AcDbPolyline
  3
AutoCAD 2000
 90
        0
280
     0
281
     1
  0
CLASS
  1
HATCH
  2
AcDbHatch
  3
AutoCAD 2000
 90
        0
280
     0
281
     1
  0
CLASS
  1
XRECORD
  2
AcDbXrecord
  3
AutoCAD 2000
 90
        0
280
     0
281
     0
  0
CLASS
  1
LONG_TRANSACTION
  2
AcDbLongTransaction
  3
ObjectDBX Classes
 90
   -65536
280
     1
281
     0
  0
CLASS
  1
LWPOLYLINE
  2
AcDbPolyline
  3
AutoCAD 2000
 90
        0
280
     0
281
     1
  0
CLASS
  1
HATCH
  2
AcDbHatch
  3
AutoCAD 2000
 90
        0
280
     0
281
     1
  0
CLASS
  1
XRECORD
  2
AcDbXrecord
  3
AutoCAD 2000
 90
        0
280
     0
281
     0
  0
CLASS
  1
LONG_TRANSACTION
  2
AcDbLongTransaction
  3
ObjectDBX Classes
 90
   -65536
280
     1
281
     0
  0
CLASS
  1
LWPOLYLINE
  2
AcDbPolyline
  3
AutoCAD 2000
 90
        0
280
     0
281
     1
  0
CLASS
  1
HATCH
  2
AcDbHatch
  3
AutoCAD 2000
 90
        0
280
     0
281
     1
  0
CLASS
  1
XRECORD
  2
AcDbXrecord
  3
AutoCAD 2000
 90
        0
280
     0
281
     0
  0
CLASS
  1
LONG_TRANSACTION
  2
AcDbLongTransaction
  3
ObjectDBX Classes
 90
   -65536
280
     1
281
     0
  0
CLASS
  1
LWPOLYLINE
  2
AcDbPolyline
  3
AutoCAD 2000
 90
        0
280
     0
281
     1
  0
CLASS
  1
HATCH
  2
AcDbHatch
  3
AutoCAD 2000
 90
        0
280
     0
281
     1
  0
CLASS
  1
XRECORD
  2
AcDbXrecord
  3
AutoCAD 2000
 90
        0
280
     0
281
     0
  0
CLASS
  1
LONG_TRANSACTION
  2
AcDbLongTransaction
  3
ObjectDBX Classes
 90
   -65536
280
     1
281
     0
  0
CLASS
  1
LWPOLYLINE
  2
AcDbPolyline
  3
AutoCAD 2000
 90
        0
280
     0
281
     1
  0
CLASS
  1
HATCH
  2
AcDbHatch
  3
AutoCAD 2000
 90
        0
280
     0
281
     1
  0
CLASS
  1
XRECORD
  2
AcDbXrecord
  3
AutoCAD 2000
 90
        0
280
     0
281
     0
  0
CLASS
  1
LONG_TRANSACTION
  2
AcDbLongTransaction
  3
ObjectDBX Classes
 90
   -65536
280
     1
281
     0
  0
CLASS
  1
LWPOLYLINE
  2
AcDbPolyline
  3
AutoCAD 2000
 90
        0
280
     0
281
     1
  0
CLASS
  1
HATCH
  2
AcDbHatch
  3
AutoCAD 2000
 90
        0
280
     0
281
     1
  0
CLASS
  1
XRECORD
  2
AcDbXrecord
  3
AutoCAD 2000
 90
        0
280
     0
281
     0
  0
CLASS
  1
LONG_TRANSACTION
  2
AcDbLongTransaction
  3
ObjectDBX Classes
 90
   -65536
280
     1
281
     0
  0
CLASS
  1
LWPOLYLINE
  2
AcDbPolyline
  3
AutoCAD 2000
 90
        0
280
     0
281
     1
  0
CLASS
  1
HATCH
  2
AcDbHatch
  3
AutoCAD 2000
 90
        0
280
     0
281
     1
  0
CLASS
  1
XRECORD
  2
AcDbXrecord
  3
AutoCAD 2000
 90
        0
280
     0
281
     0
  0
CLASS
  1
LONG_TRANSACTION
  2
AcDbLongTransaction
  3
ObjectDBX Classes
 90
   -65536
280
     1
281
     0
  0
CLASS
  1
LWPOLYLINE
  2
AcDbPolyline
  3
AutoCAD 2000
 90
        0
280
     0
281
     1
  0
CLASS
  1
HATCH
  2
AcDbHatch
  3
AutoCAD 2000
 90
        0
280
     0
281
     1
  0
CLASS
  1
XRECORD
  2
AcDbXrecord
  3
AutoCAD 2000
 90
        0
280
     0
281
     0
  0
CLASS
  1
TABLESTYLE
  2
AcDbTableStyle
  3
ObjectDBX Classes
 90
     2047
280
     1
281
     0
  0
CLASS
  1
SORTENTSTABLE
  2
AcDbSortentsTable
  3
AutoCAD 2000
 90
        0
280
     0
281
     0
  0
ENDSEC
  0
SECTION
  2
TABLES
  0
TABLE
  2
VPORT
  5
1D
330
0
100
AcDbSymbolTable
 70
     3
  0
VPORT
  5
47A
330
1D
100
AcDbSymbolTableRecord
100
AcDbViewportTableRecord
  2
*Active
 70
     0
 10
0.0
 20
0.0
 11
1.0
 21
1.0
 12
14.48528368888867
 22
15.97851547987899
 13
0.0
 23
0.0
 14
0.063
 24
0.063
 15
0.25
 25
0.25
 16
0.0
 26
0.0
 36
1.0
 17
0.0
 27
0.0
 37
0.0
 40
32.44267343575439
 41
1.814583333333333
 42
50.0
 43
0.0
 44
0.0
 50
0.0
 51
0.0
 71
     0
 72
   100
 73
     1
 74
     0
 75
     0
 76
     0
 77
     0
 78
     0
281
     0
 65
     1
110
0.0
120
0.0
130
0.0
111
1.0
121
0.0
131
0.0
112
0.0
122
1.0
132
0.0
 79
     0
146
0.0
  0
ENDTAB
  0
TABLE
  2
LTYPE
  5
18
330
0
100
AcDbSymbolTable
 70
     2
  0
LTYPE
  5
19
330
18
100
AcDbSymbolTableRecord
100
AcDbLinetypeTableRecord
  2
BYBLOCK
 70
     0
  3

 72
    65
 73
     0
 40
0.0
  0
LTYPE
  5
1A
330
18
100
AcDbSymbolTableRecord
100
AcDbLinetypeTableRecord
  2
BYLAYER
 70
     0
  3

 72
    65
 73
     0
 40
0.0
  0
LTYPE
  5
A
330
18
100
AcDbSymbolTableRecord
100
AcDbLinetypeTableRecord
  2
CONTINUOUS
 70
     0
  3
Solid line
 72
    65
 73
     0
 40
0.0
  0
LTYPE
  5
166
330
18
100
AcDbSymbolTableRecord
100
AcDbLinetypeTableRecord
  2
DASHED
 70
     0
  3
__ __ __ __ __ __ __ __ __ __ __ __ __ __ __
 72
    65
 73
     2
 40
0.75
 49
0.5
 74
     0
 49
-0.25
 74
     0
  0
ENDTAB
  0
TABLE
  2
LAYER
  5
14
330
0
100
AcDbSymbolTable
 70
     2
  0
LAYER
  5
6
330
14
100
AcDbSymbolTableRecord
100
AcDbLayerTableRecord
  2
0
 70
     0
 62
     7
  6
CONTINUOUS
370
    -3
390
7
  0
ENDTAB
  0
TABLE
  2
STYLE
  5
15
330
0
100
AcDbSymbolTable
 70
     1
  0
STYLE
  5
16
330
15
100
AcDbSymbolTableRecord
100
AcDbTextStyleTableRecord
  2
STANDARD
 70
     0
 40
0.0
 41
1.0
 50
0.0
 71
     0
 42
0.36
  3
TXT
  4

  0
ENDTAB
  0
TABLE
  2
VIEW
  5
1B
330
0
100
AcDbSymbolTable
 70
     0
  0
ENDTAB
  0
TABLE
  2
UCS
  5
1C
330
0
100
AcDbSymbolTable
 70
     0
  0
ENDTAB
  0
TABLE
  2
APPID
  5
1F
330
0
100
AcDbSymbolTable
 70
     1
  0
APPID
  5
20
330
1F
100
AcDbSymbolTableRecord
100
AcDbRegAppTableRecord
  2
ACAD
 70
     0
  0
ENDTAB
  0
TABLE
  2
DIMSTYLE
  5
21
330
0
100
AcDbSymbolTable
 70
     1
100
AcDbDimStyleTable
  0
DIMSTYLE
105
28
330
21
100
AcDbSymbolTableRecord
100
AcDbDimStyleTableRecord
  2
STANDARD
 70
     0
  3

  4

340
16
  0
ENDTAB
  0
TABLE
  2
BLOCK_RECORD
  5
1
330
0
100
AcDbSymbolTable
 70
     0
  0
BLOCK_RECORD
  5
2
102
{ACAD_XDICTIONARY
360
3
102
}
330
1
100
AcDbSymbolTableRecord
100
AcDbBlockTableRecord
  2
*MODEL_SPACE
340
C
  0
BLOCK_RECORD
  5
E
330
1
100
AcDbSymbolTableRecord
100
AcDbBlockTableRecord
  2
*PAPER_SPACE
340
13
  0
ENDTAB
  0
ENDSEC
  0
SECTION
  2
BLOCKS
  0
BLOCK
  5
5
330
2
100
AcDbEntity
  8
0
100
AcDbBlockBegin
  2
*MODEL_SPACE
 70
     0
 10
0.0
 20
0.0
 30
0.0
  3
*MODEL_SPACE
  1

  4

  0
ENDBLK
  5
B
330
2
100
AcDbEntity
  8
0
100
AcDbBlockEnd
  0
BLOCK
  5
11
330
E
100
AcDbEntity
 67
     1
  8
0
100
AcDbBlockBegin
  2
*PAPER_SPACE
 70
     0
 10
0.0
 20
0.0
 30
0.0
  3
*PAPER_SPACE
  1

  4

  0
ENDBLK
  5
12
330
E
100
AcDbEntity
 67
     1
  8
0
100
AcDbBlockEnd
  0
ENDSEC
  0
SECTION
  2
ENTITIES
  0
LINE
  5
1CB
330
2
100
AcDbEntity
  8
0
  6
Continuous
100
AcDbLine
 10
13.02578273080056
 20
0.5268305480544111
 30
0.0
 11
13.02578273080056
 21
10.71607627521733
 31
0.0
  0
LINE
  5
1CC
330
2
100
AcDbEntity
  8
0
  6
Continuous
100
AcDbLine
 10
12.93203273080056
 20
0.4518862669843742
 30
0.0
 11
12.93203273080056
 21
6.716076275217333
 31
0.0
  0
LINE
  5
1CD
330
2
100
AcDbEntity
  8
0
100
AcDbLine
 10
11.56423765395385
 20
5.796496460662784
 30
0.0
 11
11.56423765395385
 21
5.15004985125606
 31
0.0
  0
LINE
  5
1CE
330
2
100
AcDbEntity
  8
0
100
AcDbLine
 10
10.29983469281014
 20
1.896370194815663
 30
0.0
 11
8.971407568063967
 21
0.5679430700695072
 31
0.0
  0
ARC
  5
1CF
330
2
100
AcDbEntity
  8
0
100
AcDbCircle
 10
9.501737653953875
 20
0.0376129841796207
 30
0.0
 40
0.75
100
AcDbArc
 50
134.9999999999995
 51
182.8746261802528
  0
LINE
  5
1D0
330
2
100
AcDbEntity
  8
0
  6
Continuous
100
AcDbLine
 10
12.70170316572553
 20
0.0
 30
0.0
 11
8.752681405451064
 21
0.0
 31
0.0
  0
LINE
  5
1D1
330
2
100
AcDbEntity
  8
0
  6
DASHED
100
AcDbLine
 10
12.7197467263552
 20
0.0937500000000018
 30
0.0
 11
8.769423960350544
 21
0.09375
 31
0.0
  0
ARC
  5
1D2
330
2
100
AcDbEntity
  8
0
100
AcDbCircle
 10
13.44571509426391
 20
-0.0945846192179101
 30
0.0
 40
0.75
100
AcDbArc
 50
124.0495612829
 51
172.7549754110731
  0
ARC
  5
1D3
330
2
100
AcDbEntity
  8
0
100
AcDbCircle
 10
8.001737653953846
 20
4.19446723367199
 30
0.0
 40
3.25
100
AcDbArc
 50
314.9999999999995
 51
0.0
  0
ARC
  5
1D4
330
2
100
AcDbEntity
  8
0
100
AcDbCircle
 10
11.99453273080056
 20
1.966076275217338
 30
0.0
 40
0.0855
100
AcDbArc
 50
90.0
 51
270.0
  0
ARC
  5
1D7
330
2
100
AcDbEntity
  8
0
100
AcDbCircle
 10
11.99453273080056
 20
0.966076275217338
 30
0.0
 40
0.0855
100
AcDbArc
 50
90.0
 51
270.0
  0
LINE
  5
1DD
330
2
100
AcDbEntity
  8
0
100
AcDbLine
 10
11.25173765395385
 20
4.19446723367199
 30
0.0
 11
11.25173765395385
 21
4.733996460662784
 31
0.0
  0
LINE
  5
1E5
330
2
100
AcDbEntity
  8
0
100
AcDbLine
 10
11.52762600160217
 20
5.061661503607741
 30
0.0
 11
11.28834930630553
 21
4.822384808311103
 31
0.0
  0
ARC
  5
1E6
330
2
100
AcDbEntity
  8
0
100
AcDbCircle
 10
11.37673765395385
 20
4.733996460662784
 30
0.0
 40
0.125
100
AcDbArc
 50
134.9999999999999
 51
180.0
  0
ARC
  5
1E9
330
2
100
AcDbEntity
  8
0
100
AcDbCircle
 10
11.43923765395385
 20
5.15004985125606
 30
0.0
 40
0.125
100
AcDbArc
 50
314.9999999999997
 51
0.0
  0
LINE
  5
1EB
330
2
100
AcDbEntity
  8
0
100
AcDbLine
 10
12.93203273080056
 20
10.71607627521734
 30
0.0
 11
12.93203273080056
 21
6.416076275217332
 31
0.0
  0
LINE
  5
1EC
330
2
100
AcDbEntity
  8
0
100
AcDbLine
 10
11.25173765395385
 20
10.71607627521734
 30
0.0
 11
11.25173765395385
 21
10.21254959521179
 31
0.0
  0
LINE
  5
1ED
330
2
100
AcDbEntity
  8
0
100
AcDbLine
 10
11.25173765395385
 20
10.21254985125606
 30
0.0
 11
11.25173765395385
 21
10.71607627521734
 31
0.0
  0
ARC
  5
1EE
330
2
100
AcDbEntity
  8
0
100
AcDbCircle
 10
11.37673765395385
 20
8.21254985125606
 30
0.0
 40
0.125
100
AcDbArc
 50
180.0
 51
225.0000000000001
  0
LINE
  5
1F1
330
2
100
AcDbEntity
  8
0
100
AcDbLine
 10
11.52762600160217
 20
7.061661503607741
 30
0.0
 11
11.28834930630553
 21
6.822384808311103
 31
0.0
  0
LINE
  5
1F2
330
2
100
AcDbEntity
  8
0
100
AcDbLine
 10
11.25173765395385
 20
6.716076275217336
 30
0.0
 11
11.25173765395385
 21
6.212549595211787
 31
0.0
  0
LINE
  5
1F3
330
2
100
AcDbEntity
  8
0
100
AcDbLine
 10
11.25173765395385
 20
6.21254985125606
 30
0.0
 11
11.25173765395385
 21
6.716076275217336
 31
0.0
  0
ARC
  5
1F4
330
2
100
AcDbEntity
  8
0
100
AcDbCircle
 10
11.43923765395385
 20
5.796496460662784
 30
0.0
 40
0.125
100
AcDbArc
 50
0.0
 51
45.00000000000014
  0
ARC
  5
1F5
330
2
100
AcDbEntity
  8
0
100
AcDbCircle
 10
11.37673765395385
 20
6.21254985125606
 30
0.0
 40
0.125
100
AcDbArc
 50
180.0
 51
225.0000000000001
  0
LINE
  5
1F6
330
2
100
AcDbEntity
  8
0
100
AcDbLine
 10
11.28834930630553
 20
6.124161503607741
 30
0.0
 11
11.52762600160217
 21
5.884884808311103
 31
0.0
  0
ARC
  5
1FC
330
2
100
AcDbEntity
  8
0
100
AcDbCircle
 10
11.37673765395385
 20
6.733996460662784
 30
0.0
 40
0.125
100
AcDbArc
 50
134.9999999999999
 51
180.0
  0
LINE
  5
1FE
330
2
100
AcDbEntity
  8
0
100
AcDbLine
 10
11.56423765395385
 20
7.796496460662784
 30
0.0
 11
11.56423765395385
 21
7.15004985125606
 31
0.0
  0
ARC
  5
1FF
330
2
100
AcDbEntity
  8
0
100
AcDbCircle
 10
11.43923765395385
 20
7.15004985125606
 30
0.0
 40
0.125
100
AcDbArc
 50
314.9999999999997
 51
0.0
  0
LINE
  5
202
330
2
100
AcDbEntity
  8
0
100
AcDbLine
 10
11.28834930630553
 20
8.124161503607741
 30
0.0
 11
11.52762600160217
 21
7.884884808311103
 31
0.0
  0
ARC
  5
203
330
2
100
AcDbEntity
  8
0
100
AcDbCircle
 10
11.43923765395385
 20
7.796496460662784
 30
0.0
 40
0.125
100
AcDbArc
 50
0.0
 51
45.00000000000014
  0
LINE
  5
209
330
2
100
AcDbEntity
  8
0
100
AcDbLine
 10
11.56423765395385
 20
9.796496460662784
 30
0.0
 11
11.56423765395385
 21
9.15004985125606
 31
0.0
  0
ARC
  5
20A
330
2
100
AcDbEntity
  8
0
100
AcDbCircle
 10
11.37673765395385
 20
8.733996460662784
 30
0.0
 40
0.125
100
AcDbArc
 50
134.9999999999999
 51
180.0
  0
LINE
  5
20B
330
2
100
AcDbEntity
  8
0
100
AcDbLine
 10
11.25173765395385
 20
8.21254985125606
 30
0.0
 11
11.25173765395385
 21
8.716076275217336
 31
0.0
  0
LINE
  5
20C
330
2
100
AcDbEntity
  8
0
100
AcDbLine
 10
11.25173765395385
 20
8.716076275217336
 30
0.0
 11
11.25173765395385
 21
8.212549595211787
 31
0.0
  0
LINE
  5
20D
330
2
100
AcDbEntity
  8
0
100
AcDbLine
 10
11.25173765395385
 20
8.21254985125606
 30
0.0
 11
11.25173765395385
 21
8.716076275217336
 31
0.0
  0
LINE
  5
20E
330
2
100
AcDbEntity
  8
0
100
AcDbLine
 10
11.25173765395385
 20
8.716076275217336
 30
0.0
 11
11.25173765395385
 21
8.212549595211787
 31
0.0
  0
LINE
  5
20F
330
2
100
AcDbEntity
  8
0
100
AcDbLine
 10
11.52762600160217
 20
9.061661503607741
 30
0.0
 11
11.28834930630553
 21
8.822384808311103
 31
0.0
  0
ARC
  5
210
330
2
100
AcDbEntity
  8
0
100
AcDbCircle
 10
11.43923765395385
 20
9.15004985125606
 30
0.0
 40
0.125
100
AcDbArc
 50
314.9999999999997
 51
0.0
  0
LINE
  5
218
330
2
100
AcDbEntity
  8
0
100
AcDbLine
 10
11.28834930630553
 20
10.12416150360774
 30
0.0
 11
11.52762600160217
 21
9.884884808311103
 31
0.0
  0
ARC
  5
219
330
2
100
AcDbEntity
  8
0
100
AcDbCircle
 10
11.43923765395385
 20
9.796496460662784
 30
0.0
 40
0.125
100
AcDbArc
 50
0.0
 51
45.00000000000014
  0
ARC
  5
21C
330
2
100
AcDbEntity
  8
0
100
AcDbCircle
 10
11.37673765395385
 20
10.21254985125606
 30
0.0
 40
0.125
100
AcDbArc
 50
180.0
 51
225.0000000000001
  0
LINE
  5
21E
330
2
100
AcDbEntity
  8
0
100
AcDbLine
 10
11.25173765395385
 20
10.71607627521734
 30
0.0
 11
13.02578273080056
 21
10.71607627521734
 31
0.0
  0
LINE
  5
21F
330
2
100
AcDbEntity
  8
0
100
AcDbLine
 10
-1.820735818864169
 20
19.60880844350681
 30
0.0
 11
-4.348072869589956
 21
19.60880844350681
 31
0.0
  0
LINE
  5
220
330
2
100
AcDbEntity
  8
0
100
AcDbLine
 10
-1.820735818864169
 20
19.50980844350681
 30
0.0
 11
-4.348072869589956
 21
19.50980844350682
 31
0.0
  0
LINE
  5
221
330
2
100
AcDbEntity
  8
0
100
AcDbLine
 10
-4.348072869589956
 20
19.60880844350681
 30
0.0
 11
-4.348072869589956
 21
19.50980844350682
 31
0.0
  0
LINE
  5
222
330
2
100
AcDbEntity
  8
0
100
AcDbLine
 10
-1.721735818864165
 20
19.41080844350681
 30
0.0
 11
-1.721735818864165
 21
15.38480844350681
 31
0.0
  0
LINE
  5
223
330
2
100
AcDbEntity
  8
0
100
AcDbLine
 10
1.726264181135832
 20
19.41080844350681
 30
0.0
 11
1.726264181135832
 21
15.38480844350682
 31
0.0
  0
LINE
  5
224
330
2
100
AcDbEntity
  8
0
100
AcDbLine
 10
1.627264181135832
 20
19.41080844350681
 30
0.0
 11
1.627264181135836
 21
15.38480844350682
 31
0.0
  0
LINE
  5
225
330
2
100
AcDbEntity
  8
0
100
AcDbLine
 10
-1.622735818864168
 20
19.41080844350681
 30
0.0
 11
-1.622735818864165
 21
15.38480844350682
 31
0.0
  0
LINE
  5
226
330
2
100
AcDbEntity
  8
0
100
AcDbLine
 10
1.726264181135832
 20
15.38480844350682
 30
0.0
 11
1.454782813630931
 21
15.38480844350681
 31
0.0
  0
LINE
  5
227
330
2
100
AcDbEntity
  8
0
100
AcDbLine
 10
-0.943626696771446
 20
15.38480844350682
 30
0.0
 11
0.9547828136309686
 21
15.38480844350681
 31
0.0
  0
LINE
  5
228
330
2
100
AcDbEntity
  8
0
100
AcDbLine
 10
-1.037376696771108
 20
15.47855844350681
 30
0.0
 11
-1.349876696771108
 21
15.47855844350681
 31
0.0
  0
LINE
  5
229
330
2
100
AcDbEntity
  8
0
100
AcDbLine
 10
-1.721735818864165
 20
15.38480844350681
 30
0.0
 11
-1.443626696770696
 21
15.38480844350682
 31
0.0
  0
ARC
  5
22A
330
2
100
AcDbEntity
  8
0
100
AcDbCircle
 10
-1.349876696771108
 20
15.38480844350681
 30
0.0
 40
0.09375
100
AcDbArc
 50
90.0
 51
180.0
  0
ARC
  5
22B
330
2
100
AcDbEntity
  8
0
100
AcDbCircle
 10
-1.037376696771108
 20
15.38480844350681
 30
0.0
 40
0.09375
100
AcDbArc
 50
0.0
 51
90.0
  0
ARC
  5
22C
330
2
100
AcDbEntity
  8
0
100
AcDbCircle
 10
1.048532813631143
 20
15.38480844350681
 30
0.0
 40
0.09375
100
AcDbArc
 50
90.0
 51
180.0
  0
ARC
  5
22D
330
2
100
AcDbEntity
  8
0
100
AcDbCircle
 10
1.361032813631143
 20
15.38480844350681
 30
0.0
 40
0.09375
100
AcDbArc
 50
0.0
 51
90.0
  0
LINE
  5
22E
330
2
100
AcDbEntity
  8
0
100
AcDbLine
 10
1.361032813631143
 20
15.47855844350681
 30
0.0
 11
1.048532813631143
 21
15.47855844350681
 31
0.0
  0
ARC
  5
22F
330
2
100
AcDbEntity
  8
0
100
AcDbCircle
 10
1.825264181135832
 20
19.41080844350681
 30
0.0
 40
0.198
100
AcDbArc
 50
90.0
 51
180.0
  0
LINE
  5
230
330
2
100
AcDbEntity
  8
0
100
AcDbLine
 10
1.454779804883462
 20
19.38480844350681
 30
0.0
 11
1.627264181135832
 21
19.38480844350681
 31
0.0
  0
LINE
  5
231
330
2
100
AcDbEntity
  8
0
100
AcDbLine
 10
-0.1186510784470602
 20
16.50572370308971
 30
0.0
 11
0.0022641811358373
 21
16.62663896267261
 31
0.0
  0
LINE
  5
232
330
2
100
AcDbEntity
  8
0
100
AcDbLine
 10
0.0022641811358373
 20
16.38480844350681
 30
0.0
 11
-0.1186510784470602
 21
16.50572370308971
 31
0.0
  0
LINE
  5
233
330
2
100
AcDbEntity
  8
0
100
AcDbLine
 10
0.0022641811358373
 20
16.38480844350681
 30
0.0
 11
0.1231794407187383
 21
16.50572370308971
 31
0.0
  0
LINE
  5
234
330
2
100
AcDbEntity
  8
0
100
AcDbLine
 10
0.1231794407187383
 20
16.50572370308971
 30
0.0
 11
0.0022641811358373
 21
16.62663896267261
 31
0.0
  0
LINE
  5
235
330
2
100
AcDbEntity
  8
0
100
AcDbLine
 10
-0.943629705518287
 20
19.38480844350682
 30
0.0
 11
0.9547858223780192
 21
19.38480844350681
 31
0.0
  0
ARC
  5
236
330
2
100
AcDbEntity
  8
0
100
AcDbCircle
 10
-1.349876696771108
 20
19.38405735694865
 30
0.0
 40
0.09375
100
AcDbArc
 50
179.5409647978006
 51
270.0000000000001
  0
ARC
  5
237
330
2
100
AcDbEntity
  8
0
100
AcDbCircle
 10
-1.037376696771108
 20
19.38405735694865
 30
0.0
 40
0.09375
100
AcDbArc
 50
270.0
 51
0.4590352021994594
  0
LINE
  5
238
330
2
100
AcDbEntity
  8
0
100
AcDbLine
 10
-2.01448379271659
 20
18.67105200848323
 30
0.0
 11
-1.723072869589956
 21
18.80306205272573
 31
0.0
  0
LINE
  5
239
330
2
100
AcDbEntity
  8
0
100
AcDbLine
 10
-1.723072869589956
 20
18.87002366937047
 30
0.0
 11
-2.059918829118054
 21
18.71505535656407
 31
0.0
  0
LINE
  5
23A
330
2
100
AcDbEntity
  8
0
100
AcDbLine
 10
-2.059918829118054
 20
18.71505535656407
 30
0.0
 11
-2.01448379271659
 21
18.67105200848323
 31
0.0
  0
LINE
  5
23B
330
2
100
AcDbEntity
  8
0
100
AcDbLine
 10
-1.037376696771108
 20
19.29030735694865
 30
0.0
 11
-1.349876696771108
 21
19.29030735694865
 31
0.0
  0
ARC
  5
23C
330
2
100
AcDbEntity
  8
0
100
AcDbCircle
 10
-1.820735818864169
 20
19.41080844350681
 30
0.0
 40
0.198
100
AcDbArc
 50
0.0000000000000509
 51
90.0
  0
ARC
  5
23D
330
2
100
AcDbEntity
  8
0
100
AcDbCircle
 10
-1.820735818864169
 20
19.41080844350681
 30
0.0
 40
0.099
100
AcDbArc
 50
0.0000000000000509
 51
90.0
  0
LINE
  5
23E
330
2
100
AcDbEntity
  8
0
100
AcDbLine
 10
-1.443623688023905
 20
19.38480844350682
 30
0.0
 11
-1.622735818864165
 21
19.38480844350682
 31
0.0
  0
ARC
  5
23F
330
2
100
AcDbEntity
  8
0
100
AcDbCircle
 10
1.361032813631143
 20
19.38405735694865
 30
0.0
 40
0.09375
100
AcDbArc
 50
270.0
 51
0.4590352022018075
  0
ARC
  5
240
330
2
100
AcDbEntity
  8
0
100
AcDbCircle
 10
1.048532813631143
 20
19.38405735694865
 30
0.0
 40
0.09375
100
AcDbArc
 50
179.5409647977985
 51
270.0
  0
LINE
  5
241
330
2
100
AcDbEntity
  8
0
100
AcDbLine
 10
1.361032813631143
 20
19.29030735694865
 30
0.0
 11
1.048532813631143
 21
19.29030735694865
 31
0.0
  0
LINE
  5
242
330
2
100
AcDbEntity
  8
0
100
AcDbLine
 10
1.825264181135832
 20
19.60880844350681
 30
0.0
 11
4.339427507078963
 21
19.60880844350681
 31
0.0
  0
LINE
  5
243
330
2
100
AcDbEntity
  8
0
100
AcDbLine
 10
1.825264181135832
 20
19.50980844350681
 30
0.0
 11
4.339427507078963
 21
19.50980844350681
 31
0.0
  0
LINE
  5
244
330
2
100
AcDbEntity
  8
0
100
AcDbLine
 10
1.734228986448965
 20
18.87002366937047
 30
0.0
 11
2.071074945977063
 21
18.71505535656407
 31
0.0
  0
LINE
  5
245
330
2
100
AcDbEntity
  8
0
100
AcDbLine
 10
2.025639909575599
 20
18.67105200848323
 30
0.0
 11
1.734228986448965
 21
18.80306205272573
 31
0.0
  0
LINE
  5
246
330
2
100
AcDbEntity
  8
0
100
AcDbLine
 10
2.071074945977063
 20
18.71505535656407
 30
0.0
 11
2.025639909575599
 21
18.67105200848323
 31
0.0
  0
ARC
  5
247
330
2
100
AcDbEntity
  8
0
100
AcDbCircle
 10
1.825264181135832
 20
19.41080844350681
 30
0.0
 40
0.099
100
AcDbArc
 50
90.0
 51
180.0
  0
LINE
  5
248
330
2
100
AcDbEntity
  8
0
100
AcDbLine
 10
4.339427507078963
 20
19.60880844350681
 30
0.0
 11
4.339427507078963
 21
19.50980844350681
 31
0.0
  0
CIRCLE
  5
24A
330
2
100
AcDbEntity
  8
0
100
AcDbCircle
 10
-2.473685818864155
 20
5.599
 30
0.0
 40
0.0855
  0
LINE
  5
24B
330
2
100
AcDbEntity
  8
0
100
AcDbLine
 10
-4.348690742017446
 20
5.804420185445441
 30
0.0
 11
-4.348690742017446
 21
5.157973576038724
 31
0.0
  0
LINE
  5
24C
330
2
100
AcDbEntity
  8
0
100
AcDbLine
 10
1.627264181135839
 20
0.1980000000000004
 30
0.0
 11
1.627264181135839
 21
10.71607627521734
 31
0.0
  0
LINE
  5
24D
330
2
100
AcDbEntity
  8
0
100
AcDbLine
 10
-1.622735818864161
 20
0.1980000000000004
 30
0.0
 11
-1.622735818864165
 21
10.724
 31
0.0
  0
CIRCLE
  5
24E
330
2
100
AcDbEntity
  8
0
100
AcDbCircle
 10
2.483464181135833
 20
5.59107627521734
 30
0.0
 40
0.0855
  0
LINE
  5
24F
330
2
100
AcDbEntity
  8
0
100
AcDbLine
 10
4.358469104289128
 20
5.796496460662784
 30
0.0
 11
4.358469104289128
 21
5.150049851256064
 31
0.0
  0
LINE
  5
250
330
2
100
AcDbEntity
  8
0
100
AcDbLine
 10
1.726264181135836
 20
0.1980000000000004
 30
0.0
 11
1.726264181135839
 21
10.71607627521734
 31
0.0
  0
LINE
  5
251
330
2
100
AcDbEntity
  8
0
100
AcDbLine
 10
-1.721735818864161
 20
0.1980000000000004
 30
0.0
 11
-1.721735818864163
 21
10.724
 31
0.0
  0
CIRCLE
  5
252
330
2
100
AcDbEntity
  8
0
100
AcDbCircle
 10
-2.865190536619302
 20
3.66082315595941
 30
0.0
 40
0.0855
  0
LINE
  5
253
330
2
100
AcDbEntity
  8
0
100
AcDbLine
 10
-3.136106810695273
 20
1.949385162826484
 30
0.0
 11
-1.721735818864163
 21
0.5350141709953959
 31
0.0
  0
ARC
  5
255
330
2
100
AcDbEntity
  8
0
100
AcDbCircle
 10
-0.7861905366191238
 20
4.194467233672018
 30
0.0
 40
3.25
100
AcDbArc
 50
180.0
 51
225.0000000000005
  0
CIRCLE
  5
257
330
2
100
AcDbEntity
  8
0
100
AcDbCircle
 10
-3.036185818864162
 20
2.474
 30
0.0
 40
0.0855
  0
LINE
  5
258
330
2
100
AcDbEntity
  8
0
100
AcDbLine
 10
-4.036190536619124
 20
4.733996460662791
 30
0.0
 11
-4.036190536619124
 21
4.194467233672018
 31
0.0
  0
CIRCLE
  5
25A
330
2
100
AcDbEntity
  8
0
100
AcDbCircle
 10
-3.348685818864162
 20
3.224
 30
0.0
 40
0.0855
  0
CIRCLE
  5
25C
330
2
100
AcDbEntity
  8
0
100
AcDbCircle
 10
-3.567435818864169
 20
3.849
 30
0.0
 40
0.0855
  0
CIRCLE
  5
25D
330
2
100
AcDbEntity
  8
0
100
AcDbCircle
 10
-3.036185818864162
 20
4.224
 30
0.0
 40
0.0855
  0
CIRCLE
  5
25E
330
2
100
AcDbEntity
  8
0
100
AcDbCircle
 10
-4.098685818864162
 20
5.474
 30
0.0
 40
0.0855
  0
ARC
  5
25F
330
2
100
AcDbEntity
  8
0
100
AcDbCircle
 10
-4.161190742017446
 20
4.741920185445448
 30
0.0
 40
0.125
100
AcDbArc
 50
0.0
 51
45.00000000000014
  0
LINE
  5
260
330
2
100
AcDbEntity
  8
0
100
AcDbLine
 10
-4.312079089665765
 20
5.069585228390405
 30
0.0
 11
-4.072802394369127
 21
4.830308533093767
 31
0.0
  0
ARC
  5
261
330
2
100
AcDbEntity
  8
0
100
AcDbCircle
 10
-4.223690742017446
 20
5.157973576038724
 30
0.0
 40
0.125
100
AcDbArc
 50
180.0
 51
225.0000000000003
  0
CIRCLE
  5
262
330
2
100
AcDbEntity
  8
0
100
AcDbCircle
 10
-3.786185818864162
 20
4.474
 30
0.0
 40
0.0855
  0
CIRCLE
  5
263
330
2
100
AcDbEntity
  8
0
100
AcDbCircle
 10
-3.348685818864162
 20
5.224
 30
0.0
 40
0.0855
  0
LINE
  5
264
330
2
100
AcDbEntity
  8
0
100
AcDbLine
 10
3.088816143145426
 20
1.896370194815688
 30
0.0
 11
1.721014181135839
 21
0.5285682328061157
 31
0.0
  0
ARC
  5
265
330
2
100
AcDbEntity
  8
0
100
AcDbCircle
 10
1.528264181135835
 20
0.1980000000000004
 30
0.0
 40
0.198
100
AcDbArc
 50
270.0
 51
0.0
  0
ARC
  5
266
330
2
100
AcDbEntity
  8
0
100
AcDbCircle
 10
1.528264181135839
 20
0.1980000000000004
 30
0.0
 40
0.099
100
AcDbArc
 50
270.0
 51
0.0
  0
LINE
  5
267
330
2
100
AcDbEntity
  8
0
100
AcDbLine
 10
-1.528264181135835
 20
0.0
 30
0.0
 11
1.528264181135835
 21
0.0
 31
0.0
  0
LINE
  5
268
330
2
100
AcDbEntity
  8
0
100
AcDbLine
 10
-1.528264181135835
 20
0.0990000000000002
 30
0.0
 11
1.528264181135839
 21
0.0990000000000002
 31
0.0
  0
LINE
  5
269
330
2
100
AcDbEntity
  8
0
100
AcDbLine
 10
-0.9436266967711049
 20
0.0
 30
0.0
 11
-0.9436266967711049
 21
0.0990000000000002
 31
0.0
  0
LINE
  5
26A
330
2
100
AcDbEntity
  8
0
100
AcDbLine
 10
-1.443626696771105
 20
0.0
 30
0.0
 11
-1.443626696771105
 21
0.0990000000000002
 31
0.0
  0
ARC
  5
26B
330
2
100
AcDbEntity
  8
0
100
AcDbCircle
 10
-1.523735818864161
 20
0.1980000000000004
 30
0.0
 40
0.198
100
AcDbArc
 50
180.0
 51
270.0
  0
ARC
  5
26C
330
2
100
AcDbEntity
  8
0
100
AcDbCircle
 10
-1.523735818864161
 20
0.1980000000000004
 30
0.0
 40
0.099
100
AcDbArc
 50
180.0
 51
270.0
  0
LINE
  5
26D
330
2
100
AcDbEntity
  8
0
100
AcDbLine
 10
0.9547828136311463
 20
-0.0000000000000071
 30
0.0
 11
0.9547828136311463
 21
0.0989999999999931
 31
0.0
  0
LINE
  5
26E
330
2
100
AcDbEntity
  8
0
100
AcDbLine
 10
1.454782813631148
 20
-0.0000000000000071
 30
0.0
 11
1.454782813631148
 21
0.0989999999999931
 31
0.0
  0
LINE
  5
270
330
2
100
AcDbEntity
  8
0
100
AcDbLine
 10
-1.92028645280039
 20
1.408489567084111
 30
0.0
 11
-1.733346695232083
 21
1.408489567084111
 31
0.0
  0
LINE
  5
271
330
2
100
AcDbEntity
  8
0
100
AcDbLine
 10
-1.9244432788791
 20
1.237489567084111
 30
0.0
 11
-1.733346695232083
 21
1.237489567084111
 31
0.0
  0
ARC
  5
272
330
2
100
AcDbEntity
  8
0
100
AcDbCircle
 10
-1.825479109344339
 20
1.320634378550395
 30
0.0
 40
0.1292554313189278
100
AcDbArc
 50
137.1796312694826
 51
220.0353196785141
  0
CIRCLE
  5
273
330
2
100
AcDbEntity
  8
0
100
AcDbCircle
 10
-2.473685818864155
 20
1.7865
 30
0.0
 40
0.0855
  0
LINE
  5
274
330
2
100
AcDbEntity
  8
0
100
AcDbLine
 10
-1.9244432788791
 20
2.261045707225211
 30
0.0
 11
-1.733346695232083
 21
2.261045707225211
 31
0.0
  0
LINE
  5
275
330
2
100
AcDbEntity
  8
0
100
AcDbLine
 10
-1.92028645280039
 20
2.43204570722521
 30
0.0
 11
-1.733346695232083
 21
2.432045707225207
 31
0.0
  0
ARC
  5
276
330
2
100
AcDbEntity
  8
0
100
AcDbCircle
 10
-1.825479109344339
 20
2.344190518691491
 30
0.0
 40
0.1292554313189278
100
AcDbArc
 50
137.1796312694826
 51
220.0353196785141
  0
LINE
  5
278
330
2
100
AcDbEntity
  8
0
100
AcDbLine
 10
-2.411185818864155
 20
3.056301387062064
 30
0.0
 11
-2.286185818864155
 21
3.056301387062064
 31
0.0
  0
LINE
  5
279
330
2
100
AcDbEntity
  8
0
100
AcDbLine
 10
-2.411185818864155
 20
2.885301387062064
 30
0.0
 11
-2.286185818864155
 21
2.885301387062064
 31
0.0
  0
ARC
  5
27B
330
2
100
AcDbEntity
  8
0
100
AcDbCircle
 10
-2.411185818864155
 20
2.970801387062068
 30
0.0
 40
0.0855
100
AcDbArc
 50
90.00000000000003
 51
270.0
  0
ARC
  5
27C
330
2
100
AcDbEntity
  8
0
100
AcDbCircle
 10
-2.286185818864155
 20
2.970801387062068
 30
0.0
 40
0.0855
100
AcDbArc
 50
270.0
 51
90.00000000000003
  0
ARC
  5
27E
330
2
100
AcDbEntity
  8
0
100
AcDbCircle
 10
-1.825479109344339
 20
4.330080749469921
 30
0.0
 40
0.1292554313189278
100
AcDbArc
 50
137.1796312694826
 51
220.0353196785141
  0
LINE
  5
27F
330
2
100
AcDbEntity
  8
0
100
AcDbLine
 10
-1.9244432788791
 20
3.221466608815547
 30
0.0
 11
-1.733346695232083
 21
3.221466608815547
 31
0.0
  0
LINE
  5
280
330
2
100
AcDbEntity
  8
0
100
AcDbLine
 10
-1.92028645280039
 20
3.392466608815546
 30
0.0
 11
-1.733346695232083
 21
3.392466608815546
 31
0.0
  0
LINE
  5
281
330
2
100
AcDbEntity
  8
0
100
AcDbLine
 10
-1.9244432788791
 20
4.246935938003638
 30
0.0
 11
-1.733346695232083
 21
4.246935938003638
 31
0.0
  0
CIRCLE
  5
282
330
2
100
AcDbEntity
  8
0
100
AcDbCircle
 10
-2.473685818864155
 20
3.474
 30
0.0
 40
0.0855
  0
ARC
  5
283
330
2
100
AcDbEntity
  8
0
100
AcDbCircle
 10
-1.825479109344339
 20
3.30461142028183
 30
0.0
 40
0.1292554313189278
100
AcDbArc
 50
137.1796312694826
 51
220.0353196785141
  0
LINE
  5
284
330
2
100
AcDbEntity
  8
0
100
AcDbLine
 10
-1.92028645280039
 20
4.417935938003637
 30
0.0
 11
-1.733346695232083
 21
4.417935938003637
 31
0.0
  0
LINE
  5
285
330
2
100
AcDbEntity
  8
0
100
AcDbLine
 10
-1.9244432788791
 20
5.270492078144736
 30
0.0
 11
-1.733346695232083
 21
5.270492078144736
 31
0.0
  0
LINE
  5
286
330
2
100
AcDbEntity
  8
0
100
AcDbLine
 10
-1.92028645280039
 20
5.441492078144737
 30
0.0
 11
-1.733346695232083
 21
5.441492078144734
 31
0.0
  0
ARC
  5
288
330
2
100
AcDbEntity
  8
0
100
AcDbCircle
 10
-2.411185818864155
 20
4.974000000000007
 30
0.0
 40
0.0855
100
AcDbArc
 50
90.00000000000003
 51
270.0
  0
ARC
  5
289
330
2
100
AcDbEntity
  8
0
100
AcDbCircle
 10
-2.286185818864155
 20
4.974000000000007
 30
0.0
 40
0.0855
100
AcDbArc
 50
270.0
 51
90.00000000000003
  0
LINE
  5
28B
330
2
100
AcDbEntity
  8
0
100
AcDbLine
 10
-2.411185818864155
 20
4.888500000000004
 30
0.0
 11
-2.286185818864155
 21
4.888500000000004
 31
0.0
  0
LINE
  5
28D
330
2
100
AcDbEntity
  8
0
100
AcDbLine
 10
-2.411185818864155
 20
4.385301387062064
 30
0.0
 11
-2.286185818864155
 21
4.385301387062064
 31
0.0
  0
LINE
  5
28E
330
2
100
AcDbEntity
  8
0
100
AcDbLine
 10
-2.411185818864155
 20
4.556301387062064
 30
0.0
 11
-2.286185818864155
 21
4.556301387062064
 31
0.0
  0
ARC
  5
28F
330
2
100
AcDbEntity
  8
0
100
AcDbCircle
 10
-2.411185818864155
 20
4.470801387062068
 30
0.0
 40
0.0855
100
AcDbArc
 50
90.00000000000003
 51
270.0
  0
ARC
  5
290
330
2
100
AcDbEntity
  8
0
100
AcDbCircle
 10
-2.286185818864155
 20
4.470801387062068
 30
0.0
 40
0.0855
100
AcDbArc
 50
270.0
 51
90.00000000000003
  0
LINE
  5
291
330
2
100
AcDbEntity
  8
0
100
AcDbLine
 10
-2.411185818864155
 20
5.059500000000003
 30
0.0
 11
-2.286185818864155
 21
5.059500000000003
 31
0.0
  0
ARC
  5
293
330
2
100
AcDbEntity
  8
0
100
AcDbCircle
 10
-1.825479109344339
 20
5.353636889611014
 30
0.0
 40
0.1292554313189278
100
AcDbArc
 50
137.1796312694826
 51
220.0353196785141
  0
ARC
  5
294
330
2
100
AcDbEntity
  8
0
100
AcDbCircle
 10
0.7907191042891348
 20
4.194467233672018
 30
0.0
 40
3.25
100
AcDbArc
 50
314.9999999999995
 51
0.0
  0
CIRCLE
  5
295
330
2
100
AcDbEntity
  8
0
100
AcDbCircle
 10
3.358464181135844
 20
3.216076275217343
 30
0.0
 40
0.0855
  0
LINE
  5
296
330
2
100
AcDbEntity
  8
0
100
AcDbLine
 10
1.924814815072068
 20
1.033489567084111
 30
0.0
 11
1.737875057503761
 21
1.033489567084111
 31
0.0
  0
LINE
  5
297
330
2
100
AcDbEntity
  8
0
100
AcDbLine
 10
1.928971641150778
 20
0.8624895670841113
 30
0.0
 11
1.737875057503761
 21
0.8624895670841113
 31
0.0
  0
ARC
  5
298
330
2
100
AcDbEntity
  8
0
100
AcDbCircle
 10
1.830007471616018
 20
0.9456343785503947
 30
0.0
 40
0.1292554313189278
100
AcDbArc
 50
319.9646803214859
 51
42.82036873051739
  0
CIRCLE
  5
299
330
2
100
AcDbEntity
  8
0
100
AcDbCircle
 10
2.483464181135833
 20
1.77857627521734
 30
0.0
 40
0.0855
  0
LINE
  5
29A
330
2
100
AcDbEntity
  8
0
100
AcDbLine
 10
1.924814815072068
 20
2.05704570722521
 30
0.0
 11
1.737875057503761
 21
2.057045707225207
 31
0.0
  0
LINE
  5
29B
330
2
100
AcDbEntity
  8
0
100
AcDbLine
 10
1.928971641150778
 20
1.886045707225211
 30
0.0
 11
1.737875057503761
 21
1.886045707225211
 31
0.0
  0
ARC
  5
29C
330
2
100
AcDbEntity
  8
0
100
AcDbCircle
 10
1.830007471616018
 20
1.969190518691491
 30
0.0
 40
0.1292554313189278
100
AcDbArc
 50
319.9646803214859
 51
42.82036873051739
  0
LINE
  5
29D
330
2
100
AcDbEntity
  8
0
100
AcDbLine
 10
1.924814815072068
 20
3.017466608815546
 30
0.0
 11
1.737875057503761
 21
3.017466608815546
 31
0.0
  0
LINE
  5
29E
330
2
100
AcDbEntity
  8
0
100
AcDbLine
 10
1.928971641150778
 20
2.846466608815547
 30
0.0
 11
1.737875057503761
 21
2.846466608815547
 31
0.0
  0
ARC
  5
29F
330
2
100
AcDbEntity
  8
0
100
AcDbCircle
 10
1.830007471616018
 20
2.92961142028183
 30
0.0
 40
0.1292554313189278
100
AcDbArc
 50
319.9646803214859
 51
42.82036873051739
  0
ARC
  5
2A0
330
2
100
AcDbEntity
  8
0
100
AcDbCircle
 10
2.29596418113583
 20
2.966076275217343
 30
0.0
 40
0.0855
100
AcDbArc
 50
89.99999999999999
 51
270.0
  0
ARC
  5
2A1
330
2
100
AcDbEntity
  8
0
100
AcDbCircle
 10
2.42096418113583
 20
2.966076275217343
 30
0.0
 40
0.0855
100
AcDbArc
 50
270.0
 51
89.99999999999999
  0
LINE
  5
2A2
330
2
100
AcDbEntity
  8
0
100
AcDbLine
 10
2.42096418113583
 20
3.051576275217347
 30
0.0
 11
2.29596418113583
 21
3.051576275217347
 31
0.0
  0
LINE
  5
2A3
330
2
100
AcDbEntity
  8
0
100
AcDbLine
 10
2.42096418113583
 20
2.880576275217347
 30
0.0
 11
2.29596418113583
 21
2.880576275217347
 31
0.0
  0
CIRCLE
  5
2A4
330
2
100
AcDbEntity
  8
0
100
AcDbCircle
 10
3.045964181135844
 20
2.466076275217343
 30
0.0
 40
0.0855
  0
CIRCLE
  5
2A5
330
2
100
AcDbEntity
  8
0
100
AcDbCircle
 10
3.795964181135844
 20
4.466076275217343
 30
0.0
 40
0.0855
  0
ARC
  5
2A6
330
2
100
AcDbEntity
  8
0
100
AcDbCircle
 10
2.42096418113583
 20
4.466076275217343
 30
0.0
 40
0.0855
100
AcDbArc
 50
270.0
 51
89.99999999999999
  0
ARC
  5
2A7
330
2
100
AcDbEntity
  8
0
100
AcDbCircle
 10
2.29596418113583
 20
4.466076275217343
 30
0.0
 40
0.0855
100
AcDbArc
 50
89.99999999999999
 51
270.0
  0
CIRCLE
  5
2A8
330
2
100
AcDbEntity
  8
0
100
AcDbCircle
 10
2.483464181135833
 20
3.466076275217343
 30
0.0
 40
0.0855
  0
LINE
  5
2A9
330
2
100
AcDbEntity
  8
0
100
AcDbLine
 10
1.924814815072068
 20
4.042935938003637
 30
0.0
 11
1.737875057503761
 21
4.042935938003637
 31
0.0
  0
LINE
  5
2AA
330
2
100
AcDbEntity
  8
0
100
AcDbLine
 10
1.928971641150778
 20
3.871935938003638
 30
0.0
 11
1.737875057503761
 21
3.871935938003638
 31
0.0
  0
ARC
  5
2AB
330
2
100
AcDbEntity
  8
0
100
AcDbCircle
 10
1.830007471616018
 20
3.955080749469921
 30
0.0
 40
0.1292554313189278
100
AcDbArc
 50
319.9646803214859
 51
42.82036873051739
  0
LINE
  5
2AC
330
2
100
AcDbEntity
  8
0
100
AcDbLine
 10
2.42096418113583
 20
4.380576275217347
 30
0.0
 11
2.29596418113583
 21
4.380576275217347
 31
0.0
  0
CIRCLE
  5
2AD
330
2
100
AcDbEntity
  8
0
100
AcDbCircle
 10
3.577214181135844
 20
3.84107627521734
 30
0.0
 40
0.0855
  0
CIRCLE
  5
2AE
330
2
100
AcDbEntity
  8
0
100
AcDbCircle
 10
2.869719104289313
 20
3.66082315595941
 30
0.0
 40
0.0855
  0
CIRCLE
  5
2AF
330
2
100
AcDbEntity
  8
0
100
AcDbCircle
 10
3.045964181135844
 20
4.216076275217343
 30
0.0
 40
0.0855
  0
ARC
  5
2B0
330
2
100
AcDbEntity
  8
0
100
AcDbCircle
 10
2.29596418113583
 20
4.966076275217347
 30
0.0
 40
0.0855
100
AcDbArc
 50
89.99999999999999
 51
270.0
  0
ARC
  5
2B1
330
2
100
AcDbEntity
  8
0
100
AcDbCircle
 10
2.42096418113583
 20
4.966076275217347
 30
0.0
 40
0.0855
100
AcDbArc
 50
270.0
 51
89.99999999999999
  0
ARC
  5
2B2
330
2
100
AcDbEntity
  8
0
100
AcDbCircle
 10
1.830007471616018
 20
4.978636889611018
 30
0.0
 40
0.1292554313189278
100
AcDbArc
 50
319.9646803214859
 51
42.82036873051739
  0
LINE
  5
2B3
330
2
100
AcDbEntity
  8
0
100
AcDbLine
 10
1.928971641150778
 20
4.895492078144734
 30
0.0
 11
1.737875057503761
 21
4.895492078144734
 31
0.0
  0
LINE
  5
2B4
330
2
100
AcDbEntity
  8
0
100
AcDbLine
 10
2.42096418113583
 20
4.880576275217347
 30
0.0
 11
2.29596418113583
 21
4.880576275217347
 31
0.0
  0
LINE
  5
2B5
330
2
100
AcDbEntity
  8
0
100
AcDbLine
 10
2.42096418113583
 20
4.551576275217347
 30
0.0
 11
2.29596418113583
 21
4.551576275217347
 31
0.0
  0
LINE
  5
2B6
330
2
100
AcDbEntity
  8
0
100
AcDbLine
 10
1.924814815072068
 20
5.066492078144734
 30
0.0
 11
1.737875057503761
 21
5.066492078144734
 31
0.0
  0
LINE
  5
2B7
330
2
100
AcDbEntity
  8
0
100
AcDbLine
 10
2.42096418113583
 20
5.051576275217347
 30
0.0
 11
2.29596418113583
 21
5.051576275217347
 31
0.0
  0
CIRCLE
  5
2B8
330
2
100
AcDbEntity
  8
0
100
AcDbCircle
 10
3.358464181135844
 20
5.21607627521734
 30
0.0
 40
0.0855
  0
LINE
  5
2B9
330
2
100
AcDbEntity
  8
0
100
AcDbLine
 10
4.040719104289135
 20
4.194467233672018
 30
0.0
 11
4.045969104289128
 21
4.733996460662791
 31
0.0
  0
LINE
  5
2BA
330
2
100
AcDbEntity
  8
0
100
AcDbLine
 10
4.32185745193744
 20
5.061661503607745
 30
0.0
 11
4.082580756640809
 21
4.82238480831111
 31
0.0
  0
ARC
  5
2BB
330
2
100
AcDbEntity
  8
0
100
AcDbCircle
 10
4.170969104289128
 20
4.733996460662791
 30
0.0
 40
0.125
100
AcDbArc
 50
134.9999999999999
 51
180.0
  0
CIRCLE
  5
2BC
330
2
100
AcDbEntity
  8
0
100
AcDbCircle
 10
4.108464181135844
 20
5.46607627521734
 30
0.0
 40
0.0855
  0
ARC
  5
2BD
330
2
100
AcDbEntity
  8
0
100
AcDbCircle
 10
4.233469104289128
 20
5.150049851256064
 30
0.0
 40
0.125
100
AcDbArc
 50
314.9999999999997
 51
0.0
  0
LINE
  5
2BE
330
2
100
AcDbEntity
  8
0
100
AcDbLine
 10
-1.622735818864165
 20
10.724
 30
0.0
 11
-4.036190742017446
 21
10.724
 31
0.0
  0
LINE
  5
2BF
330
2
100
AcDbEntity
  8
0
100
AcDbLine
 10
-4.036190742017446
 20
10.724
 30
0.0
 11
-4.036190742017446
 21
10.22047357603872
 31
0.0
  0
ARC
  5
2C0
330
2
100
AcDbEntity
  8
0
100
AcDbCircle
 10
-4.161190742017446
 20
8.220473576038717
 30
0.0
 40
0.125
100
AcDbArc
 50
315.0
 51
0.0
  0
LINE
  5
2C1
330
2
100
AcDbEntity
  8
0
100
AcDbLine
 10
-4.072802394369127
 20
8.132085228390398
 30
0.0
 11
-4.312079089665765
 21
7.89280853309376
 31
0.0
  0
LINE
  5
2C2
330
2
100
AcDbEntity
  8
0
100
AcDbLine
 10
-4.312079089665765
 20
7.069585228390405
 30
0.0
 11
-4.072802394369127
 21
6.830308533093767
 31
0.0
  0
ARC
  5
2C3
330
2
100
AcDbEntity
  8
0
100
AcDbCircle
 10
-4.161190742017446
 20
6.741920185445448
 30
0.0
 40
0.125
100
AcDbArc
 50
0.0
 51
45.00000000000014
  0
ARC
  5
2C4
330
2
100
AcDbEntity
  8
0
100
AcDbCircle
 10
-4.161190742017446
 20
6.220473576038717
 30
0.0
 40
0.125
100
AcDbArc
 50
315.0
 51
0.0
  0
ARC
  5
2C5
330
2
100
AcDbEntity
  8
0
100
AcDbCircle
 10
-4.223690742017446
 20
5.804420185445441
 30
0.0
 40
0.125
100
AcDbArc
 50
134.9999999999996
 51
180.0
  0
LINE
  5
2C6
330
2
100
AcDbEntity
  8
0
100
AcDbLine
 10
-4.072802394369127
 20
6.132085228390398
 30
0.0
 11
-4.312079089665765
 21
5.89280853309376
 31
0.0
  0
LINE
  5
2C7
330
2
100
AcDbEntity
  8
0
100
AcDbLine
 10
-4.036190742017446
 20
6.220473677651089
 30
0.0
 11
-4.036190742017446
 21
6.723999999999997
 31
0.0
  0
LINE
  5
2C8
330
2
100
AcDbEntity
  8
0
100
AcDbLine
 10
-4.036190742017446
 20
6.723999999999997
 30
0.0
 11
-4.036190742017446
 21
6.220473576038717
 31
0.0
  0
CIRCLE
  5
2C9
330
2
100
AcDbEntity
  8
0
100
AcDbCircle
 10
-3.036185818864162
 20
6.224000000000007
 30
0.0
 40
0.0855
  0
CIRCLE
  5
2CA
330
2
100
AcDbEntity
  8
0
100
AcDbCircle
 10
-3.567435818864169
 20
5.849
 30
0.0
 40
0.0855
  0
CIRCLE
  5
2CB
330
2
100
AcDbEntity
  8
0
100
AcDbCircle
 10
-3.786185818864162
 20
6.474000000000007
 30
0.0
 40
0.0855
  0
CIRCLE
  5
2CC
330
2
100
AcDbEntity
  8
0
100
AcDbCircle
 10
-4.098685818864162
 20
7.474
 30
0.0
 40
0.0855
  0
LINE
  5
2CD
330
2
100
AcDbEntity
  8
0
100
AcDbLine
 10
-4.348690742017446
 20
7.804420185445441
 30
0.0
 11
-4.348690742017446
 21
7.157973576038724
 31
0.0
  0
ARC
  5
2CE
330
2
100
AcDbEntity
  8
0
100
AcDbCircle
 10
-4.223690742017446
 20
7.157973576038724
 30
0.0
 40
0.125
100
AcDbArc
 50
180.0
 51
225.0000000000003
  0
ARC
  5
2CF
330
2
100
AcDbEntity
  8
0
100
AcDbCircle
 10
-4.223690742017446
 20
7.804420185445441
 30
0.0
 40
0.125
100
AcDbArc
 50
134.9999999999996
 51
180.0
  0
CIRCLE
  5
2D0
330
2
100
AcDbEntity
  8
0
100
AcDbCircle
 10
-3.348685818864162
 20
7.224
 30
0.0
 40
0.0855
  0
LINE
  5
2D1
330
2
100
AcDbEntity
  8
0
100
AcDbLine
 10
-4.348690742017446
 20
9.804420185445441
 30
0.0
 11
-4.348690742017446
 21
9.157973576038724
 31
0.0
  0
ARC
  5
2D2
330
2
100
AcDbEntity
  8
0
100
AcDbCircle
 10
-4.161190742017446
 20
8.741920185445448
 30
0.0
 40
0.125
100
AcDbArc
 50
0.0
 51
45.00000000000014
  0
ARC
  5
2D3
330
2
100
AcDbEntity
  8
0
100
AcDbCircle
 10
-4.223690742017446
 20
9.157973576038724
 30
0.0
 40
0.125
100
AcDbArc
 50
180.0
 51
225.0000000000003
  0
LINE
  5
2D4
330
2
100
AcDbEntity
  8
0
100
AcDbLine
 10
-4.312079089665765
 20
9.069585228390405
 30
0.0
 11
-4.072802394369127
 21
8.830308533093767
 31
0.0
  0
LINE
  5
2D5
330
2
100
AcDbEntity
  8
0
100
AcDbLine
 10
-4.036190742017446
 20
8.723999999999997
 30
0.0
 11
-4.036190742017446
 21
8.220473576038717
 31
0.0
  0
LINE
  5
2D6
330
2
100
AcDbEntity
  8
0
100
AcDbLine
 10
-4.036190742017446
 20
8.220473677651089
 30
0.0
 11
-4.036190742017446
 21
8.723999999999997
 31
0.0
  0
LINE
  5
2D7
330
2
100
AcDbEntity
  8
0
100
AcDbLine
 10
-4.036190742017446
 20
8.723999999999997
 30
0.0
 11
-4.036190742017446
 21
8.220473576038717
 31
0.0
  0
LINE
  5
2D8
330
2
100
AcDbEntity
  8
0
100
AcDbLine
 10
-4.036190742017446
 20
8.220473677651089
 30
0.0
 11
-4.036190742017446
 21
8.723999999999997
 31
0.0
  0
CIRCLE
  5
2D9
330
2
100
AcDbEntity
  8
0
100
AcDbCircle
 10
-3.786185818864162
 20
8.474000000000007
 30
0.0
 40
0.0855
  0
CIRCLE
  5
2DA
330
2
100
AcDbEntity
  8
0
100
AcDbCircle
 10
-3.348685818864162
 20
9.224
 30
0.0
 40
0.0855
  0
ARC
  5
2DB
330
2
100
AcDbEntity
  8
0
100
AcDbCircle
 10
-4.161190742017446
 20
10.22047357603872
 30
0.0
 40
0.125
100
AcDbArc
 50
315.0
 51
0.0
  0
CIRCLE
  5
2DC
330
2
100
AcDbEntity
  8
0
100
AcDbCircle
 10
-4.098685818864162
 20
9.474
 30
0.0
 40
0.0855
  0
LINE
  5
2DD
330
2
100
AcDbEntity
  8
0
100
AcDbLine
 10
-4.072802394369127
 20
10.1320852283904
 30
0.0
 11
-4.312079089665765
 21
9.89280853309376
 31
0.0
  0
ARC
  5
2DE
330
2
100
AcDbEntity
  8
0
100
AcDbCircle
 10
-4.223690742017446
 20
9.804420185445441
 30
0.0
 40
0.125
100
AcDbArc
 50
134.9999999999996
 51
180.0
  0
CIRCLE
  5
2DF
330
2
100
AcDbEntity
  8
0
100
AcDbCircle
 10
-3.786185818864162
 20
10.47400000000001
 30
0.0
 40
0.0855
  0
LINE
  5
2E0
330
2
100
AcDbEntity
  8
0
100
AcDbLine
 10
4.045969104289128
 20
10.71607627521734
 30
0.0
 11
4.045969104289128
 21
10.21254985125606
 31
0.0
  0
LINE
  5
2E1
330
2
100
AcDbEntity
  8
0
100
AcDbLine
 10
-1.92028645280039
 20
6.441492078144737
 30
0.0
 11
-1.733346695232083
 21
6.441492078144734
 31
0.0
  0
LINE
  5
2E2
330
2
100
AcDbEntity
  8
0
100
AcDbLine
 10
-1.9244432788791
 20
6.270492078144734
 30
0.0
 11
-1.733346695232083
 21
6.270492078144734
 31
0.0
  0
LINE
  5
2E3
330
2
100
AcDbEntity
  8
0
100
AcDbLine
 10
-2.411185818864155
 20
6.388500000000004
 30
0.0
 11
-2.286185818864155
 21
6.388500000000004
 31
0.0
  0
LINE
  5
2E4
330
2
100
AcDbEntity
  8
0
100
AcDbLine
 10
-2.411185818864155
 20
6.559500000000003
 30
0.0
 11
-2.286185818864155
 21
6.559500000000003
 31
0.0
  0
ARC
  5
2E5
330
2
100
AcDbEntity
  8
0
100
AcDbCircle
 10
-2.411185818864155
 20
6.474000000000007
 30
0.0
 40
0.0855
100
AcDbArc
 50
90.00000000000003
 51
270.0
  0
ARC
  5
2E6
330
2
100
AcDbEntity
  8
0
100
AcDbCircle
 10
-1.825479109344339
 20
6.353636889611014
 30
0.0
 40
0.1292554313189278
100
AcDbArc
 50
137.1796312694826
 51
220.0353196785141
  0
ARC
  5
2E7
330
2
100
AcDbEntity
  8
0
100
AcDbCircle
 10
-2.286185818864155
 20
6.474000000000007
 30
0.0
 40
0.0855
100
AcDbArc
 50
270.0
 51
90.00000000000003
  0
LINE
  5
2E8
330
2
100
AcDbEntity
  8
0
100
AcDbLine
 10
-1.721735818864161
 20
6.523999999999997
 30
0.0
 11
-1.721735818864161
 21
6.423999999999996
 31
0.0
  0
LINE
  5
2E9
330
2
100
AcDbEntity
  8
0
100
AcDbLine
 10
-1.9244432788791
 20
7.256382308923168
 30
0.0
 11
-1.733346695232083
 21
7.256382308923168
 31
0.0
  0
LINE
  5
2EA
330
2
100
AcDbEntity
  8
0
100
AcDbLine
 10
-1.92028645280039
 20
7.427382308923168
 30
0.0
 11
-1.733346695232083
 21
7.427382308923164
 31
0.0
  0
ARC
  5
2EB
330
2
100
AcDbEntity
  8
0
100
AcDbCircle
 10
-1.825479109344339
 20
7.339527120389445
 30
0.0
 40
0.1292554313189278
100
AcDbArc
 50
137.1796312694826
 51
220.0353196785141
  0
CIRCLE
  5
2EC
330
2
100
AcDbEntity
  8
0
100
AcDbCircle
 10
-2.473685818864155
 20
7.599
 30
0.0
 40
0.0855
  0
LINE
  5
2ED
330
2
100
AcDbEntity
  8
0
100
AcDbLine
 10
-1.721735818864161
 20
7.523999999999997
 30
0.0
 11
-1.721735818864161
 21
7.423999999999996
 31
0.0
  0
ARC
  5
2EE
330
2
100
AcDbEntity
  8
0
100
AcDbCircle
 10
-1.825479109344339
 20
9.339527120389445
 30
0.0
 40
0.1292554313189278
100
AcDbArc
 50
137.1796312694826
 51
220.0353196785141
  0
LINE
  5
2EF
330
2
100
AcDbEntity
  8
0
100
AcDbLine
 10
-1.92028645280039
 20
8.427382308923168
 30
0.0
 11
-1.733346695232083
 21
8.427382308923164
 31
0.0
  0
LINE
  5
2F0
330
2
100
AcDbEntity
  8
0
100
AcDbLine
 10
-1.9244432788791
 20
8.256382308923168
 30
0.0
 11
-1.733346695232083
 21
8.256382308923168
 31
0.0
  0
LINE
  5
2F1
330
2
100
AcDbEntity
  8
0
100
AcDbLine
 10
-1.9244432788791
 20
9.256382308923168
 30
0.0
 11
-1.733346695232083
 21
9.256382308923168
 31
0.0
  0
LINE
  5
2F2
330
2
100
AcDbEntity
  8
0
100
AcDbLine
 10
-2.411185818864155
 20
8.559500000000003
 30
0.0
 11
-2.286185818864155
 21
8.559500000000003
 31
0.0
  0
LINE
  5
2F3
330
2
100
AcDbEntity
  8
0
100
AcDbLine
 10
-2.411185818864155
 20
8.388500000000004
 30
0.0
 11
-2.286185818864155
 21
8.388500000000004
 31
0.0
  0
ARC
  5
2F4
330
2
100
AcDbEntity
  8
0
100
AcDbCircle
 10
-2.411185818864155
 20
8.474000000000007
 30
0.0
 40
0.0855
100
AcDbArc
 50
90.00000000000003
 51
270.0
  0
ARC
  5
2F5
330
2
100
AcDbEntity
  8
0
100
AcDbCircle
 10
-1.825479109344339
 20
8.339527120389445
 30
0.0
 40
0.1292554313189278
100
AcDbArc
 50
137.1796312694826
 51
220.0353196785141
  0
ARC
  5
2F6
330
2
100
AcDbEntity
  8
0
100
AcDbCircle
 10
-2.286185818864155
 20
8.474000000000007
 30
0.0
 40
0.0855
100
AcDbArc
 50
270.0
 51
90.00000000000003
  0
LINE
  5
2F7
330
2
100
AcDbEntity
  8
0
100
AcDbLine
 10
-1.92028645280039
 20
10.42738230892317
 30
0.0
 11
-1.733346695232083
 21
10.42738230892316
 31
0.0
  0
LINE
  5
2F8
330
2
100
AcDbEntity
  8
0
100
AcDbLine
 10
-1.9244432788791
 20
10.25638230892317
 30
0.0
 11
-1.733346695232083
 21
10.25638230892317
 31
0.0
  0
LINE
  5
2F9
330
2
100
AcDbEntity
  8
0
100
AcDbLine
 10
-1.92028645280039
 20
9.427382308923168
 30
0.0
 11
-1.733346695232083
 21
9.427382308923164
 31
0.0
  0
CIRCLE
  5
2FA
330
2
100
AcDbEntity
  8
0
100
AcDbCircle
 10
-2.473685818864155
 20
9.599
 30
0.0
 40
0.0855
  0
LINE
  5
2FC
330
2
100
AcDbEntity
  8
0
100
AcDbLine
 10
-2.411185818864155
 20
10.3885
 30
0.0
 11
-2.286185818864155
 21
10.3885
 31
0.0
  0
LINE
  5
2FD
330
2
100
AcDbEntity
  8
0
100
AcDbLine
 10
-2.411185818864155
 20
10.5595
 30
0.0
 11
-2.286185818864155
 21
10.5595
 31
0.0
  0
ARC
  5
2FE
330
2
100
AcDbEntity
  8
0
100
AcDbCircle
 10
-2.411185818864155
 20
10.47400000000001
 30
0.0
 40
0.0855
100
AcDbArc
 50
90.00000000000003
 51
270.0
  0
ARC
  5
2FF
330
2
100
AcDbEntity
  8
0
100
AcDbCircle
 10
-1.825479109344339
 20
10.33952712038945
 30
0.0
 40
0.1292554313189278
100
AcDbArc
 50
137.1796312694826
 51
220.0353196785141
  0
ARC
  5
301
330
2
100
AcDbEntity
  8
0
100
AcDbCircle
 10
-2.286185818864155
 20
10.47400000000001
 30
0.0
 40
0.0855
100
AcDbArc
 50
270.0
 51
90.00000000000003
  0
ARC
  5
302
330
2
100
AcDbEntity
  8
0
100
AcDbCircle
 10
4.170969104289128
 20
8.21254985125606
 30
0.0
 40
0.125
100
AcDbArc
 50
180.0
 51
225.0000000000001
  0
CIRCLE
  5
303
330
2
100
AcDbEntity
  8
0
100
AcDbCircle
 10
3.795964181135837
 20
6.466076275217347
 30
0.0
 40
0.0855
  0
LINE
  5
304
330
2
100
AcDbEntity
  8
0
100
AcDbLine
 10
1.924814815072068
 20
6.066492078144734
 30
0.0
 11
1.737875057503761
 21
6.066492078144734
 31
0.0
  0
LINE
  5
305
330
2
100
AcDbEntity
  8
0
100
AcDbLine
 10
1.928971641150778
 20
5.895492078144734
 30
0.0
 11
1.737875057503761
 21
5.895492078144734
 31
0.0
  0
ARC
  5
306
330
2
100
AcDbEntity
  8
0
100
AcDbCircle
 10
1.830007471616018
 20
5.978636889611018
 30
0.0
 40
0.1292554313189278
100
AcDbArc
 50
319.9646803214859
 51
42.82036873051739
  0
LINE
  5
307
330
2
100
AcDbEntity
  8
0
100
AcDbLine
 10
2.42096418113583
 20
6.380576275217347
 30
0.0
 11
2.29596418113583
 21
6.380576275217347
 31
0.0
  0
LINE
  5
308
330
2
100
AcDbEntity
  8
0
100
AcDbLine
 10
2.42096418113583
 20
6.551576275217347
 30
0.0
 11
2.29596418113583
 21
6.551576275217347
 31
0.0
  0
ARC
  5
309
330
2
100
AcDbEntity
  8
0
100
AcDbCircle
 10
2.42096418113583
 20
6.466076275217347
 30
0.0
 40
0.0855
100
AcDbArc
 50
270.0
 51
89.99999999999999
  0
ARC
  5
30A
330
2
100
AcDbEntity
  8
0
100
AcDbCircle
 10
2.29596418113583
 20
6.466076275217347
 30
0.0
 40
0.0855
100
AcDbArc
 50
89.99999999999999
 51
270.0
  0
CIRCLE
  5
30B
330
2
100
AcDbEntity
  8
0
100
AcDbCircle
 10
3.045964181135837
 20
6.216076275217347
 30
0.0
 40
0.0855
  0
CIRCLE
  5
30C
330
2
100
AcDbEntity
  8
0
100
AcDbCircle
 10
3.577214181135844
 20
5.84107627521734
 30
0.0
 40
0.0855
  0
LINE
  5
30D
330
2
100
AcDbEntity
  8
0
100
AcDbLine
 10
1.924814815072068
 20
7.052382308923168
 30
0.0
 11
1.737875057503761
 21
7.052382308923164
 31
0.0
  0
LINE
  5
30E
330
2
100
AcDbEntity
  8
0
100
AcDbLine
 10
1.928971641150778
 20
6.881382308923168
 30
0.0
 11
1.737875057503761
 21
6.881382308923168
 31
0.0
  0
ARC
  5
30F
330
2
100
AcDbEntity
  8
0
100
AcDbCircle
 10
1.830007471616018
 20
6.964527120389445
 30
0.0
 40
0.1292554313189278
100
AcDbArc
 50
319.9646803214859
 51
42.82036873051739
  0
ARC
  5
310
330
2
100
AcDbEntity
  8
0
100
AcDbCircle
 10
1.830007471616018
 20
7.964527120389445
 30
0.0
 40
0.1292554313189278
100
AcDbArc
 50
319.9646803214859
 51
42.82036873051739
  0
LINE
  5
311
330
2
100
AcDbEntity
  8
0
100
AcDbLine
 10
1.928971641150778
 20
7.881382308923168
 30
0.0
 11
1.737875057503761
 21
7.881382308923168
 31
0.0
  0
LINE
  5
312
330
2
100
AcDbEntity
  8
0
100
AcDbLine
 10
1.924814815072068
 20
8.052382308923168
 30
0.0
 11
1.737875057503761
 21
8.052382308923164
 31
0.0
  0
CIRCLE
  5
313
330
2
100
AcDbEntity
  8
0
100
AcDbCircle
 10
2.483464181135833
 20
7.84107627521734
 30
0.0
 40
0.0855
  0
CIRCLE
  5
314
330
2
100
AcDbEntity
  8
0
100
AcDbCircle
 10
3.358464181135844
 20
7.21607627521734
 30
0.0
 40
0.0855
  0
LINE
  5
315
330
2
100
AcDbEntity
  8
0
100
AcDbLine
 10
4.32185745193744
 20
7.061661503607745
 30
0.0
 11
4.082580756640809
 21
6.82238480831111
 31
0.0
  0
LINE
  5
316
330
2
100
AcDbEntity
  8
0
100
AcDbLine
 10
4.045969104289121
 20
6.212549952868432
 30
0.0
 11
4.045969104289121
 21
6.716076275217336
 31
0.0
  0
LINE
  5
317
330
2
100
AcDbEntity
  8
0
100
AcDbLine
 10
4.045969104289128
 20
6.716076275217336
 30
0.0
 11
4.045969104289128
 21
6.21254985125606
 31
0.0
  0
ARC
  5
318
330
2
100
AcDbEntity
  8
0
100
AcDbCircle
 10
4.170969104289128
 20
6.21254985125606
 30
0.0
 40
0.125
100
AcDbArc
 50
180.0
 51
225.0000000000001
  0
ARC
  5
319
330
2
100
AcDbEntity
  8
0
100
AcDbCircle
 10
4.233469104289128
 20
5.796496460662784
 30
0.0
 40
0.125
100
AcDbArc
 50
0.0
 51
45.00000000000033
  0
LINE
  5
31A
330
2
100
AcDbEntity
  8
0
100
AcDbLine
 10
4.082580756640809
 20
6.124161503607741
 30
0.0
 11
4.32185745193744
 21
5.884884808311103
 31
0.0
  0
ARC
  5
31B
330
2
100
AcDbEntity
  8
0
100
AcDbCircle
 10
4.170969104289128
 20
6.733996460662791
 30
0.0
 40
0.125
100
AcDbArc
 50
134.9999999999999
 51
180.0
  0
CIRCLE
  5
31C
330
2
100
AcDbEntity
  8
0
100
AcDbCircle
 10
4.108464181135844
 20
7.46607627521734
 30
0.0
 40
0.0855
  0
LINE
  5
31D
330
2
100
AcDbEntity
  8
0
100
AcDbLine
 10
4.358469104289128
 20
7.796496460662784
 30
0.0
 11
4.358469104289128
 21
7.150049851256064
 31
0.0
  0
ARC
  5
31E
330
2
100
AcDbEntity
  8
0
100
AcDbCircle
 10
4.233469104289128
 20
7.150049851256064
 30
0.0
 40
0.125
100
AcDbArc
 50
314.9999999999997
 51
0.0
  0
LINE
  5
31F
330
2
100
AcDbEntity
  8
0
100
AcDbLine
 10
4.082580756640809
 20
8.124161503607741
 30
0.0
 11
4.32185745193744
 21
7.884884808311103
 31
0.0
  0
ARC
  5
320
330
2
100
AcDbEntity
  8
0
100
AcDbCircle
 10
4.233469104289128
 20
7.796496460662784
 30
0.0
 40
0.125
100
AcDbArc
 50
0.0
 51
45.00000000000033
  0
CIRCLE
  5
321
330
2
100
AcDbEntity
  8
0
100
AcDbCircle
 10
3.795964181135837
 20
10.46607627521735
 30
0.0
 40
0.0855
  0
CIRCLE
  5
322
330
2
100
AcDbEntity
  8
0
100
AcDbCircle
 10
3.795964181135837
 20
8.466076275217347
 30
0.0
 40
0.0855
  0
LINE
  5
323
330
2
100
AcDbEntity
  8
0
100
AcDbLine
 10
2.42096418113583
 20
8.551576275217347
 30
0.0
 11
2.29596418113583
 21
8.551576275217347
 31
0.0
  0
LINE
  5
324
330
2
100
AcDbEntity
  8
0
100
AcDbLine
 10
2.42096418113583
 20
8.380576275217347
 30
0.0
 11
2.29596418113583
 21
8.380576275217347
 31
0.0
  0
ARC
  5
325
330
2
100
AcDbEntity
  8
0
100
AcDbCircle
 10
2.29596418113583
 20
8.466076275217347
 30
0.0
 40
0.0855
100
AcDbArc
 50
89.99999999999999
 51
270.0
  0
ARC
  5
326
330
2
100
AcDbEntity
  8
0
100
AcDbCircle
 10
2.42096418113583
 20
8.466076275217347
 30
0.0
 40
0.0855
100
AcDbArc
 50
270.0
 51
89.99999999999999
  0
ARC
  5
327
330
2
100
AcDbEntity
  8
0
100
AcDbCircle
 10
1.830007471616018
 20
8.964527120389445
 30
0.0
 40
0.1292554313189278
100
AcDbArc
 50
319.9646803214859
 51
42.82036873051739
  0
LINE
  5
328
330
2
100
AcDbEntity
  8
0
100
AcDbLine
 10
1.928971641150778
 20
8.881382308923168
 30
0.0
 11
1.737875057503761
 21
8.881382308923168
 31
0.0
  0
LINE
  5
329
330
2
100
AcDbEntity
  8
0
100
AcDbLine
 10
1.924814815072068
 20
9.052382308923168
 30
0.0
 11
1.737875057503761
 21
9.052382308923164
 31
0.0
  0
CIRCLE
  5
32A
330
2
100
AcDbEntity
  8
0
100
AcDbCircle
 10
3.358464181135844
 20
9.21607627521734
 30
0.0
 40
0.0855
  0
ARC
  5
32B
330
2
100
AcDbEntity
  8
0
100
AcDbCircle
 10
1.830007471616018
 20
9.964527120389445
 30
0.0
 40
0.1292554313189278
100
AcDbArc
 50
319.9646803214859
 51
42.82036873051739
  0
LINE
  5
32C
330
2
100
AcDbEntity
  8
0
100
AcDbLine
 10
1.928971641150778
 20
9.881382308923168
 30
0.0
 11
1.737875057503761
 21
9.881382308923168
 31
0.0
  0
CIRCLE
  5
32D
330
2
100
AcDbEntity
  8
0
100
AcDbCircle
 10
2.483464181135833
 20
9.84107627521734
 30
0.0
 40
0.0855
  0
LINE
  5
32E
330
2
100
AcDbEntity
  8
0
100
AcDbLine
 10
1.924814815072068
 20
10.05238230892317
 30
0.0
 11
1.737875057503761
 21
10.05238230892316
 31
0.0
  0
LINE
  5
32F
330
2
100
AcDbEntity
  8
0
100
AcDbLine
 10
2.42096418113583
 20
10.55157627521735
 30
0.0
 11
2.29596418113583
 21
10.55157627521735
 31
0.0
  0
LINE
  5
330
330
2
100
AcDbEntity
  8
0
100
AcDbLine
 10
2.42096418113583
 20
10.38057627521735
 30
0.0
 11
2.29596418113583
 21
10.38057627521735
 31
0.0
  0
ARC
  5
331
330
2
100
AcDbEntity
  8
0
100
AcDbCircle
 10
2.42096418113583
 20
10.46607627521735
 30
0.0
 40
0.0855
100
AcDbArc
 50
270.0
 51
89.99999999999999
  0
ARC
  5
332
330
2
100
AcDbEntity
  8
0
100
AcDbCircle
 10
2.29596418113583
 20
10.46607627521735
 30
0.0
 40
0.0855
100
AcDbArc
 50
89.99999999999999
 51
270.0
  0
CIRCLE
  5
333
330
2
100
AcDbEntity
  8
0
100
AcDbCircle
 10
4.108464181135844
 20
9.46607627521734
 30
0.0
 40
0.0855
  0
LINE
  5
334
330
2
100
AcDbEntity
  8
0
100
AcDbLine
 10
4.358469104289128
 20
9.796496460662784
 30
0.0
 11
4.358469104289128
 21
9.150049851256064
 31
0.0
  0
ARC
  5
335
330
2
100
AcDbEntity
  8
0
100
AcDbCircle
 10
4.170969104289128
 20
8.733996460662791
 30
0.0
 40
0.125
100
AcDbArc
 50
134.9999999999999
 51
180.0
  0
LINE
  5
336
330
2
100
AcDbEntity
  8
0
100
AcDbLine
 10
4.045969104289128
 20
8.733996460662791
 30
0.0
 11
4.045969104289128
 21
8.21254985125606
 31
0.0
  0
LINE
  5
337
330
2
100
AcDbEntity
  8
0
100
AcDbLine
 10
4.045969104289121
 20
8.212549952868432
 30
0.0
 11
4.045969104289121
 21
8.716076275217336
 31
0.0
  0
LINE
  5
338
330
2
100
AcDbEntity
  8
0
100
AcDbLine
 10
4.32185745193744
 20
9.061661503607745
 30
0.0
 11
4.082580756640809
 21
8.82238480831111
 31
0.0
  0
ARC
  5
339
330
2
100
AcDbEntity
  8
0
100
AcDbCircle
 10
4.233469104289128
 20
9.150049851256064
 30
0.0
 40
0.125
100
AcDbArc
 50
314.9999999999997
 51
0.0
  0
LINE
  5
33A
330
2
100
AcDbEntity
  8
0
100
AcDbLine
 10
4.082580756640809
 20
10.12416150360774
 30
0.0
 11
4.32185745193744
 21
9.884884808311103
 31
0.0
  0
ARC
  5
33B
330
2
100
AcDbEntity
  8
0
100
AcDbCircle
 10
4.233469104289128
 20
9.796496460662784
 30
0.0
 40
0.125
100
AcDbArc
 50
0.0
 51
45.00000000000033
  0
ARC
  5
33C
330
2
100
AcDbEntity
  8
0
100
AcDbCircle
 10
4.170969104289128
 20
10.21254985125606
 30
0.0
 40
0.125
100
AcDbArc
 50
180.0
 51
225.0000000000001
  0
LINE
  5
33D
330
2
100
AcDbEntity
  8
0
100
AcDbLine
 10
1.627264181135839
 20
10.71607627521734
 30
0.0
 11
4.045969104289121
 21
10.71607627521734
 31
0.0
  0
ARC
  5
3BA
330
2
100
AcDbEntity
  8
0
100
AcDbCircle
 10
12.03326662945997
 20
0.966076275217338
 30
0.0
 40
0.0855
100
AcDbArc
 50
89.99983493434672
 51
270.0001650656533
  0
LINE
  5
3BC
330
2
100
AcDbEntity
  8
0
100
AcDbLine
 10
11.99453273080056
 20
1.051576275217334
 30
0.0
 11
12.19853273080057
 21
1.051576275217334
 31
0.0
  0
LINE
  5
3BD
330
2
100
AcDbEntity
  8
0
100
AcDbLine
 10
11.99453273080056
 20
0.8805762752173347
 30
0.0
 11
12.19853273080057
 21
0.8805762752173347
 31
0.0
  0
ARC
  5
3BE
330
2
100
AcDbEntity
  8
0
100
AcDbCircle
 10
12.05363405957098
 20
0.966076275217338
 30
0.0
 40
0.0855
100
AcDbArc
 50
89.99983493434672
 51
270.0001650656533
  0
LINE
  5
3BF
330
2
100
AcDbEntity
  8
0
100
AcDbLine
 10
11.99453273080056
 20
1.051576275217341
 30
0.0
 11
12.18203273080056
 21
1.051576275217341
 31
0.0
  0
LINE
  5
3C0
330
2
100
AcDbEntity
  8
0
100
AcDbLine
 10
11.99453273080056
 20
0.8805762752173418
 30
0.0
 11
12.18203273080056
 21
0.8805762752173418
 31
0.0
  0
ARC
  5
3C2
330
2
100
AcDbEntity
  8
0
100
AcDbCircle
 10
12.03326662945997
 20
1.966076275217338
 30
0.0
 40
0.0855
100
AcDbArc
 50
89.99983493434672
 51
270.0001650656533
  0
LINE
  5
3C3
330
2
100
AcDbEntity
  8
0
100
AcDbLine
 10
11.99453273080056
 20
2.051576275217334
 30
0.0
 11
12.19853273080057
 21
2.051576275217334
 31
0.0
  0
LINE
  5
3C4
330
2
100
AcDbEntity
  8
0
100
AcDbLine
 10
11.99453273080056
 20
1.880576275217335
 30
0.0
 11
12.19853273080057
 21
1.880576275217335
 31
0.0
  0
ARC
  5
3C5
330
2
100
AcDbEntity
  8
0
100
AcDbCircle
 10
12.05363405957098
 20
1.966076275217338
 30
0.0
 40
0.0855
100
AcDbArc
 50
89.99983493434672
 51
270.0001650656533
  0
LINE
  5
3C6
330
2
100
AcDbEntity
  8
0
100
AcDbLine
 10
11.99453273080056
 20
2.051576275217341
 30
0.0
 11
12.18203273080056
 21
2.051576275217341
 31
0.0
  0
LINE
  5
3C7
330
2
100
AcDbEntity
  8
0
100
AcDbLine
 10
11.99453273080056
 20
1.880576275217342
 30
0.0
 11
12.18203273080056
 21
1.880576275217342
 31
0.0
  0
ARC
  5
3C8
330
2
100
AcDbEntity
  8
0
100
AcDbCircle
 10
11.99453273080056
 20
2.966076275217338
 30
0.0
 40
0.0855
100
AcDbArc
 50
90.0
 51
270.0
  0
ARC
  5
3C9
330
2
100
AcDbEntity
  8
0
100
AcDbCircle
 10
12.03326662945997
 20
2.966076275217338
 30
0.0
 40
0.0855
100
AcDbArc
 50
89.99983493434672
 51
270.0001650656533
  0
LINE
  5
3CA
330
2
100
AcDbEntity
  8
0
100
AcDbLine
 10
11.99453273080056
 20
3.051576275217334
 30
0.0
 11
12.19853273080057
 21
3.051576275217334
 31
0.0
  0
LINE
  5
3CB
330
2
100
AcDbEntity
  8
0
100
AcDbLine
 10
11.99453273080056
 20
2.880576275217335
 30
0.0
 11
12.19853273080057
 21
2.880576275217335
 31
0.0
  0
ARC
  5
3CC
330
2
100
AcDbEntity
  8
0
100
AcDbCircle
 10
12.05363405957098
 20
2.966076275217338
 30
0.0
 40
0.0855
100
AcDbArc
 50
89.99983493434672
 51
270.0001650656533
  0
LINE
  5
3CD
330
2
100
AcDbEntity
  8
0
100
AcDbLine
 10
11.99453273080056
 20
3.051576275217341
 30
0.0
 11
12.18203273080056
 21
3.051576275217341
 31
0.0
  0
LINE
  5
3CE
330
2
100
AcDbEntity
  8
0
100
AcDbLine
 10
11.99453273080056
 20
2.880576275217342
 30
0.0
 11
12.18203273080056
 21
2.880576275217342
 31
0.0
  0
ARC
  5
3CF
330
2
100
AcDbEntity
  8
0
100
AcDbCircle
 10
11.99453273080056
 20
3.966076275217338
 30
0.0
 40
0.0855
100
AcDbArc
 50
90.0
 51
270.0
  0
ARC
  5
3D0
330
2
100
AcDbEntity
  8
0
100
AcDbCircle
 10
12.03326662945997
 20
3.966076275217338
 30
0.0
 40
0.0855
100
AcDbArc
 50
89.99983493434672
 51
270.0001650656533
  0
LINE
  5
3D1
330
2
100
AcDbEntity
  8
0
100
AcDbLine
 10
11.99453273080056
 20
4.051576275217334
 30
0.0
 11
12.19853273080057
 21
4.051576275217334
 31
0.0
  0
LINE
  5
3D2
330
2
100
AcDbEntity
  8
0
100
AcDbLine
 10
11.99453273080056
 20
3.880576275217335
 30
0.0
 11
12.19853273080057
 21
3.880576275217335
 31
0.0
  0
ARC
  5
3D3
330
2
100
AcDbEntity
  8
0
100
AcDbCircle
 10
12.05363405957098
 20
3.966076275217338
 30
0.0
 40
0.0855
100
AcDbArc
 50
89.99983493434672
 51
270.0001650656533
  0
LINE
  5
3D4
330
2
100
AcDbEntity
  8
0
100
AcDbLine
 10
11.99453273080056
 20
4.051576275217341
 30
0.0
 11
12.18203273080056
 21
4.051576275217341
 31
0.0
  0
LINE
  5
3D5
330
2
100
AcDbEntity
  8
0
100
AcDbLine
 10
11.99453273080056
 20
3.880576275217342
 30
0.0
 11
12.18203273080056
 21
3.880576275217342
 31
0.0
  0
ARC
  5
3D6
330
2
100
AcDbEntity
  8
0
100
AcDbCircle
 10
11.99453273080056
 20
4.966076275217338
 30
0.0
 40
0.0855
100
AcDbArc
 50
90.0
 51
270.0
  0
ARC
  5
3D7
330
2
100
AcDbEntity
  8
0
100
AcDbCircle
 10
12.03326662945997
 20
4.966076275217338
 30
0.0
 40
0.0855
100
AcDbArc
 50
89.99983493434672
 51
270.0001650656533
  0
LINE
  5
3D8
330
2
100
AcDbEntity
  8
0
100
AcDbLine
 10
11.99453273080056
 20
5.051576275217334
 30
0.0
 11
12.19853273080057
 21
5.051576275217334
 31
0.0
  0
LINE
  5
3D9
330
2
100
AcDbEntity
  8
0
100
AcDbLine
 10
11.99453273080056
 20
4.880576275217335
 30
0.0
 11
12.19853273080057
 21
4.880576275217335
 31
0.0
  0
ARC
  5
3DA
330
2
100
AcDbEntity
  8
0
100
AcDbCircle
 10
12.05363405957098
 20
4.966076275217338
 30
0.0
 40
0.0855
100
AcDbArc
 50
89.99983493434672
 51
270.0001650656533
  0
LINE
  5
3DB
330
2
100
AcDbEntity
  8
0
100
AcDbLine
 10
11.99453273080056
 20
5.051576275217341
 30
0.0
 11
12.18203273080056
 21
5.051576275217341
 31
0.0
  0
LINE
  5
3DC
330
2
100
AcDbEntity
  8
0
100
AcDbLine
 10
11.99453273080056
 20
4.880576275217342
 30
0.0
 11
12.18203273080056
 21
4.880576275217342
 31
0.0
  0
ARC
  5
3DD
330
2
100
AcDbEntity
  8
0
100
AcDbCircle
 10
11.99453273080056
 20
5.966076275217338
 30
0.0
 40
0.0855
100
AcDbArc
 50
90.0
 51
270.0
  0
ARC
  5
3DE
330
2
100
AcDbEntity
  8
0
100
AcDbCircle
 10
12.03326662945997
 20
5.966076275217338
 30
0.0
 40
0.0855
100
AcDbArc
 50
89.99983493434672
 51
270.0001650656533
  0
LINE
  5
3DF
330
2
100
AcDbEntity
  8
0
100
AcDbLine
 10
11.99453273080056
 20
6.051576275217334
 30
0.0
 11
12.19853273080057
 21
6.051576275217334
 31
0.0
  0
LINE
  5
3E0
330
2
100
AcDbEntity
  8
0
100
AcDbLine
 10
11.99453273080056
 20
5.880576275217335
 30
0.0
 11
12.19853273080057
 21
5.880576275217335
 31
0.0
  0
ARC
  5
3E1
330
2
100
AcDbEntity
  8
0
100
AcDbCircle
 10
12.05363405957098
 20
5.966076275217338
 30
0.0
 40
0.0855
100
AcDbArc
 50
89.99983493434672
 51
270.0001650656533
  0
LINE
  5
3E2
330
2
100
AcDbEntity
  8
0
100
AcDbLine
 10
11.99453273080056
 20
6.051576275217341
 30
0.0
 11
12.18203273080056
 21
6.051576275217341
 31
0.0
  0
LINE
  5
3E3
330
2
100
AcDbEntity
  8
0
100
AcDbLine
 10
11.99453273080056
 20
5.880576275217342
 30
0.0
 11
12.18203273080056
 21
5.880576275217342
 31
0.0
  0
ARC
  5
3E4
330
2
100
AcDbEntity
  8
0
100
AcDbCircle
 10
11.99453273080056
 20
6.966076275217338
 30
0.0
 40
0.0855
100
AcDbArc
 50
90.0
 51
270.0
  0
ARC
  5
3E5
330
2
100
AcDbEntity
  8
0
100
AcDbCircle
 10
12.03326662945997
 20
6.966076275217338
 30
0.0
 40
0.0855
100
AcDbArc
 50
89.99983493434672
 51
270.0001650656533
  0
LINE
  5
3E6
330
2
100
AcDbEntity
  8
0
100
AcDbLine
 10
11.99453273080056
 20
7.051576275217334
 30
0.0
 11
12.19853273080057
 21
7.051576275217334
 31
0.0
  0
LINE
  5
3E7
330
2
100
AcDbEntity
  8
0
100
AcDbLine
 10
11.99453273080056
 20
6.880576275217335
 30
0.0
 11
12.19853273080057
 21
6.880576275217335
 31
0.0
  0
ARC
  5
3E8
330
2
100
AcDbEntity
  8
0
100
AcDbCircle
 10
12.05363405957098
 20
6.966076275217338
 30
0.0
 40
0.0855
100
AcDbArc
 50
89.99983493434672
 51
270.0001650656533
  0
LINE
  5
3E9
330
2
100
AcDbEntity
  8
0
100
AcDbLine
 10
11.99453273080056
 20
7.051576275217341
 30
0.0
 11
12.18203273080056
 21
7.051576275217341
 31
0.0
  0
LINE
  5
3EA
330
2
100
AcDbEntity
  8
0
100
AcDbLine
 10
11.99453273080056
 20
6.880576275217342
 30
0.0
 11
12.18203273080056
 21
6.880576275217342
 31
0.0
  0
ARC
  5
3EB
330
2
100
AcDbEntity
  8
0
100
AcDbCircle
 10
11.99453273080056
 20
7.966076275217338
 30
0.0
 40
0.0855
100
AcDbArc
 50
90.0
 51
270.0
  0
ARC
  5
3EC
330
2
100
AcDbEntity
  8
0
100
AcDbCircle
 10
12.03326662945997
 20
7.966076275217338
 30
0.0
 40
0.0855
100
AcDbArc
 50
89.99983493434672
 51
270.0001650656533
  0
LINE
  5
3ED
330
2
100
AcDbEntity
  8
0
100
AcDbLine
 10
11.99453273080056
 20
8.051576275217334
 30
0.0
 11
12.19853273080057
 21
8.051576275217334
 31
0.0
  0
LINE
  5
3EE
330
2
100
AcDbEntity
  8
0
100
AcDbLine
 10
11.99453273080056
 20
7.880576275217335
 30
0.0
 11
12.19853273080057
 21
7.880576275217335
 31
0.0
  0
ARC
  5
3EF
330
2
100
AcDbEntity
  8
0
100
AcDbCircle
 10
12.05363405957098
 20
7.966076275217338
 30
0.0
 40
0.0855
100
AcDbArc
 50
89.99983493434672
 51
270.0001650656533
  0
LINE
  5
3F0
330
2
100
AcDbEntity
  8
0
100
AcDbLine
 10
11.99453273080056
 20
8.051576275217341
 30
0.0
 11
12.18203273080056
 21
8.051576275217341
 31
0.0
  0
LINE
  5
3F1
330
2
100
AcDbEntity
  8
0
100
AcDbLine
 10
11.99453273080056
 20
7.880576275217342
 30
0.0
 11
12.18203273080056
 21
7.880576275217342
 31
0.0
  0
ARC
  5
3F2
330
2
100
AcDbEntity
  8
0
100
AcDbCircle
 10
11.99453273080056
 20
8.966076275217338
 30
0.0
 40
0.0855
100
AcDbArc
 50
90.0
 51
270.0
  0
ARC
  5
3F3
330
2
100
AcDbEntity
  8
0
100
AcDbCircle
 10
12.03326662945997
 20
8.966076275217338
 30
0.0
 40
0.0855
100
AcDbArc
 50
89.99983493434672
 51
270.0001650656533
  0
LINE
  5
3F4
330
2
100
AcDbEntity
  8
0
100
AcDbLine
 10
11.99453273080056
 20
9.051576275217334
 30
0.0
 11
12.19853273080057
 21
9.051576275217334
 31
0.0
  0
LINE
  5
3F5
330
2
100
AcDbEntity
  8
0
100
AcDbLine
 10
11.99453273080056
 20
8.880576275217335
 30
0.0
 11
12.19853273080057
 21
8.880576275217335
 31
0.0
  0
ARC
  5
3F6
330
2
100
AcDbEntity
  8
0
100
AcDbCircle
 10
12.05363405957098
 20
8.966076275217338
 30
0.0
 40
0.0855
100
AcDbArc
 50
89.99983493434672
 51
270.0001650656533
  0
LINE
  5
3F7
330
2
100
AcDbEntity
  8
0
100
AcDbLine
 10
11.99453273080056
 20
9.051576275217341
 30
0.0
 11
12.18203273080056
 21
9.051576275217341
 31
0.0
  0
LINE
  5
3F8
330
2
100
AcDbEntity
  8
0
100
AcDbLine
 10
11.99453273080056
 20
8.880576275217342
 30
0.0
 11
12.18203273080056
 21
8.880576275217342
 31
0.0
  0
ARC
  5
3F9
330
2
100
AcDbEntity
  8
0
100
AcDbCircle
 10
11.99453273080056
 20
9.966076275217338
 30
0.0
 40
0.0855
100
AcDbArc
 50
90.0
 51
270.0
  0
ARC
  5
3FA
330
2
100
AcDbEntity
  8
0
100
AcDbCircle
 10
12.03326662945997
 20
9.966076275217338
 30
0.0
 40
0.0855
100
AcDbArc
 50
89.99983493434672
 51
270.0001650656533
  0
LINE
  5
3FB
330
2
100
AcDbEntity
  8
0
100
AcDbLine
 10
11.99453273080056
 20
10.05157627521733
 30
0.0
 11
12.19853273080057
 21
10.05157627521733
 31
0.0
  0
LINE
  5
3FC
330
2
100
AcDbEntity
  8
0
100
AcDbLine
 10
11.99453273080056
 20
9.880576275217335
 30
0.0
 11
12.19853273080057
 21
9.880576275217335
 31
0.0
  0
ARC
  5
3FD
330
2
100
AcDbEntity
  8
0
100
AcDbCircle
 10
12.05363405957098
 20
9.966076275217338
 30
0.0
 40
0.0855
100
AcDbArc
 50
89.99983493434672
 51
270.0001650656533
  0
LINE
  5
3FE
330
2
100
AcDbEntity
  8
0
100
AcDbLine
 10
11.99453273080056
 20
10.05157627521734
 30
0.0
 11
12.18203273080056
 21
10.05157627521734
 31
0.0
  0
LINE
  5
3FF
330
2
100
AcDbEntity
  8
0
100
AcDbLine
 10
11.99453273080056
 20
9.880576275217342
 30
0.0
 11
12.18203273080056
 21
9.880576275217342
 31
0.0
  0
LINE
  5
400
330
2
100
AcDbEntity
  8
0
  6
Continuous
100
AcDbLine
 10
-13.02578273080056
 20
0.5268305480544111
 30
0.0
 11
-13.02578273080055
 21
10.71607627521733
 31
0.0
  0
LINE
  5
401
330
2
100
AcDbEntity
  8
0
  6
Continuous
100
AcDbLine
 10
-12.93203273080056
 20
0.4518862669843742
 30
0.0
 11
-12.93203273080056
 21
6.716076275217333
 31
0.0
  0
LINE
  5
402
330
2
100
AcDbEntity
  8
0
100
AcDbLine
 10
-11.56423765395384
 20
5.796496460662784
 30
0.0
 11
-11.56423765395384
 21
5.15004985125606
 31
0.0
  0
LINE
  5
403
330
2
100
AcDbEntity
  8
0
100
AcDbLine
 10
-10.29983469281013
 20
1.896370194815663
 30
0.0
 11
-8.971407568063963
 21
0.5679430700695072
 31
0.0
  0
ARC
  5
404
330
2
100
AcDbEntity
  8
0
100
AcDbCircle
 10
-9.501737653953871
 20
0.0376129841796207
 30
0.0
 40
0.75
100
AcDbArc
 50
357.1253738197472
 51
45.00000000000052
  0
LINE
  5
405
330
2
100
AcDbEntity
  8
0
  6
Continuous
100
AcDbLine
 10
-12.70170316572552
 20
0.0
 30
0.0
 11
-8.75268140545106
 21
0.0
 31
0.0
  0
LINE
  5
406
330
2
100
AcDbEntity
  8
0
  6
DASHED
100
AcDbLine
 10
-12.71974672635519
 20
0.0937500000000018
 30
0.0
 11
-8.76942396035054
 21
0.09375
 31
0.0
  0
ARC
  5
407
330
2
100
AcDbEntity
  8
0
100
AcDbCircle
 10
-13.44571509426391
 20
-0.0945846192179101
 30
0.0
 40
0.75
100
AcDbArc
 50
7.245024588926958
 51
55.95043871709996
  0
ARC
  5
408
330
2
100
AcDbEntity
  8
0
100
AcDbCircle
 10
-8.001737653953843
 20
4.19446723367199
 30
0.0
 40
3.25
100
AcDbArc
 50
180.0
 51
225.0000000000005
  0
ARC
  5
409
330
2
100
AcDbEntity
  8
0
100
AcDbCircle
 10
-11.99453273080056
 20
2.342668252954541
 30
0.0
 40
0.0855
100
AcDbArc
 50
270.0
 51
90.0
  0
ARC
  5
40A
330
2
100
AcDbEntity
  8
0
100
AcDbCircle
 10
-11.99453273080056
 20
1.342668252954541
 30
0.0
 40
0.0855
100
AcDbArc
 50
270.0
 51
90.0
  0
LINE
  5
40B
330
2
100
AcDbEntity
  8
0
100
AcDbLine
 10
-11.25173765395385
 20
4.19446723367199
 30
0.0
 11
-11.25173765395385
 21
4.733996460662784
 31
0.0
  0
LINE
  5
40C
330
2
100
AcDbEntity
  8
0
100
AcDbLine
 10
-11.52762600160216
 20
5.061661503607741
 30
0.0
 11
-11.28834930630552
 21
4.822384808311103
 31
0.0
  0
ARC
  5
40D
330
2
100
AcDbEntity
  8
0
100
AcDbCircle
 10
-11.37673765395384
 20
4.733996460662784
 30
0.0
 40
0.125
100
AcDbArc
 50
0.000000000000007
 51
45.00000000000016
  0
ARC
  5
40E
330
2
100
AcDbEntity
  8
0
100
AcDbCircle
 10
-11.43923765395384
 20
5.15004985125606
 30
0.0
 40
0.125
100
AcDbArc
 50
180.0
 51
225.0000000000003
  0
LINE
  5
40F
330
2
100
AcDbEntity
  8
0
100
AcDbLine
 10
-12.93203273080056
 20
10.71607627521734
 30
0.0
 11
-12.93203273080056
 21
6.416076275217332
 31
0.0
  0
LINE
  5
410
330
2
100
AcDbEntity
  8
0
100
AcDbLine
 10
-11.25173765395384
 20
10.71607627521734
 30
0.0
 11
-11.25173765395384
 21
10.21254959521179
 31
0.0
  0
LINE
  5
411
330
2
100
AcDbEntity
  8
0
100
AcDbLine
 10
-11.25173765395384
 20
10.21254985125606
 30
0.0
 11
-11.25173765395384
 21
10.71607627521734
 31
0.0
  0
ARC
  5
412
330
2
100
AcDbEntity
  8
0
100
AcDbCircle
 10
-11.37673765395384
 20
8.21254985125606
 30
0.0
 40
0.125
100
AcDbArc
 50
314.9999999999999
 51
0.000000000000007
  0
LINE
  5
413
330
2
100
AcDbEntity
  8
0
100
AcDbLine
 10
-11.52762600160216
 20
7.061661503607741
 30
0.0
 11
-11.28834930630552
 21
6.822384808311103
 31
0.0
  0
LINE
  5
414
330
2
100
AcDbEntity
  8
0
100
AcDbLine
 10
-11.25173765395384
 20
6.716076275217336
 30
0.0
 11
-11.25173765395384
 21
6.212549595211787
 31
0.0
  0
LINE
  5
415
330
2
100
AcDbEntity
  8
0
100
AcDbLine
 10
-11.25173765395384
 20
6.21254985125606
 30
0.0
 11
-11.25173765395384
 21
6.716076275217336
 31
0.0
  0
ARC
  5
416
330
2
100
AcDbEntity
  8
0
100
AcDbCircle
 10
-11.43923765395384
 20
5.796496460662784
 30
0.0
 40
0.125
100
AcDbArc
 50
134.9999999999999
 51
180.0
  0
ARC
  5
417
330
2
100
AcDbEntity
  8
0
100
AcDbCircle
 10
-11.37673765395384
 20
6.21254985125606
 30
0.0
 40
0.125
100
AcDbArc
 50
314.9999999999999
 51
0.000000000000007
  0
LINE
  5
418
330
2
100
AcDbEntity
  8
0
100
AcDbLine
 10
-11.28834930630552
 20
6.124161503607741
 30
0.0
 11
-11.52762600160216
 21
5.884884808311103
 31
0.0
  0
ARC
  5
419
330
2
100
AcDbEntity
  8
0
100
AcDbCircle
 10
-11.37673765395384
 20
6.733996460662784
 30
0.0
 40
0.125
100
AcDbArc
 50
0.000000000000007
 51
45.00000000000016
  0
LINE
  5
41A
330
2
100
AcDbEntity
  8
0
100
AcDbLine
 10
-11.56423765395384
 20
7.796496460662784
 30
0.0
 11
-11.56423765395384
 21
7.15004985125606
 31
0.0
  0
ARC
  5
41B
330
2
100
AcDbEntity
  8
0
100
AcDbCircle
 10
-11.43923765395384
 20
7.15004985125606
 30
0.0
 40
0.125
100
AcDbArc
 50
180.0
 51
225.0000000000003
  0
LINE
  5
41C
330
2
100
AcDbEntity
  8
0
100
AcDbLine
 10
-11.28834930630552
 20
8.124161503607741
 30
0.0
 11
-11.52762600160216
 21
7.884884808311103
 31
0.0
  0
ARC
  5
41D
330
2
100
AcDbEntity
  8
0
100
AcDbCircle
 10
-11.43923765395384
 20
7.796496460662784
 30
0.0
 40
0.125
100
AcDbArc
 50
134.9999999999999
 51
180.0
  0
LINE
  5
41E
330
2
100
AcDbEntity
  8
0
100
AcDbLine
 10
-11.56423765395384
 20
9.796496460662784
 30
0.0
 11
-11.56423765395384
 21
9.15004985125606
 31
0.0
  0
ARC
  5
41F
330
2
100
AcDbEntity
  8
0
100
AcDbCircle
 10
-11.37673765395384
 20
8.733996460662784
 30
0.0
 40
0.125
100
AcDbArc
 50
0.000000000000007
 51
45.00000000000016
  0
LINE
  5
420
330
2
100
AcDbEntity
  8
0
100
AcDbLine
 10
-11.25173765395384
 20
8.21254985125606
 30
0.0
 11
-11.25173765395384
 21
8.716076275217336
 31
0.0
  0
LINE
  5
421
330
2
100
AcDbEntity
  8
0
100
AcDbLine
 10
-11.25173765395384
 20
8.716076275217336
 30
0.0
 11
-11.25173765395384
 21
8.212549595211787
 31
0.0
  0
LINE
  5
422
330
2
100
AcDbEntity
  8
0
100
AcDbLine
 10
-11.25173765395384
 20
8.21254985125606
 30
0.0
 11
-11.25173765395384
 21
8.716076275217336
 31
0.0
  0
LINE
  5
423
330
2
100
AcDbEntity
  8
0
100
AcDbLine
 10
-11.25173765395384
 20
8.716076275217336
 30
0.0
 11
-11.25173765395384
 21
8.212549595211787
 31
0.0
  0
LINE
  5
424
330
2
100
AcDbEntity
  8
0
100
AcDbLine
 10
-11.52762600160216
 20
9.061661503607741
 30
0.0
 11
-11.28834930630552
 21
8.822384808311103
 31
0.0
  0
ARC
  5
425
330
2
100
AcDbEntity
  8
0
100
AcDbCircle
 10
-11.43923765395384
 20
9.15004985125606
 30
0.0
 40
0.125
100
AcDbArc
 50
180.0
 51
225.0000000000003
  0
LINE
  5
426
330
2
100
AcDbEntity
  8
0
100
AcDbLine
 10
-11.28834930630552
 20
10.12416150360774
 30
0.0
 11
-11.52762600160216
 21
9.884884808311103
 31
0.0
  0
ARC
  5
427
330
2
100
AcDbEntity
  8
0
100
AcDbCircle
 10
-11.43923765395384
 20
9.796496460662784
 30
0.0
 40
0.125
100
AcDbArc
 50
134.9999999999999
 51
180.0
  0
ARC
  5
428
330
2
100
AcDbEntity
  8
0
100
AcDbCircle
 10
-11.37673765395384
 20
10.21254985125606
 30
0.0
 40
0.125
100
AcDbArc
 50
314.9999999999999
 51
0.000000000000007
  0
LINE
  5
429
330
2
100
AcDbEntity
  8
0
100
AcDbLine
 10
-11.25173765395384
 20
10.71607627521734
 30
0.0
 11
-13.02578273080056
 21
10.71607627521734
 31
0.0
  0
ARC
  5
42A
330
2
100
AcDbEntity
  8
0
100
AcDbCircle
 10
-12.03326662945996
 20
1.342668252954541
 30
0.0
 40
0.0855
100
AcDbArc
 50
269.9998349343467
 51
90.00016506565328
  0
LINE
  5
42B
330
2
100
AcDbEntity
  8
0
100
AcDbLine
 10
-11.99453273080056
 20
1.428168252954537
 30
0.0
 11
-12.19853273080057
 21
1.428168252954537
 31
0.0
  0
LINE
  5
42C
330
2
100
AcDbEntity
  8
0
100
AcDbLine
 10
-11.99453273080056
 20
1.257168252954537
 30
0.0
 11
-12.19853273080057
 21
1.257168252954537
 31
0.0
  0
ARC
  5
42D
330
2
100
AcDbEntity
  8
0
100
AcDbCircle
 10
-12.05363405957097
 20
1.342668252954541
 30
0.0
 40
0.0855
100
AcDbArc
 50
269.9998349343467
 51
90.00016506565328
  0
LINE
  5
42E
330
2
100
AcDbEntity
  8
0
100
AcDbLine
 10
-11.99453273080056
 20
1.428168252954544
 30
0.0
 11
-12.18203273080056
 21
1.428168252954544
 31
0.0
  0
LINE
  5
42F
330
2
100
AcDbEntity
  8
0
100
AcDbLine
 10
-11.99453273080056
 20
1.257168252954545
 30
0.0
 11
-12.18203273080056
 21
1.257168252954545
 31
0.0
  0
ARC
  5
430
330
2
100
AcDbEntity
  8
0
100
AcDbCircle
 10
-12.03326662945996
 20
2.342668252954541
 30
0.0
 40
0.0855
100
AcDbArc
 50
269.9998349343467
 51
90.00016506565328
  0
LINE
  5
431
330
2
100
AcDbEntity
  8
0
100
AcDbLine
 10
-11.99453273080056
 20
2.428168252954537
 30
0.0
 11
-12.19853273080057
 21
2.428168252954537
 31
0.0
  0
LINE
  5
432
330
2
100
AcDbEntity
  8
0
100
AcDbLine
 10
-11.99453273080056
 20
2.257168252954537
 30
0.0
 11
-12.19853273080057
 21
2.257168252954537
 31
0.0
  0
ARC
  5
433
330
2
100
AcDbEntity
  8
0
100
AcDbCircle
 10
-12.05363405957097
 20
2.342668252954541
 30
0.0
 40
0.0855
100
AcDbArc
 50
269.9998349343467
 51
90.00016506565328
  0
LINE
  5
434
330
2
100
AcDbEntity
  8
0
100
AcDbLine
 10
-11.99453273080056
 20
2.428168252954544
 30
0.0
 11
-12.18203273080056
 21
2.428168252954544
 31
0.0
  0
LINE
  5
435
330
2
100
AcDbEntity
  8
0
100
AcDbLine
 10
-11.99453273080056
 20
2.257168252954545
 30
0.0
 11
-12.18203273080056
 21
2.257168252954545
 31
0.0
  0
ARC
  5
436
330
2
100
AcDbEntity
  8
0
100
AcDbCircle
 10
-11.99453273080056
 20
3.342668252954541
 30
0.0
 40
0.0855
100
AcDbArc
 50
270.0
 51
90.0
  0
ARC
  5
437
330
2
100
AcDbEntity
  8
0
100
AcDbCircle
 10
-12.03326662945996
 20
3.342668252954541
 30
0.0
 40
0.0855
100
AcDbArc
 50
269.9998349343467
 51
90.00016506565328
  0
LINE
  5
438
330
2
100
AcDbEntity
  8
0
100
AcDbLine
 10
-11.99453273080056
 20
3.428168252954537
 30
0.0
 11
-12.19853273080057
 21
3.428168252954537
 31
0.0
  0
LINE
  5
439
330
2
100
AcDbEntity
  8
0
100
AcDbLine
 10
-11.99453273080056
 20
3.257168252954537
 30
0.0
 11
-12.19853273080057
 21
3.257168252954537
 31
0.0
  0
ARC
  5
43A
330
2
100
AcDbEntity
  8
0
100
AcDbCircle
 10
-12.05363405957097
 20
3.342668252954541
 30
0.0
 40
0.0855
100
AcDbArc
 50
269.9998349343467
 51
90.00016506565328
  0
LINE
  5
43B
330
2
100
AcDbEntity
  8
0
100
AcDbLine
 10
-11.99453273080056
 20
3.428168252954544
 30
0.0
 11
-12.18203273080056
 21
3.428168252954544
 31
0.0
  0
LINE
  5
43C
330
2
100
AcDbEntity
  8
0
100
AcDbLine
 10
-11.99453273080056
 20
3.257168252954545
 30
0.0
 11
-12.18203273080056
 21
3.257168252954545
 31
0.0
  0
ARC
  5
43D
330
2
100
AcDbEntity
  8
0
100
AcDbCircle
 10
-11.99453273080056
 20
4.342668252954541
 30
0.0
 40
0.0855
100
AcDbArc
 50
270.0
 51
90.0
  0
ARC
  5
43E
330
2
100
AcDbEntity
  8
0
100
AcDbCircle
 10
-12.03326662945996
 20
4.342668252954541
 30
0.0
 40
0.0855
100
AcDbArc
 50
269.9998349343467
 51
90.00016506565328
  0
LINE
  5
43F
330
2
100
AcDbEntity
  8
0
100
AcDbLine
 10
-11.99453273080056
 20
4.428168252954537
 30
0.0
 11
-12.19853273080057
 21
4.428168252954537
 31
0.0
  0
LINE
  5
440
330
2
100
AcDbEntity
  8
0
100
AcDbLine
 10
-11.99453273080056
 20
4.257168252954537
 30
0.0
 11
-12.19853273080057
 21
4.257168252954537
 31
0.0
  0
ARC
  5
441
330
2
100
AcDbEntity
  8
0
100
AcDbCircle
 10
-12.05363405957097
 20
4.342668252954541
 30
0.0
 40
0.0855
100
AcDbArc
 50
269.9998349343467
 51
90.00016506565328
  0
LINE
  5
442
330
2
100
AcDbEntity
  8
0
100
AcDbLine
 10
-11.99453273080056
 20
4.428168252954544
 30
0.0
 11
-12.18203273080056
 21
4.428168252954544
 31
0.0
  0
LINE
  5
443
330
2
100
AcDbEntity
  8
0
100
AcDbLine
 10
-11.99453273080056
 20
4.257168252954545
 30
0.0
 11
-12.18203273080056
 21
4.257168252954545
 31
0.0
  0
ARC
  5
444
330
2
100
AcDbEntity
  8
0
100
AcDbCircle
 10
-11.99453273080056
 20
5.342668252954541
 30
0.0
 40
0.0855
100
AcDbArc
 50
270.0
 51
90.0
  0
ARC
  5
445
330
2
100
AcDbEntity
  8
0
100
AcDbCircle
 10
-12.03326662945996
 20
5.342668252954541
 30
0.0
 40
0.0855
100
AcDbArc
 50
269.9998349343467
 51
90.00016506565328
  0
LINE
  5
446
330
2
100
AcDbEntity
  8
0
100
AcDbLine
 10
-11.99453273080056
 20
5.428168252954537
 30
0.0
 11
-12.19853273080057
 21
5.428168252954537
 31
0.0
  0
LINE
  5
447
330
2
100
AcDbEntity
  8
0
100
AcDbLine
 10
-11.99453273080056
 20
5.257168252954537
 30
0.0
 11
-12.19853273080057
 21
5.257168252954537
 31
0.0
  0
ARC
  5
448
330
2
100
AcDbEntity
  8
0
100
AcDbCircle
 10
-12.05363405957097
 20
5.342668252954541
 30
0.0
 40
0.0855
100
AcDbArc
 50
269.9998349343467
 51
90.00016506565328
  0
LINE
  5
449
330
2
100
AcDbEntity
  8
0
100
AcDbLine
 10
-11.99453273080056
 20
5.428168252954544
 30
0.0
 11
-12.18203273080056
 21
5.428168252954544
 31
0.0
  0
LINE
  5
44A
330
2
100
AcDbEntity
  8
0
100
AcDbLine
 10
-11.99453273080056
 20
5.257168252954545
 30
0.0
 11
-12.18203273080056
 21
5.257168252954545
 31
0.0
  0
ARC
  5
44B
330
2
100
AcDbEntity
  8
0
100
AcDbCircle
 10
-11.99453273080056
 20
6.342668252954541
 30
0.0
 40
0.0855
100
AcDbArc
 50
270.0
 51
90.0
  0
ARC
  5
44C
330
2
100
AcDbEntity
  8
0
100
AcDbCircle
 10
-12.03326662945996
 20
6.342668252954541
 30
0.0
 40
0.0855
100
AcDbArc
 50
269.9998349343467
 51
90.00016506565328
  0
LINE
  5
44D
330
2
100
AcDbEntity
  8
0
100
AcDbLine
 10
-11.99453273080056
 20
6.428168252954537
 30
0.0
 11
-12.19853273080057
 21
6.428168252954537
 31
0.0
  0
LINE
  5
44E
330
2
100
AcDbEntity
  8
0
100
AcDbLine
 10
-11.99453273080056
 20
6.257168252954537
 30
0.0
 11
-12.19853273080057
 21
6.257168252954537
 31
0.0
  0
ARC
  5
44F
330
2
100
AcDbEntity
  8
0
100
AcDbCircle
 10
-12.05363405957097
 20
6.342668252954541
 30
0.0
 40
0.0855
100
AcDbArc
 50
269.9998349343467
 51
90.00016506565328
  0
LINE
  5
450
330
2
100
AcDbEntity
  8
0
100
AcDbLine
 10
-11.99453273080056
 20
6.428168252954544
 30
0.0
 11
-12.18203273080056
 21
6.428168252954544
 31
0.0
  0
LINE
  5
451
330
2
100
AcDbEntity
  8
0
100
AcDbLine
 10
-11.99453273080056
 20
6.257168252954545
 30
0.0
 11
-12.18203273080056
 21
6.257168252954545
 31
0.0
  0
ARC
  5
452
330
2
100
AcDbEntity
  8
0
100
AcDbCircle
 10
-11.99453273080056
 20
7.342668252954541
 30
0.0
 40
0.0855
100
AcDbArc
 50
270.0
 51
90.0
  0
ARC
  5
453
330
2
100
AcDbEntity
  8
0
100
AcDbCircle
 10
-12.03326662945996
 20
7.342668252954541
 30
0.0
 40
0.0855
100
AcDbArc
 50
269.9998349343467
 51
90.00016506565328
  0
LINE
  5
454
330
2
100
AcDbEntity
  8
0
100
AcDbLine
 10
-11.99453273080056
 20
7.428168252954537
 30
0.0
 11
-12.19853273080057
 21
7.428168252954537
 31
0.0
  0
LINE
  5
455
330
2
100
AcDbEntity
  8
0
100
AcDbLine
 10
-11.99453273080056
 20
7.257168252954537
 30
0.0
 11
-12.19853273080057
 21
7.257168252954537
 31
0.0
  0
ARC
  5
456
330
2
100
AcDbEntity
  8
0
100
AcDbCircle
 10
-12.05363405957097
 20
7.342668252954541
 30
0.0
 40
0.0855
100
AcDbArc
 50
269.9998349343467
 51
90.00016506565328
  0
LINE
  5
457
330
2
100
AcDbEntity
  8
0
100
AcDbLine
 10
-11.99453273080056
 20
7.428168252954544
 30
0.0
 11
-12.18203273080056
 21
7.428168252954544
 31
0.0
  0
LINE
  5
458
330
2
100
AcDbEntity
  8
0
100
AcDbLine
 10
-11.99453273080056
 20
7.257168252954545
 30
0.0
 11
-12.18203273080056
 21
7.257168252954545
 31
0.0
  0
ARC
  5
459
330
2
100
AcDbEntity
  8
0
100
AcDbCircle
 10
-11.99453273080056
 20
8.342668252954541
 30
0.0
 40
0.0855
100
AcDbArc
 50
270.0
 51
90.0
  0
ARC
  5
45A
330
2
100
AcDbEntity
  8
0
100
AcDbCircle
 10
-12.03326662945996
 20
8.342668252954541
 30
0.0
 40
0.0855
100
AcDbArc
 50
269.9998349343467
 51
90.00016506565328
  0
LINE
  5
45B
330
2
100
AcDbEntity
  8
0
100
AcDbLine
 10
-11.99453273080056
 20
8.428168252954537
 30
0.0
 11
-12.19853273080057
 21
8.428168252954537
 31
0.0
  0
LINE
  5
45C
330
2
100
AcDbEntity
  8
0
100
AcDbLine
 10
-11.99453273080056
 20
8.257168252954537
 30
0.0
 11
-12.19853273080057
 21
8.257168252954537
 31
0.0
  0
ARC
  5
45D
330
2
100
AcDbEntity
  8
0
100
AcDbCircle
 10
-12.05363405957097
 20
8.342668252954541
 30
0.0
 40
0.0855
100
AcDbArc
 50
269.9998349343467
 51
90.00016506565328
  0
LINE
  5
45E
330
2
100
AcDbEntity
  8
0
100
AcDbLine
 10
-11.99453273080056
 20
8.428168252954544
 30
0.0
 11
-12.18203273080056
 21
8.428168252954544
 31
0.0
  0
LINE
  5
45F
330
2
100
AcDbEntity
  8
0
100
AcDbLine
 10
-11.99453273080056
 20
8.257168252954545
 30
0.0
 11
-12.18203273080056
 21
8.257168252954545
 31
0.0
  0
ARC
  5
460
330
2
100
AcDbEntity
  8
0
100
AcDbCircle
 10
-11.99453273080056
 20
9.342668252954541
 30
0.0
 40
0.0855
100
AcDbArc
 50
270.0
 51
90.0
  0
ARC
  5
461
330
2
100
AcDbEntity
  8
0
100
AcDbCircle
 10
-12.03326662945996
 20
9.342668252954541
 30
0.0
 40
0.0855
100
AcDbArc
 50
269.9998349343467
 51
90.00016506565328
  0
LINE
  5
462
330
2
100
AcDbEntity
  8
0
100
AcDbLine
 10
-11.99453273080056
 20
9.428168252954537
 30
0.0
 11
-12.19853273080057
 21
9.428168252954537
 31
0.0
  0
LINE
  5
463
330
2
100
AcDbEntity
  8
0
100
AcDbLine
 10
-11.99453273080056
 20
9.257168252954537
 30
0.0
 11
-12.19853273080057
 21
9.257168252954537
 31
0.0
  0
ARC
  5
464
330
2
100
AcDbEntity
  8
0
100
AcDbCircle
 10
-12.05363405957097
 20
9.342668252954541
 30
0.0
 40
0.0855
100
AcDbArc
 50
269.9998349343467
 51
90.00016506565328
  0
LINE
  5
465
330
2
100
AcDbEntity
  8
0
100
AcDbLine
 10
-11.99453273080056
 20
9.428168252954544
 30
0.0
 11
-12.18203273080056
 21
9.428168252954544
 31
0.0
  0
LINE
  5
466
330
2
100
AcDbEntity
  8
0
100
AcDbLine
 10
-11.99453273080056
 20
9.257168252954545
 30
0.0
 11
-12.18203273080056
 21
9.257168252954545
 31
0.0
  0
ARC
  5
467
330
2
100
AcDbEntity
  8
0
100
AcDbCircle
 10
-11.99453273080056
 20
10.34266825295454
 30
0.0
 40
0.0855
100
AcDbArc
 50
270.0
 51
90.0
  0
ARC
  5
468
330
2
100
AcDbEntity
  8
0
100
AcDbCircle
 10
-12.03326662945996
 20
10.34266825295454
 30
0.0
 40
0.0855
100
AcDbArc
 50
269.9998349343467
 51
90.00016506565328
  0
LINE
  5
469
330
2
100
AcDbEntity
  8
0
100
AcDbLine
 10
-11.99453273080056
 20
10.42816825295454
 30
0.0
 11
-12.19853273080057
 21
10.42816825295454
 31
0.0
  0
LINE
  5
46A
330
2
100
AcDbEntity
  8
0
100
AcDbLine
 10
-11.99453273080056
 20
10.25716825295454
 30
0.0
 11
-12.19853273080057
 21
10.25716825295454
 31
0.0
  0
ARC
  5
46B
330
2
100
AcDbEntity
  8
0
100
AcDbCircle
 10
-12.05363405957097
 20
10.34266825295454
 30
0.0
 40
0.0855
100
AcDbArc
 50
269.9998349343467
 51
90.00016506565328
  0
LINE
  5
46C
330
2
100
AcDbEntity
  8
0
100
AcDbLine
 10
-11.99453273080056
 20
10.42816825295454
 30
0.0
 11
-12.18203273080056
 21
10.42816825295454
 31
0.0
  0
LINE
  5
46D
330
2
100
AcDbEntity
  8
0
100
AcDbLine
 10
-11.99453273080056
 20
10.25716825295454
 30
0.0
 11
-12.18203273080056
 21
10.25716825295454
 31
0.0
  0
ENDSEC
  0
SECTION
  2
OBJECTS
  0
DICTIONARY
  5
9
330
0
100
AcDbDictionary
281
     1
  3
ACAD_COLOR
350
1BF
  3
ACAD_GROUP
350
23
  3
ACAD_LAYOUT
350
D
  3
ACAD_MATERIAL
350
1BE
  3
ACAD_MLINESTYLE
350
24
  3
ACAD_PLOTSETTINGS
350
25
  3
ACAD_PLOTSTYLENAME
350
8
  3
ACAD_TABLESTYLE
350
1C0
  3
ACDBHEADERROUNDTRIPXREC
350
481
  3
AcDbVariableDictionary
350
1BA
  0
DICTIONARY
  5
3
330
2
100
AcDbDictionary
280
     1
281
     1
  3
ACAD_SORTENTS
360
1C7
  0
DICTIONARY
  5
1BF
102
{ACAD_REACTORS
330
9
102
}
330
9
100
AcDbDictionary
281
     1
  0
DICTIONARY
  5
23
102
{ACAD_REACTORS
330
9
102
}
330
9
100
AcDbDictionary
281
     1
  0
DICTIONARY
  5
D
102
{ACAD_REACTORS
330
9
102
}
330
9
100
AcDbDictionary
281
     1
  3
Layout1
350
13
  3
Model
350
C
  0
DICTIONARY
  5
1BE
102
{ACAD_REACTORS
330
9
102
}
330
9
100
AcDbDictionary
281
     1
  0
DICTIONARY
  5
24
102
{ACAD_REACTORS
330
9
102
}
330
9
100
AcDbDictionary
281
     1
  3
STANDARD
350
27
  0
DICTIONARY
  5
25
102
{ACAD_REACTORS
330
9
102
}
330
9
100
AcDbDictionary
281
     1
  0
ACDBDICTIONARYWDFLT
  5
8
102
{ACAD_REACTORS
330
9
102
}
330
9
100
AcDbDictionary
281
     1
  3
Normal
350
7
100
AcDbDictionaryWithDefault
340
7
  0
DICTIONARY
  5
1C0
102
{ACAD_REACTORS
330
9
102
}
330
9
100
AcDbDictionary
281
     1
  3
Standard
350
1C1
  0
DICTIONARY
  5
481
102
{ACAD_REACTORS
330
9
102
}
330
9
100
AcDbDictionary
281
     1
  3
COLORDICT
350
482
  3
MATERIALDICT
350
483
  0
DICTIONARY
  5
1BA
102
{ACAD_REACTORS
330
9
102
}
330
9
100
AcDbDictionary
281
     1
  3
CTABLESTYLE
350
344
  3
HIDETEXT
350
480
  0
SORTENTSTABLE
  5
1C7
102
{ACAD_REACTORS
330
3
102
}
330
3
100
AcDbSortentsTable
330
2
331
253
  5
1D5
331
2B6
  5
238
331
1F5
  5
314
331
336
  5
2B8
331
220
  5
2C1
331
2C6
  5
248
331
2EC
  5
26E
331
26D
  5
1EF
331
31B
  5
29D
331
2E4
  5
266
331
20E
  5
32D
331
335
  5
2B7
331
2BA
  5
23C
331
230
  5
2D1
331
261
  5
1E3
331
2C9
  5
24B
331
27F
  5
201
331
1D2
  5
2F1
331
278
  5
1FA
331
276
  5
1F8
331
228
  5
2C9
331
2F3
  5
275
331
231
  5
2D2
331
2C8
  5
24A
331
28F
  5
211
331
24A
  5
1CC
331
243
  5
2E4
331
2DF
  5
261
331
2D5
  5
257
331
30E
  5
290
331
26C
  5
1EE
331
271
  5
1F3
331
269
  5
1EB
331
30B
  5
28D
331
239
  5
2DA
331
2C5
  5
247
331
255
  5
1D7
331
2CD
  5
24F
331
273
  5
1F5
331
314
  5
296
331
241
  5
2E2
331
2F9
  5
27B
331
2DC
  5
25E
331
226
  5
2C7
331
248
  5
2E9
331
2D8
  5
25A
331
219
  5
338
331
323
  5
2A5
331
31F
  5
2A1
331
272
  5
1F4
331
2DA
  5
25C
331
1E5
  5
304
331
2EF
  5
271
331
2D1
  5
253
331
297
  5
219
331
265
  5
1E7
331
2A0
  5
222
331
2F4
  5
276
331
2B2
  5
234
331
2D9
  5
25B
331
257
  5
1D9
331
2C1
  5
243
331
1CE
  5
2ED
331
1FC
  5
31B
331
281
  5
203
331
2AF
  5
231
331
284
  5
206
331
2F5
  5
277
331
29A
  5
21C
331
24C
  5
1CE
331
327
  5
2A9
331
285
  5
207
331
2C4
  5
246
331
2F7
  5
279
331
286
  5
208
331
2F2
  5
274
331
2D2
  5
254
331
233
  5
2D4
331
1CB
  5
2EA
331
328
  5
2AA
331
224
  5
2C5
331
2A3
  5
225
331
2F8
  5
27A
331
2B5
  5
237
331
2AD
  5
22F
331
305
  5
287
331
1CC
  5
2EB
331
32D
  5
2AF
331
2BC
  5
23E
331
30F
  5
291
331
225
  5
2C6
331
25E
  5
1E0
331
24E
  5
1D0
331
333
  5
2B5
331
1D1
  5
2F0
331
2C3
  5
245
331
304
  5
286
331
2F1
  5
273
331
23A
  5
2DB
331
2CF
  5
251
331
24F
  5
1D1
331
1F6
  5
315
331
31E
  5
2A0
331
2D3
  5
255
331
32C
  5
2AE
331
295
  5
217
331
2F6
  5
278
331
232
  5
2D3
331
246
  5
2E7
331
1F1
  5
310
331
1ED
  5
30C
331
227
  5
2C8
331
2D7
  5
259
331
2E2
  5
264
331
274
  5
1F6
331
245
  5
2E6
331
32B
  5
2AD
331
2F0
  5
272
331
258
  5
1DA
331
302
  5
284
331
2BF
  5
241
331
33A
  5
2BC
331
324
  5
2A6
331
25C
  5
1DE
331
33B
  5
2BD
331
26B
  5
1ED
331
2CE
  5
250
331
288
  5
20A
331
1DD
  5
2FC
331
2B8
  5
23A
331
23C
  5
2DD
331
291
  5
213
331
2BD
  5
23F
331
29C
  5
21E
331
22E
  5
2CF
331
29F
  5
221
331
2FE
  5
280
331
326
  5
2A8
331
24B
  5
1CD
331
2CB
  5
24D
331
2AA
  5
22C
331
2AB
  5
22D
331
2A1
  5
223
331
32A
  5
2AC
331
339
  5
2BB
331
21E
  5
33D
331
2EB
  5
26D
331
2C2
  5
244
331
202
  5
321
331
1EE
  5
30D
331
229
  5
2CA
331
1D3
  5
2F2
331
1F3
  5
312
331
2A9
  5
22B
331
306
  5
288
331
2E7
  5
269
331
317
  5
299
331
338
  5
2BA
331
1CD
  5
2EC
331
2E5
  5
267
331
2E3
  5
265
331
22C
  5
2CD
331
234
  5
2D5
331
2BE
  5
240
331
2B4
  5
236
331
318
  5
29A
331
2B7
  5
239
331
1F2
  5
311
331
321
  5
2A3
331
301
  5
283
331
2A8
  5
22A
331
223
  5
2C4
331
23F
  5
2E0
331
270
  5
1F2
331
235
  5
2D6
331
2A2
  5
224
331
2FA
  5
27C
331
262
  5
1E4
331
2B0
  5
232
331
22A
  5
2CB
331
222
  5
2C3
331
2E1
  5
263
331
2A4
  5
226
331
322
  5
2A4
331
32E
  5
2B0
331
263
  5
1E5
331
242
  5
2E3
331
29E
  5
220
331
1E6
  5
305
331
30D
  5
28F
331
2AC
  5
22E
331
311
  5
293
331
1D4
  5
2F3
331
1D7
  5
2F6
331
23B
  5
2DC
331
310
  5
292
331
331
  5
2B3
331
27C
  5
1FE
331
260
  5
1E2
331
1EC
  5
30B
331
309
  5
28B
331
237
  5
2D8
331
279
  5
1FB
331
2C0
  5
242
331
2D0
  5
252
331
23D
  5
2DE
331
2E6
  5
268
331
26E
  5
1F0
331
2E9
  5
26B
331
299
  5
21B
331
268
  5
1EA
331
20F
  5
32E
331
1E9
  5
308
331
2A6
  5
228
331
2B1
  5
233
331
247
  5
2E8
331
315
  5
297
331
23E
  5
2DF
331
2DB
  5
25D
331
320
  5
2A2
331
244
  5
2E5
331
2B9
  5
23B
331
1FF
  5
31E
331
209
  5
328
331
210
  5
32F
331
30C
  5
28E
331
203
  5
322
331
313
  5
295
331
334
  5
2B6
331
218
  5
337
331
307
  5
289
331
319
  5
29B
331
31D
  5
29F
331
21C
  5
33B
331
308
  5
28A
331
21F
  5
2C0
331
22D
  5
2CE
331
264
  5
1E6
331
303
  5
285
331
28E
  5
210
331
316
  5
298
331
290
  5
212
331
2D4
  5
256
331
2DE
  5
260
331
330
  5
2B2
331
298
  5
21A
331
2EE
  5
270
331
296
  5
218
331
266
  5
1E8
331
267
  5
1E9
331
289
  5
20B
331
293
  5
215
331
252
  5
1D4
331
2FD
  5
27F
331
238
  5
2D9
331
275
  5
1F7
331
236
  5
2D7
331
2C7
  5
249
331
20B
  5
32A
331
2B3
  5
235
331
251
  5
1D3
331
33D
  5
2BF
331
329
  5
2AB
331
2D6
  5
258
331
2E0
  5
262
331
294
  5
216
331
2CC
  5
24E
331
22B
  5
2CC
331
22F
  5
2D0
331
2DD
  5
25F
331
1EB
  5
30A
331
31C
  5
29E
331
1CF
  5
2EE
331
2E8
  5
26A
331
2EA
  5
26C
331
221
  5
2C2
331
2FC
  5
27E
331
24D
  5
1CF
331
332
  5
2B4
331
1F4
  5
313
331
280
  5
202
331
282
  5
204
331
28D
  5
20F
331
25D
  5
1DF
331
1D0
  5
2EF
331
2ED
  5
26F
331
325
  5
2A7
331
312
  5
294
331
27E
  5
200
331
25F
  5
1E1
331
20D
  5
32C
331
20A
  5
329
331
2AE
  5
230
331
29B
  5
21D
331
250
  5
1D2
331
27B
  5
1FD
331
26A
  5
1EC
331
337
  5
2B9
331
283
  5
205
331
31A
  5
29C
331
25A
  5
1DC
331
2CA
  5
24C
331
2A7
  5
229
331
2A5
  5
227
331
20C
  5
32B
331
32F
  5
2B1
331
240
  5
2E1
331
33C
  5
2BE
331
2BB
  5
23D
331
28B
  5
20D
331
29D
  5
21F
331
1FE
  5
31D
331
30A
  5
28C
331
2FF
  5
281
  0
LAYOUT
  5
13
102
{ACAD_REACTORS
330
D
102
}
102
{ACAD_XDICTIONARY
360
484
102
}
330
D
100
AcDbPlotSettings
  1

  2
HP LaserJet 2100 Series PS
  4

  6

 40
0.0
 41
0.0
 42
0.0
 43
0.0
 44
0.0
 45
0.0
 46
0.0
 47
0.0
 48
0.0
 49
0.0
140
0.0
141
0.0
142
1.0
143
1.0
 70
   688
 72
     0
 73
     0
 74
     5
  7

 75
    16
147
1.0
148
0.0
149
0.0
100
AcDbLayout
  1
Layout1
 70
     0
 71
     1
 10
0.0
 20
0.0
 11
12.0
 21
9.0
 12
0.0
 22
0.0
 32
0.0
 14
1.000000000000000E+20
 24
1.000000000000000E+20
 34
1.000000000000000E+20
 15
-1.000000000000000E+20
 25
-1.000000000000000E+20
 35
-1.000000000000000E+20
146
0.0
 13
0.0
 23
0.0
 33
0.0
 16
1.0
 26
0.0
 36
0.0
 17
0.0
 27
1.0
 37
0.0
 76
     0
330
E
  0
LAYOUT
  5
C
102
{ACAD_REACTORS
330
D
102
}
102
{ACAD_XDICTIONARY
360
486
102
}
330
D
100
AcDbPlotSettings
  1

  2
HP LaserJet 2100 Series PS
  4
Letter
  6

 40
5.365749835968018
 41
5.408084392547607
 42
5.4080810546875
 43
5.365753173828125
 44
215.8999938964844
 45
279.3999938964844
 46
0.0
 47
0.0
 48
0.0
 49
0.0
140
0.0
141
0.0
142
1.0
143
3.971318409846261
 70
 11952
 72
     0
 73
     1
 74
     2
  7

 75
     0
147
0.2518055458662435
148
0.0
149
0.0
100
AcDbLayout
  1
Model
 70
     1
 71
     0
 10
0.0
 20
0.0
 11
12.0
 21
9.0
 12
0.0
 22
0.0
 32
0.0
 14
0.0
 24
0.0
 34
0.0
 15
0.0
 25
0.0
 35
0.0
146
0.0
 13
0.0
 23
0.0
 33
0.0
 16
1.0
 26
0.0
 36
0.0
 17
0.0
 27
1.0
 37
0.0
 76
     0
330
2
  0
MLINESTYLE
  5
27
102
{ACAD_REACTORS
330
24
102
}
330
24
100
AcDbMlineStyle
  2
STANDARD
 70
     0
  3

 62
   256
 51
90.0
 52
90.0
 71
     2
 49
0.5
 62
   256
  6
BYLAYER
 49
-0.5
 62
   256
  6
BYLAYER
  0
ACDBPLACEHOLDER
  5
7
102
{ACAD_REACTORS
330
8
102
}
330
8
  0
ACAD_PROXY_OBJECT
  5
1C1
102
{ACAD_REACTORS
330
1C0
102
}
330
1C0
100
AcDbProxyObject
 90
      499
 91
      537
 95
   983063
 70
     0
 93
     1841
310
4214DD185B99185C9928B81E85EB51B8AE3F2E07A17AD46E2B8FC02B5E8DC0F42B1CFD028000000C1008070000C3001FDFF8000000C1003FBFF000000182007F7FE00000030400FEFFC00000060801FDFF8000000C1003FBFF00000018200000000000000681FA0B0000001820100E000186003FBFF000000182007F7FE000
310
00030400FEFFC00000060801FDFF8000000C1003FBFF000000182007F7FE000000304000AD7A3703D0AC73F4160000003040201C00030C007F7FE00000030400FEFFC00000060801FDFF8000000C1003FBFF000000182007F7FE00000030400FEFFC000000608000
340
16
340
16
340
16
 94
        0
  0
XRECORD
  5
482
102
{ACAD_REACTORS
330
481
102
}
330
481
100
AcDbXrecord
340
1BF
  0
XRECORD
  5
483
102
{ACAD_REACTORS
330
481
102
}
330
481
100
AcDbXrecord
340
1BE
  0
DICTIONARYVAR
  5
344
102
{ACAD_REACTORS
330
1BA
102
}
330
1BA
100
DictionaryVariables
280
     0
  1
STANDARD
  0
DICTIONARYVAR
  5
480
102
{ACAD_REACTORS
330
1BA
102
}
330
1BA
100
DictionaryVariables
280
     0
  1
0
  0
DICTIONARY
  5
484
330
13
100
AcDbDictionary
280
     1
281
     1
  3
ACAD_XREC_ROUNDTRIP
360
485
  0
DICTIONARY
  5
486
330
C
100
AcDbDictionary
280
     1
281
     1
  3
ACAD_XREC_ROUNDTRIP
360
487
  0
XRECORD
  5
485
102
{ACAD_REACTORS
330
484
102
}
330
484
100
AcDbXrecord
102
SHADEPLOT
 70
     0
102
SHADEPLOTRESLEVEL
 70
     2
102
SHADEPLOTCUSTOMDPI
 70
   300
  0
XRECORD
  5
487
102
{ACAD_REACTORS
330
486
102
}
330
486
100
AcDbXrecord
102
SHADEPLOT
 70
     0
102
SHADEPLOTRESLEVEL
 70
     2
102
SHADEPLOTCUSTOMDPI
 70
   300
  0
ENDSEC
  0
EOF
