  0
SECTION
  2
HEADER
  9
$ACADVER
  1
AC1015
  9
$ACADMAINTVER
 70
     6
  9
$DWGCODEPAGE
  3
ANSI_1252
  9
$INSBASE
 10
0.0
 20
0.0
 30
0.0
  9
$EXTMIN
 10
-13.85455125052918
 20
-0.0388325214724794
 30
0.0
  9
$EXTMAX
 10
13.72599392087638
 20
16.68705514971767
 30
0.0
  9
$LIMMIN
 10
0.0
 20
0.0
  9
$LIMMAX
 10
52.5
 20
40.0
  9
$ORTHOMODE
 70
     1
  9
$REGENMODE
 70
     1
  9
$FILLMODE
 70
     1
  9
$QTEXTMODE
 70
     0
  9
$MIRRTEXT
 70
     1
  9
$LTSCALE
 40
1.0
  9
$ATTMODE
 70
     1
  9
$TEXTSIZE
 40
0.36
  9
$TRACEWID
 40
0.05
  9
$TEXTSTYLE
  7
STANDARD
  9
$CLAYER
  8
0
  9
$CELTYPE
  6
BYLAYER
  9
$CECOLOR
 62
   256
  9
$CELTSCALE
 40
1.0
  9
$DISPSILH
 70
     0
  9
$DIMSCALE
 40
4.0
  9
$DIMASZ
 40
0.125
  9
$DIMEXO
 40
0.062
  9
$DIMDLI
 40
0.375
  9
$DIMRND
 40
0.0
  9
$DIMDLE
 40
0.0
  9
$DIMEXE
 40
0.08
  9
$DIMTP
 40
0.0
  9
$DIMTM
 40
0.0
  9
$DIMTXT
 40
0.09
  9
$DIMCEN
 40
-0.03125
  9
$DIMTSZ
 40
0.0
  9
$DIMTOL
 70
     0
  9
$DIMLIM
 70
     0
  9
$DIMTIH
 70
     1
  9
$DIMTOH
 70
     1
  9
$DIMSE1
 70
     0
  9
$DIMSE2
 70
     0
  9
$DIMTAD
 70
     0
  9
$DIMZIN
 70
     0
  9
$DIMBLK
  1

  9
$DIMASO
 70
     0
  9
$DIMSHO
 70
     0
  9
$DIMPOST
  1

  9
$DIMAPOST
  1

  9
$DIMALT
 70
     1
  9
$DIMALTD
 70
     2
  9
$DIMALTF
 40
25.4
  9
$DIMLFAC
 40
1.0
  9
$DIMTOFL
 70
     0
  9
$DIMTVP
 40
0.0
  9
$DIMTIX
 70
     0
  9
$DIMSOXD
 70
     0
  9
$DIMSAH
 70
     0
  9
$DIMBLK1
  1

  9
$DIMBLK2
  1

  9
$DIMSTYLE
  2
STANDARD
  9
$DIMCLRD
 70
     0
  9
$DIMCLRE
 70
     0
  9
$DIMCLRT
 70
     0
  9
$DIMTFAC
 40
1.0
  9
$DIMGAP
 40
0.09375
  9
$DIMJUST
 70
     0
  9
$DIMSD1
 70
     0
  9
$DIMSD2
 70
     0
  9
$DIMTOLJ
 70
     1
  9
$DIMTZIN
 70
     0
  9
$DIMALTZ
 70
     0
  9
$DIMALTTZ
 70
     0
  9
$DIMUPT
 70
     0
  9
$DIMDEC
 70
     5
  9
$DIMTDEC
 70
     5
  9
$DIMALTU
 70
     2
  9
$DIMALTTD
 70
     2
  9
$DIMTXSTY
  7
STANDARD
  9
$DIMAUNIT
 70
     0
  9
$DIMADEC
 70
     0
  9
$DIMALTRND
 40
0.0
  9
$DIMAZIN
 70
     0
  9
$DIMDSEP
 70
    46
  9
$DIMATFIT
 70
     3
  9
$DIMFRAC
 70
     2
  9
$DIMLDRBLK
  1

  9
$DIMLUNIT
 70
     5
  9
$DIMLWD
 70
    -2
  9
$DIMLWE
 70
    -2
  9
$DIMTMOVE
 70
     2
  9
$LUNITS
 70
     5
  9
$LUPREC
 70
     5
  9
$SKETCHINC
 40
0.1
  9
$FILLETRAD
 40
0.0
  9
$AUNITS
 70
     0
  9
$AUPREC
 70
     0
  9
$MENU
  1
acad
  9
$ELEVATION
 40
0.0
  9
$PELEVATION
 40
0.0
  9
$THICKNESS
 40
0.0
  9
$LIMCHECK
 70
     0
  9
$CHAMFERA
 40
0.0
  9
$CHAMFERB
 40
0.0
  9
$CHAMFERC
 40
0.0
  9
$CHAMFERD
 40
0.0
  9
$SKPOLY
 70
     0
  9
$TDCREATE
 40
2450514.931169097
  9
$TDUCREATE
 40
2450515.26450243
  9
$TDUPDATE
 40
2454165.946484248
  9
$TDUUPDATE
 40
2454166.279817581
  9
$TDINDWG
 40
0.2994814699
  9
$TDUSRTIMER
 40
0.2994814699
  9
$USRTIMER
 70
     1
  9
$ANGBASE
 50
0.0
  9
$ANGDIR
 70
     0
  9
$PDMODE
 70
     0
  9
$PDSIZE
 40
0.0
  9
$PLINEWID
 40
0.0
  9
$SPLFRAME
 70
     0
  9
$SPLINETYPE
 70
     6
  9
$SPLINESEGS
 70
     8
  9
$HANDSEED
  5
1C9
  9
$SURFTAB1
 70
     6
  9
$SURFTAB2
 70
     6
  9
$SURFTYPE
 70
     6
  9
$SURFU
 70
     6
  9
$SURFV
 70
     6
  9
$UCSBASE
  2

  9
$UCSNAME
  2

  9
$UCSORG
 10
0.0
 20
0.0
 30
0.0
  9
$UCSXDIR
 10
1.0
 20
0.0
 30
0.0
  9
$UCSYDIR
 10
0.0
 20
1.0
 30
0.0
  9
$UCSORTHOREF
  2

  9
$UCSORTHOVIEW
 70
     0
  9
$UCSORGTOP
 10
0.0
 20
0.0
 30
0.0
  9
$UCSORGBOTTOM
 10
0.0
 20
0.0
 30
0.0
  9
$UCSORGLEFT
 10
0.0
 20
0.0
 30
0.0
  9
$UCSORGRIGHT
 10
0.0
 20
0.0
 30
0.0
  9
$UCSORGFRONT
 10
0.0
 20
0.0
 30
0.0
  9
$UCSORGBACK
 10
0.0
 20
0.0
 30
0.0
  9
$PUCSBASE
  2

  9
$PUCSNAME
  2

  9
$PUCSORG
 10
0.0
 20
0.0
 30
0.0
  9
$PUCSXDIR
 10
1.0
 20
0.0
 30
0.0
  9
$PUCSYDIR
 10
0.0
 20
1.0
 30
0.0
  9
$PUCSORTHOREF
  2

  9
$PUCSORTHOVIEW
 70
     0
  9
$PUCSORGTOP
 10
0.0
 20
0.0
 30
0.0
  9
$PUCSORGBOTTOM
 10
0.0
 20
0.0
 30
0.0
  9
$PUCSORGLEFT
 10
0.0
 20
0.0
 30
0.0
  9
$PUCSORGRIGHT
 10
0.0
 20
0.0
 30
0.0
  9
$PUCSORGFRONT
 10
0.0
 20
0.0
 30
0.0
  9
$PUCSORGBACK
 10
0.0
 20
0.0
 30
0.0
  9
$USERI1
 70
     0
  9
$USERI2
 70
     0
  9
$USERI3
 70
     0
  9
$USERI4
 70
     0
  9
$USERI5
 70
     0
  9
$USERR1
 40
0.0
  9
$USERR2
 40
0.0
  9
$USERR3
 40
0.0
  9
$USERR4
 40
0.0
  9
$USERR5
 40
0.0
  9
$WORLDVIEW
 70
     1
  9
$SHADEDGE
 70
     3
  9
$SHADEDIF
 70
    70
  9
$TILEMODE
 70
     1
  9
$MAXACTVP
 70
    16
  9
$PINSBASE
 10
0.0
 20
0.0
 30
0.0
  9
$PLIMCHECK
 70
     0
  9
$PEXTMIN
 10
1.000000000000000E+20
 20
1.000000000000000E+20
 30
1.000000000000000E+20
  9
$PEXTMAX
 10
-1.000000000000000E+20
 20
-1.000000000000000E+20
 30
-1.000000000000000E+20
  9
$PLIMMIN
 10
0.0
 20
0.0
  9
$PLIMMAX
 10
12.0
 20
9.0
  9
$UNITMODE
 70
     0
  9
$VISRETAIN
 70
     0
  9
$PLINEGEN
 70
     0
  9
$PSLTSCALE
 70
     0
  9
$TREEDEPTH
 70
  3020
  9
$CMLSTYLE
  2
STANDARD
  9
$CMLJUST
 70
     0
  9
$CMLSCALE
 40
1.0
  9
$PROXYGRAPHICS
 70
     1
  9
$MEASUREMENT
 70
     0
  9
$CELWEIGHT
370
    -1
  9
$ENDCAPS
280
     0
  9
$JOINSTYLE
280
     0
  9
$LWDISPLAY
290
     0
  9
$INSUNITS
 70
     0
  9
$HYPERLINKBASE
  1

  9
$STYLESHEET
  1

  9
$XEDIT
290
     1
  9
$CEPSNTYPE
380
     0
  9
$PSTYLEMODE
290
     1
  9
$FINGERPRINTGUID
  2
{4A389440-8CC7-11D5-BE3F-00508B5FCD51}
  9
$VERSIONGUID
  2
{F0C36AF4-4E23-41C5-BF6F-DE209308A44D}
  9
$EXTNAMES
290
     1
  9
$PSVPSCALE
 40
0.0
  9
$OLESTARTUP
290
     0
  0
ENDSEC
  0
SECTION
  2
CLASSES
  0
CLASS
  1
DICTIONARYVAR
  2
AcDbDictionaryVar
  3
AutoCAD 2000
 90
        0
280
     0
281
     0
  0
CLASS
  1
LWPOLYLINE
  2
AcDbPolyline
  3
AutoCAD 2000
 90
        0
280
     0
281
     1
  0
CLASS
  1
ACDBDICTIONARYWDFLT
  2
AcDbDictionaryWithDefault
  3
AutoCAD 2000
 90
        0
280
     0
281
     0
  0
CLASS
  1
ACDBPLACEHOLDER
  2
AcDbPlaceHolder
  3
ObjectDBX Classes
 90
        0
280
     0
281
     0
  0
CLASS
  1
LAYOUT
  2
AcDbLayout
  3
ObjectDBX Classes
 90
        0
280
     0
281
     0
  0
CLASS
  1
LONG_TRANSACTION
  2
AcDbLongTransaction
  3
ObjectDBX Classes
 90
   -65536
280
     1
281
     0
  0
CLASS
  1
LWPOLYLINE
  2
AcDbPolyline
  3
AutoCAD 2000
 90
        0
280
     0
281
     1
  0
CLASS
  1
HATCH
  2
AcDbHatch
  3
AutoCAD 2000
 90
        0
280
     0
281
     1
  0
CLASS
  1
XRECORD
  2
AcDbXrecord
  3
AutoCAD 2000
 90
        0
280
     0
281
     0
  0
CLASS
  1
LONG_TRANSACTION
  2
AcDbLongTransaction
  3
ObjectDBX Classes
 90
   -65536
280
     1
281
     0
  0
CLASS
  1
LWPOLYLINE
  2
AcDbPolyline
  3
AutoCAD 2000
 90
        0
280
     0
281
     1
  0
CLASS
  1
HATCH
  2
AcDbHatch
  3
AutoCAD 2000
 90
        0
280
     0
281
     1
  0
CLASS
  1
XRECORD
  2
AcDbXrecord
  3
AutoCAD 2000
 90
        0
280
     0
281
     0
  0
CLASS
  1
LONG_TRANSACTION
  2
AcDbLongTransaction
  3
ObjectDBX Classes
 90
   -65536
280
     1
281
     0
  0
CLASS
  1
LWPOLYLINE
  2
AcDbPolyline
  3
AutoCAD 2000
 90
        0
280
     0
281
     1
  0
CLASS
  1
HATCH
  2
AcDbHatch
  3
AutoCAD 2000
 90
        0
280
     0
281
     1
  0
CLASS
  1
XRECORD
  2
AcDbXrecord
  3
AutoCAD 2000
 90
        0
280
     0
281
     0
  0
CLASS
  1
LONG_TRANSACTION
  2
AcDbLongTransaction
  3
ObjectDBX Classes
 90
   -65536
280
     1
281
     0
  0
CLASS
  1
LWPOLYLINE
  2
AcDbPolyline
  3
AutoCAD 2000
 90
        0
280
     0
281
     1
  0
CLASS
  1
HATCH
  2
AcDbHatch
  3
AutoCAD 2000
 90
        0
280
     0
281
     1
  0
CLASS
  1
XRECORD
  2
AcDbXrecord
  3
AutoCAD 2000
 90
        0
280
     0
281
     0
  0
CLASS
  1
LONG_TRANSACTION
  2
AcDbLongTransaction
  3
ObjectDBX Classes
 90
   -65536
280
     1
281
     0
  0
CLASS
  1
LWPOLYLINE
  2
AcDbPolyline
  3
AutoCAD 2000
 90
        0
280
     0
281
     1
  0
CLASS
  1
HATCH
  2
AcDbHatch
  3
AutoCAD 2000
 90
        0
280
     0
281
     1
  0
CLASS
  1
XRECORD
  2
AcDbXrecord
  3
AutoCAD 2000
 90
        0
280
     0
281
     0
  0
CLASS
  1
LONG_TRANSACTION
  2
AcDbLongTransaction
  3
ObjectDBX Classes
 90
   -65536
280
     1
281
     0
  0
CLASS
  1
LWPOLYLINE
  2
AcDbPolyline
  3
AutoCAD 2000
 90
        0
280
     0
281
     1
  0
CLASS
  1
HATCH
  2
AcDbHatch
  3
AutoCAD 2000
 90
        0
280
     0
281
     1
  0
CLASS
  1
XRECORD
  2
AcDbXrecord
  3
AutoCAD 2000
 90
        0
280
     0
281
     0
  0
CLASS
  1
LONG_TRANSACTION
  2
AcDbLongTransaction
  3
ObjectDBX Classes
 90
   -65536
280
     1
281
     0
  0
CLASS
  1
LWPOLYLINE
  2
AcDbPolyline
  3
AutoCAD 2000
 90
        0
280
     0
281
     1
  0
CLASS
  1
HATCH
  2
AcDbHatch
  3
AutoCAD 2000
 90
        0
280
     0
281
     1
  0
CLASS
  1
XRECORD
  2
AcDbXrecord
  3
AutoCAD 2000
 90
        0
280
     0
281
     0
  0
CLASS
  1
LONG_TRANSACTION
  2
AcDbLongTransaction
  3
ObjectDBX Classes
 90
   -65536
280
     1
281
     0
  0
CLASS
  1
LWPOLYLINE
  2
AcDbPolyline
  3
AutoCAD 2000
 90
        0
280
     0
281
     1
  0
CLASS
  1
HATCH
  2
AcDbHatch
  3
AutoCAD 2000
 90
        0
280
     0
281
     1
  0
CLASS
  1
XRECORD
  2
AcDbXrecord
  3
AutoCAD 2000
 90
        0
280
     0
281
     0
  0
CLASS
  1
LONG_TRANSACTION
  2
AcDbLongTransaction
  3
ObjectDBX Classes
 90
   -65536
280
     1
281
     0
  0
CLASS
  1
LWPOLYLINE
  2
AcDbPolyline
  3
AutoCAD 2000
 90
        0
280
     0
281
     1
  0
CLASS
  1
HATCH
  2
AcDbHatch
  3
AutoCAD 2000
 90
        0
280
     0
281
     1
  0
CLASS
  1
XRECORD
  2
AcDbXrecord
  3
AutoCAD 2000
 90
        0
280
     0
281
     0
  0
CLASS
  1
LONG_TRANSACTION
  2
AcDbLongTransaction
  3
ObjectDBX Classes
 90
   -65536
280
     1
281
     0
  0
CLASS
  1
LWPOLYLINE
  2
AcDbPolyline
  3
AutoCAD 2000
 90
        0
280
     0
281
     1
  0
CLASS
  1
HATCH
  2
AcDbHatch
  3
AutoCAD 2000
 90
        0
280
     0
281
     1
  0
CLASS
  1
XRECORD
  2
AcDbXrecord
  3
AutoCAD 2000
 90
        0
280
     0
281
     0
  0
CLASS
  1
LONG_TRANSACTION
  2
AcDbLongTransaction
  3
ObjectDBX Classes
 90
   -65536
280
     1
281
     0
  0
CLASS
  1
LWPOLYLINE
  2
AcDbPolyline
  3
AutoCAD 2000
 90
        0
280
     0
281
     1
  0
CLASS
  1
HATCH
  2
AcDbHatch
  3
AutoCAD 2000
 90
        0
280
     0
281
     1
  0
CLASS
  1
XRECORD
  2
AcDbXrecord
  3
AutoCAD 2000
 90
        0
280
     0
281
     0
  0
CLASS
  1
LONG_TRANSACTION
  2
AcDbLongTransaction
  3
ObjectDBX Classes
 90
   -65536
280
     1
281
     0
  0
CLASS
  1
LWPOLYLINE
  2
AcDbPolyline
  3
AutoCAD 2000
 90
        0
280
     0
281
     1
  0
CLASS
  1
HATCH
  2
AcDbHatch
  3
AutoCAD 2000
 90
        0
280
     0
281
     1
  0
CLASS
  1
XRECORD
  2
AcDbXrecord
  3
AutoCAD 2000
 90
        0
280
     0
281
     0
  0
CLASS
  1
LONG_TRANSACTION
  2
AcDbLongTransaction
  3
ObjectDBX Classes
 90
   -65536
280
     1
281
     0
  0
CLASS
  1
LWPOLYLINE
  2
AcDbPolyline
  3
AutoCAD 2000
 90
        0
280
     0
281
     1
  0
CLASS
  1
HATCH
  2
AcDbHatch
  3
AutoCAD 2000
 90
        0
280
     0
281
     1
  0
CLASS
  1
XRECORD
  2
AcDbXrecord
  3
AutoCAD 2000
 90
        0
280
     0
281
     0
  0
CLASS
  1
TABLESTYLE
  2
AcDbTableStyle
  3
ObjectDBX Classes
 90
     2047
280
     1
281
     0
  0
ENDSEC
  0
SECTION
  2
TABLES
  0
TABLE
  2
VPORT
  5
1D
330
0
100
AcDbSymbolTable
 70
     3
  0
VPORT
  5
1BB
330
1D
100
AcDbSymbolTableRecord
100
AcDbViewportTableRecord
  2
*Active
 70
     0
 10
0.0
 20
0.0
 11
1.0
 21
1.0
 12
18.39275404208919
 22
14.65863045791197
 13
0.0
 23
0.0
 14
0.03125
 24
0.03125
 15
0.25
 25
0.25
 16
0.0
 26
0.0
 36
1.0
 17
0.0
 27
0.0
 37
0.0
 40
40.54036404723556
 41
1.814583333333334
 42
50.0
 43
0.0
 44
0.0
 50
0.0
 51
0.0
 71
     0
 72
   100
 73
     1
 74
     0
 75
     0
 76
     0
 77
     0
 78
     0
281
     0
 65
     1
110
0.0
120
0.0
130
0.0
111
1.0
121
0.0
131
0.0
112
0.0
122
1.0
132
0.0
 79
     0
146
0.0
  0
ENDTAB
  0
TABLE
  2
LTYPE
  5
18
330
0
100
AcDbSymbolTable
 70
     2
  0
LTYPE
  5
19
330
18
100
AcDbSymbolTableRecord
100
AcDbLinetypeTableRecord
  2
BYBLOCK
 70
     0
  3

 72
    65
 73
     0
 40
0.0
  0
LTYPE
  5
1A
330
18
100
AcDbSymbolTableRecord
100
AcDbLinetypeTableRecord
  2
BYLAYER
 70
     0
  3

 72
    65
 73
     0
 40
0.0
  0
LTYPE
  5
A
330
18
100
AcDbSymbolTableRecord
100
AcDbLinetypeTableRecord
  2
CONTINUOUS
 70
     0
  3
Solid line
 72
    65
 73
     0
 40
0.0
  0
LTYPE
  5
1A6
330
18
100
AcDbSymbolTableRecord
100
AcDbLinetypeTableRecord
  2
HIDDEN
 70
     0
  3
Hidden __ __ __ __ __ __ __ __ __ __ __ __ __ _
 72
    65
 73
     2
 40
0.375
 49
0.25
 74
     0
 49
-0.125
 74
     0
  0
ENDTAB
  0
TABLE
  2
LAYER
  5
14
330
0
100
AcDbSymbolTable
 70
     1
  0
LAYER
  5
6
330
14
100
AcDbSymbolTableRecord
100
AcDbLayerTableRecord
  2
0
 70
     0
 62
     7
  6
CONTINUOUS
370
    -3
390
7
  0
ENDTAB
  0
TABLE
  2
STYLE
  5
15
330
0
100
AcDbSymbolTable
 70
     2
  0
STYLE
  5
16
330
15
100
AcDbSymbolTableRecord
100
AcDbTextStyleTableRecord
  2
STANDARD
 70
     0
 40
0.0
 41
1.0
 50
0.0
 71
     0
 42
0.36
  3
TXT
  4

  0
STYLE
  5
1A5
330
15
100
AcDbSymbolTableRecord
100
AcDbTextStyleTableRecord
  2

 70
     1
 40
0.0
 41
1.0
 50
0.0
 71
     0
 42
0.36
  3
ltypeshp.shx
  4

  0
ENDTAB
  0
TABLE
  2
VIEW
  5
1B
330
0
100
AcDbSymbolTable
 70
     0
  0
ENDTAB
  0
TABLE
  2
UCS
  5
1C
330
0
100
AcDbSymbolTable
 70
     0
  0
ENDTAB
  0
TABLE
  2
APPID
  5
1F
330
0
100
AcDbSymbolTable
 70
     1
  0
APPID
  5
20
330
1F
100
AcDbSymbolTableRecord
100
AcDbRegAppTableRecord
  2
ACAD
 70
     0
  0
ENDTAB
  0
TABLE
  2
DIMSTYLE
  5
21
330
0
100
AcDbSymbolTable
 70
     1
100
AcDbDimStyleTable
  0
DIMSTYLE
105
27
330
21
100
AcDbSymbolTableRecord
100
AcDbDimStyleTableRecord
  2
STANDARD
 70
     0
  3

  4

340
16
  0
ENDTAB
  0
TABLE
  2
BLOCK_RECORD
  5
1
330
0
100
AcDbSymbolTable
 70
     0
  0
BLOCK_RECORD
  5
2
330
1
100
AcDbSymbolTableRecord
100
AcDbBlockTableRecord
  2
*MODEL_SPACE
340
C
  0
BLOCK_RECORD
  5
E
330
1
100
AcDbSymbolTableRecord
100
AcDbBlockTableRecord
  2
*PAPER_SPACE
340
13
  0
ENDTAB
  0
ENDSEC
  0
SECTION
  2
BLOCKS
  0
BLOCK
  5
5
330
2
100
AcDbEntity
  8
0
100
AcDbBlockBegin
  2
*MODEL_SPACE
 70
     0
 10
0.0
 20
0.0
 30
0.0
  3
*MODEL_SPACE
  1

  4

  0
ENDBLK
  5
B
330
2
100
AcDbEntity
  8
0
100
AcDbBlockEnd
  0
BLOCK
  5
11
330
E
100
AcDbEntity
 67
     1
  8
0
100
AcDbBlockBegin
  2
*PAPER_SPACE
 70
     0
 10
0.0
 20
0.0
 30
0.0
  3
*PAPER_SPACE
  1

  4

  0
ENDBLK
  5
12
330
E
100
AcDbEntity
 67
     1
  8
0
100
AcDbBlockEnd
  0
ENDSEC
  0
SECTION
  2
ENTITIES
  0
LINE
  5
2C
330
2
100
AcDbEntity
  8
0
100
AcDbLine
 10
-0.431568123513344
 20
9.218749999999977
 30
0.0
 11
-0.431568123513344
 21
6.324999999999994
 31
0.0
  0
LINE
  5
2D
330
2
100
AcDbEntity
  8
0
100
AcDbLine
 10
0.9362269533333745
 20
7.705420185445446
 30
0.0
 11
0.9362269533333745
 21
7.058973576038722
 31
0.0
  0
LINE
  5
2E
330
2
100
AcDbEntity
  8
0
100
AcDbLine
 10
-0.5253181235133368
 20
0.4270269749706266
 30
0.0
 11
-0.5253181235133368
 21
9.218749999999977
 31
0.0
  0
ARC
  5
2F
330
2
100
AcDbEntity
  8
0
100
AcDbCircle
 10
4.498726953333332
 20
4.096094077712662
 30
0.0
 40
3.25
100
AcDbArc
 50
180.0
 51
225.0000000000005
  0
LINE
  5
30
330
2
100
AcDbEntity
  8
0
100
AcDbLine
 10
-0.2537382972902549
 20
0.0000000000000036
 30
0.0
 11
3.746261702709745
 21
-0.0000000000000036
 31
0.0
  0
LINE
  5
31
330
2
100
AcDbEntity
  8
0
100
AcDbLine
 10
-0.4315681235133368
 20
0.4270269749706266
 30
0.0
 11
-0.431568123513344
 21
6.624999999999998
 31
0.0
  0
ARC
  5
32
330
2
100
AcDbEntity
  8
0
100
AcDbCircle
 10
-0.7096060072994632
 20
0.0099510018476856
 30
0.0
 40
0.455976305817323
100
AcDbArc
 50
358.7495059120791
 51
66.16143218348043
  0
LINE
  5
33
330
2
100
AcDbEntity
  8
0
100
AcDbLine
 10
-0.4315681235133368
 20
0.4270269749706266
 30
0.0
 11
-0.5253181235133368
 21
0.4270269749706266
 31
0.0
  0
LWPOLYLINE
  5
34
330
2
100
AcDbEntity
  8
0
100
AcDbPolyline
 90
        9
 70
     0
 43
0.0
 10
0.5059318764866561
 20
0.736662499999996
 42
-0.0700628980345364
 10
0.4268130726866133
 20
0.7478037757688671
 42
-0.0818514225363451
 10
0.3649167545601699
 20
0.7771806156576009
 42
-0.1069100077216601
 10
0.3203186034946697
 20
0.8249275284126316
 42
-0.135394011665182
 10
0.3065063785585238
 20
0.8749999999999947
 42
-0.1353940116651818
 10
0.3203186034946697
 20
0.9250724715873648
 42
-0.1069100077216599
 10
0.3649167545601699
 20
0.9728193843423885
 42
-0.0818514225363446
 10
0.4268130726866133
 20
1.002196224231129
 42
-0.0700628980345367
 10
0.5059318764866561
 20
1.0133375
 42
-0.0700628980345371
  0
LWPOLYLINE
  5
35
330
2
100
AcDbEntity
  8
0
100
AcDbPolyline
 90
        9
 70
     0
 43
0.0
 10
0.5059318764866561
 20
0.7953124999999961
 42
-0.147269582437036
 10
0.4882354533241156
 20
0.8006403416877905
 42
-0.1071386913803464
 10
0.470683559660614
 20
0.8186524283741949
 42
-0.0765137470862007
 10
0.4601416456138452
 20
0.8431571664083553
 42
-0.063469041210727
 10
0.4560832287804431
 20
0.8750000000000018
 42
-0.0634690412107267
 10
0.4601416456138452
 20
0.9068428335916412
 42
-0.0765137470862059
 10
0.470683559660614
 20
0.9313475716258015
 42
-0.1071386913803463
 10
0.4882354533241156
 20
0.9493596583122059
 42
-0.1472695824370325
 10
0.5059318764866561
 20
0.9546875000000004
 42
-0.1472695824370333
  0
LWPOLYLINE
  5
36
330
2
100
AcDbEntity
  8
0
100
AcDbPolyline
 90
        9
 70
     0
 43
0.0
 10
0.5059318764866561
 20
0.7659874999999961
 42
-0.1432467981947568
 10
0.4807072256311997
 20
0.7733655968712458
 42
-0.1071754848060475
 10
0.456021059660614
 20
0.7979165220158979
 42
-0.0783035184710328
 10
0.4410743920382529
 20
0.8315377763666962
 42
-0.0656020556757086
 10
0.435347322422146
 20
0.8750000000000018
 42
-0.0656020556757101
 10
0.4410743920382529
 20
0.9184622236333002
 42
-0.0783035184710357
 10
0.456021059660614
 20
0.9520834779840985
 42
-0.1071754848060445
 10
0.4807072256311997
 20
0.9766344031287506
 42
-0.1432467981947535
 10
0.5059318764866561
 20
0.9840125000000004
 42
-0.1432467981947515
  0
LINE
  5
37
330
2
100
AcDbEntity
  8
0
100
AcDbLine
 10
0.5059318764866561
 20
0.736662499999996
 30
0.0
 11
0.5059318764866561
 21
1.0133375
 31
0.0
  0
LINE
  5
38
330
2
100
AcDbEntity
  8
0
100
AcDbLine
 10
1.248726953333375
 20
4.096094077712662
 30
0.0
 11
1.248726953333375
 21
4.642920185445446
 31
0.0
  0
LWPOLYLINE
  5
39
330
2
100
AcDbEntity
  8
0
100
AcDbPolyline
 90
        9
 70
     0
 43
0.0
 10
0.5059318764866561
 20
2.795312499999996
 42
-0.147269582437036
 10
0.4882354533241156
 20
2.800640341687791
 42
-0.1071386913803464
 10
0.470683559660614
 20
2.818652428374195
 42
-0.0765137470862007
 10
0.4601416456138452
 20
2.843157166408355
 42
-0.063469041210727
 10
0.4560832287804431
 20
2.875000000000002
 42
-0.0634690412107267
 10
0.4601416456138452
 20
2.906842833591641
 42
-0.0765137470862059
 10
0.470683559660614
 20
2.931347571625802
 42
-0.1071386913803463
 10
0.4882354533241156
 20
2.949359658312206
 42
-0.1472695824370325
 10
0.5059318764866561
 20
2.9546875
 42
-0.1472695824370333
  0
LWPOLYLINE
  5
3A
330
2
100
AcDbEntity
  8
0
100
AcDbPolyline
 90
        9
 70
     0
 43
0.0
 10
0.5059318764866561
 20
2.765987499999996
 42
-0.1432467981947568
 10
0.4807072256311997
 20
2.773365596871246
 42
-0.1071754848060475
 10
0.456021059660614
 20
2.797916522015898
 42
-0.0783035184710328
 10
0.4410743920382529
 20
2.831537776366696
 42
-0.0656020556757086
 10
0.435347322422146
 20
2.875000000000002
 42
-0.0656020556757101
 10
0.4410743920382529
 20
2.9184622236333
 42
-0.0783035184710357
 10
0.456021059660614
 20
2.952083477984099
 42
-0.1071754848060445
 10
0.4807072256311997
 20
2.976634403128751
 42
-0.1432467981947535
 10
0.5059318764866561
 20
2.9840125
 42
-0.1432467981947515
  0
LWPOLYLINE
  5
3B
330
2
100
AcDbEntity
  8
0
100
AcDbPolyline
 90
        9
 70
     0
 43
0.0
 10
0.5059318764866561
 20
2.736662499999996
 42
-0.0700628980345364
 10
0.4268130726866133
 20
2.747803775768867
 42
-0.0818514225363451
 10
0.3649167545601699
 20
2.777180615657601
 42
-0.1069100077216601
 10
0.3203186034946697
 20
2.824927528412632
 42
-0.135394011665182
 10
0.3065063785585238
 20
2.874999999999995
 42
-0.1353940116651818
 10
0.3203186034946697
 20
2.925072471587365
 42
-0.1069100077216599
 10
0.3649167545601699
 20
2.972819384342389
 42
-0.0818514225363446
 10
0.4268130726866133
 20
3.002196224231129
 42
-0.0700628980345367
 10
0.5059318764866561
 20
3.0133375
 42
-0.0700628980345371
  0
LINE
  5
3C
330
2
100
AcDbEntity
  8
0
100
AcDbLine
 10
0.5059318764866561
 20
2.736662499999996
 30
0.0
 11
0.5059318764866561
 21
3.0133375
 31
0.0
  0
LWPOLYLINE
  5
3D
330
2
100
AcDbEntity
  8
0
100
AcDbPolyline
 90
        9
 70
     0
 43
0.0
 10
0.5059318764866561
 20
1.736662499999996
 42
-0.0700628980345364
 10
0.4268130726866133
 20
1.747803775768867
 42
-0.0818514225363451
 10
0.3649167545601699
 20
1.777180615657601
 42
-0.1069100077216601
 10
0.3203186034946697
 20
1.824927528412632
 42
-0.135394011665182
 10
0.3065063785585238
 20
1.874999999999995
 42
-0.1353940116651818
 10
0.3203186034946697
 20
1.925072471587365
 42
-0.1069100077216599
 10
0.3649167545601699
 20
1.972819384342389
 42
-0.0818514225363446
 10
0.4268130726866133
 20
2.002196224231129
 42
-0.0700628980345367
 10
0.5059318764866561
 20
2.0133375
 42
-0.0700628980345371
  0
LINE
  5
3E
330
2
100
AcDbEntity
  8
0
100
AcDbLine
 10
0.5059318764866561
 20
1.736662499999996
 30
0.0
 11
0.5059318764866561
 21
2.0133375
 31
0.0
  0
LWPOLYLINE
  5
3F
330
2
100
AcDbEntity
  8
0
100
AcDbPolyline
 90
        9
 70
     0
 43
0.0
 10
0.5059318764866561
 20
1.765987499999996
 42
-0.1432467981947568
 10
0.4807072256311997
 20
1.773365596871246
 42
-0.1071754848060475
 10
0.456021059660614
 20
1.797916522015898
 42
-0.0783035184710328
 10
0.4410743920382529
 20
1.831537776366696
 42
-0.0656020556757086
 10
0.435347322422146
 20
1.875000000000002
 42
-0.0656020556757101
 10
0.4410743920382529
 20
1.9184622236333
 42
-0.0783035184710357
 10
0.456021059660614
 20
1.952083477984099
 42
-0.1071754848060445
 10
0.4807072256311997
 20
1.976634403128751
 42
-0.1432467981947535
 10
0.5059318764866561
 20
1.9840125
 42
-0.1432467981947515
  0
LWPOLYLINE
  5
40
330
2
100
AcDbEntity
  8
0
100
AcDbPolyline
 90
        9
 70
     0
 43
0.0
 10
0.5059318764866561
 20
1.795312499999996
 42
-0.147269582437036
 10
0.4882354533241156
 20
1.800640341687791
 42
-0.1071386913803464
 10
0.470683559660614
 20
1.818652428374195
 42
-0.0765137470862007
 10
0.4601416456138452
 20
1.843157166408355
 42
-0.063469041210727
 10
0.4560832287804431
 20
1.875000000000002
 42
-0.0634690412107267
 10
0.4601416456138452
 20
1.906842833591641
 42
-0.0765137470862059
 10
0.470683559660614
 20
1.931347571625802
 42
-0.1071386913803463
 10
0.4882354533241156
 20
1.949359658312206
 42
-0.1472695824370325
 10
0.5059318764866561
 20
1.9546875
 42
-0.1472695824370333
  0
LWPOLYLINE
  5
41
330
2
100
AcDbEntity
  8
0
100
AcDbPolyline
 90
        9
 70
     0
 43
0.0
 10
0.5059318764866561
 20
3.736662499999996
 42
-0.0700628980345364
 10
0.4268130726866133
 20
3.747803775768867
 42
-0.0818514225363451
 10
0.3649167545601699
 20
3.777180615657601
 42
-0.1069100077216601
 10
0.3203186034946697
 20
3.824927528412632
 42
-0.135394011665182
 10
0.3065063785585238
 20
3.874999999999995
 42
-0.1353940116651818
 10
0.3203186034946697
 20
3.925072471587365
 42
-0.1069100077216599
 10
0.3649167545601699
 20
3.972819384342389
 42
-0.0818514225363446
 10
0.4268130726866133
 20
4.002196224231129
 42
-0.0700628980345367
 10
0.5059318764866561
 20
4.0133375
 42
-0.0700628980345371
  0
LWPOLYLINE
  5
42
330
2
100
AcDbEntity
  8
0
100
AcDbPolyline
 90
        9
 70
     0
 43
0.0
 10
0.5059318764866561
 20
3.795312499999996
 42
-0.147269582437036
 10
0.4882354533241156
 20
3.800640341687791
 42
-0.1071386913803464
 10
0.470683559660614
 20
3.818652428374195
 42
-0.0765137470862007
 10
0.4601416456138452
 20
3.843157166408355
 42
-0.063469041210727
 10
0.4560832287804431
 20
3.875000000000002
 42
-0.0634690412107267
 10
0.4601416456138452
 20
3.906842833591641
 42
-0.0765137470862059
 10
0.470683559660614
 20
3.931347571625802
 42
-0.1071386913803463
 10
0.4882354533241156
 20
3.949359658312206
 42
-0.1472695824370325
 10
0.5059318764866561
 20
3.9546875
 42
-0.1472695824370333
  0
LWPOLYLINE
  5
43
330
2
100
AcDbEntity
  8
0
100
AcDbPolyline
 90
        9
 70
     0
 43
0.0
 10
0.5059318764866561
 20
3.765987499999996
 42
-0.1432467981947568
 10
0.4807072256311997
 20
3.773365596871246
 42
-0.1071754848060475
 10
0.456021059660614
 20
3.797916522015898
 42
-0.0783035184710328
 10
0.4410743920382529
 20
3.831537776366696
 42
-0.0656020556757086
 10
0.435347322422146
 20
3.875000000000002
 42
-0.0656020556757101
 10
0.4410743920382529
 20
3.9184622236333
 42
-0.0783035184710357
 10
0.456021059660614
 20
3.952083477984099
 42
-0.1071754848060445
 10
0.4807072256311997
 20
3.976634403128751
 42
-0.1432467981947535
 10
0.5059318764866561
 20
3.9840125
 42
-0.1432467981947515
  0
LINE
  5
44
330
2
100
AcDbEntity
  8
0
100
AcDbLine
 10
0.5059318764866561
 20
3.736662499999996
 30
0.0
 11
0.5059318764866561
 21
4.0133375
 31
0.0
  0
LINE
  5
45
330
2
100
AcDbEntity
  8
0
100
AcDbLine
 10
0.5059318764866561
 20
5.736662499999996
 30
0.0
 11
0.5059318764866561
 21
6.0133375
 31
0.0
  0
LWPOLYLINE
  5
46
330
2
100
AcDbEntity
  8
0
100
AcDbPolyline
 90
        9
 70
     0
 43
0.0
 10
0.5059318764866561
 20
5.736662499999996
 42
-0.0700628980345364
 10
0.4268130726866133
 20
5.747803775768867
 42
-0.0818514225363451
 10
0.3649167545601699
 20
5.777180615657601
 42
-0.1069100077216601
 10
0.3203186034946697
 20
5.824927528412632
 42
-0.135394011665182
 10
0.3065063785585238
 20
5.874999999999995
 42
-0.1353940116651818
 10
0.3203186034946697
 20
5.925072471587365
 42
-0.1069100077216599
 10
0.3649167545601699
 20
5.972819384342389
 42
-0.0818514225363446
 10
0.4268130726866133
 20
6.002196224231129
 42
-0.0700628980345367
 10
0.5059318764866561
 20
6.0133375
 42
-0.0700628980345371
  0
LWPOLYLINE
  5
47
330
2
100
AcDbEntity
  8
0
100
AcDbPolyline
 90
        9
 70
     0
 43
0.0
 10
0.5059318764866561
 20
5.765987499999996
 42
-0.1432467981947568
 10
0.4807072256311997
 20
5.773365596871246
 42
-0.1071754848060475
 10
0.456021059660614
 20
5.797916522015898
 42
-0.0783035184710328
 10
0.4410743920382529
 20
5.831537776366696
 42
-0.0656020556757086
 10
0.435347322422146
 20
5.875000000000002
 42
-0.0656020556757101
 10
0.4410743920382529
 20
5.9184622236333
 42
-0.0783035184710357
 10
0.456021059660614
 20
5.952083477984099
 42
-0.1071754848060445
 10
0.4807072256311997
 20
5.976634403128751
 42
-0.1432467981947535
 10
0.5059318764866561
 20
5.9840125
 42
-0.1432467981947515
  0
LWPOLYLINE
  5
48
330
2
100
AcDbEntity
  8
0
100
AcDbPolyline
 90
        9
 70
     0
 43
0.0
 10
0.5059318764866561
 20
5.795312499999996
 42
-0.147269582437036
 10
0.4882354533241156
 20
5.800640341687791
 42
-0.1071386913803464
 10
0.470683559660614
 20
5.818652428374195
 42
-0.0765137470862007
 10
0.4601416456138452
 20
5.843157166408355
 42
-0.063469041210727
 10
0.4560832287804431
 20
5.875000000000002
 42
-0.0634690412107267
 10
0.4601416456138452
 20
5.906842833591641
 42
-0.0765137470862059
 10
0.470683559660614
 20
5.931347571625802
 42
-0.1071386913803463
 10
0.4882354533241156
 20
5.949359658312206
 42
-0.1472695824370325
 10
0.5059318764866561
 20
5.9546875
 42
-0.1472695824370333
  0
LINE
  5
49
330
2
100
AcDbEntity
  8
0
100
AcDbLine
 10
1.212115300981694
 20
6.033085228390403
 30
0.0
 11
0.9728386056850553
 21
5.793808533093765
 31
0.0
  0
LWPOLYLINE
  5
4A
330
2
100
AcDbEntity
  8
0
100
AcDbPolyline
 90
        9
 70
     0
 43
0.0
 10
0.5059318764866561
 20
4.736662499999996
 42
-0.0700628980345364
 10
0.4268130726866133
 20
4.747803775768867
 42
-0.0818514225363451
 10
0.3649167545601699
 20
4.777180615657601
 42
-0.1069100077216601
 10
0.3203186034946697
 20
4.824927528412632
 42
-0.135394011665182
 10
0.3065063785585238
 20
4.874999999999995
 42
-0.1353940116651818
 10
0.3203186034946697
 20
4.925072471587365
 42
-0.1069100077216599
 10
0.3649167545601699
 20
4.972819384342389
 42
-0.0818514225363446
 10
0.4268130726866133
 20
5.002196224231129
 42
-0.0700628980345367
 10
0.5059318764866561
 20
5.0133375
 42
-0.0700628980345371
  0
LINE
  5
4B
330
2
100
AcDbEntity
  8
0
100
AcDbLine
 10
0.5059318764866561
 20
4.736662499999996
 30
0.0
 11
0.5059318764866561
 21
5.0133375
 31
0.0
  0
LWPOLYLINE
  5
4C
330
2
100
AcDbEntity
  8
0
100
AcDbPolyline
 90
        9
 70
     0
 43
0.0
 10
0.5059318764866561
 20
4.765987499999996
 42
-0.1432467981947568
 10
0.4807072256311997
 20
4.773365596871246
 42
-0.1071754848060475
 10
0.456021059660614
 20
4.797916522015898
 42
-0.0783035184710328
 10
0.4410743920382529
 20
4.831537776366696
 42
-0.0656020556757086
 10
0.435347322422146
 20
4.875000000000002
 42
-0.0656020556757101
 10
0.4410743920382529
 20
4.9184622236333
 42
-0.0783035184710357
 10
0.456021059660614
 20
4.952083477984099
 42
-0.1071754848060445
 10
0.4807072256311997
 20
4.976634403128751
 42
-0.1432467981947535
 10
0.5059318764866561
 20
4.9840125
 42
-0.1432467981947515
  0
LWPOLYLINE
  5
4D
330
2
100
AcDbEntity
  8
0
100
AcDbPolyline
 90
        9
 70
     0
 43
0.0
 10
0.5059318764866561
 20
4.795312499999996
 42
-0.147269582437036
 10
0.4882354533241156
 20
4.800640341687791
 42
-0.1071386913803464
 10
0.470683559660614
 20
4.818652428374195
 42
-0.0765137470862007
 10
0.4601416456138452
 20
4.843157166408355
 42
-0.063469041210727
 10
0.4560832287804431
 20
4.875000000000002
 42
-0.0634690412107267
 10
0.4601416456138452
 20
4.906842833591641
 42
-0.0765137470862059
 10
0.470683559660614
 20
4.931347571625802
 42
-0.1071386913803463
 10
0.4882354533241156
 20
4.949359658312206
 42
-0.1472695824370325
 10
0.5059318764866561
 20
4.9546875
 42
-0.1472695824370333
  0
LINE
  5
4E
330
2
100
AcDbEntity
  8
0
100
AcDbLine
 10
0.9362269533333745
 20
5.705420185445446
 30
0.0
 11
0.9362269533333745
 21
5.058973576038722
 31
0.0
  0
ARC
  5
4F
330
2
100
AcDbEntity
  8
0
100
AcDbCircle
 10
1.123726953333375
 20
4.642920185445446
 30
0.0
 40
0.125
100
AcDbArc
 50
0.000000000000007
 51
45.00000000000016
  0
ARC
  5
50
330
2
100
AcDbEntity
  8
0
100
AcDbCircle
 10
1.061226953333375
 20
5.058973576038722
 30
0.0
 40
0.125
100
AcDbArc
 50
180.0
 51
225.0000000000003
  0
LINE
  5
51
330
2
100
AcDbEntity
  8
0
100
AcDbLine
 10
0.9728386056850553
 20
4.970585228390403
 30
0.0
 11
1.212115300981694
 21
4.731308533093765
 31
0.0
  0
ARC
  5
52
330
2
100
AcDbEntity
  8
0
100
AcDbCircle
 10
1.061226953333375
 20
5.705420185445446
 30
0.0
 40
0.125
100
AcDbArc
 50
134.9999999999999
 51
180.0
  0
LWPOLYLINE
  5
53
330
2
100
AcDbEntity
  8
0
100
AcDbPolyline
 90
        9
 70
     0
 43
0.0
 10
0.5059318764866561
 20
6.736662499999996
 42
-0.0700628980345364
 10
0.4268130726866133
 20
6.747803775768867
 42
-0.0818514225363451
 10
0.3649167545601699
 20
6.777180615657601
 42
-0.1069100077216601
 10
0.3203186034946697
 20
6.824927528412632
 42
-0.135394011665182
 10
0.3065063785585238
 20
6.874999999999995
 42
-0.1353940116651818
 10
0.3203186034946697
 20
6.925072471587365
 42
-0.1069100077216599
 10
0.3649167545601699
 20
6.972819384342389
 42
-0.0818514225363446
 10
0.4268130726866133
 20
7.002196224231129
 42
-0.0700628980345367
 10
0.5059318764866561
 20
7.0133375
 42
-0.0700628980345371
  0
LWPOLYLINE
  5
54
330
2
100
AcDbEntity
  8
0
100
AcDbPolyline
 90
        9
 70
     0
 43
0.0
 10
0.5059318764866561
 20
6.795312499999996
 42
-0.147269582437036
 10
0.4882354533241156
 20
6.800640341687791
 42
-0.1071386913803464
 10
0.470683559660614
 20
6.818652428374195
 42
-0.0765137470862007
 10
0.4601416456138452
 20
6.843157166408355
 42
-0.063469041210727
 10
0.4560832287804431
 20
6.875000000000002
 42
-0.0634690412107267
 10
0.4601416456138452
 20
6.906842833591641
 42
-0.0765137470862059
 10
0.470683559660614
 20
6.931347571625802
 42
-0.1071386913803463
 10
0.4882354533241156
 20
6.949359658312206
 42
-0.1472695824370325
 10
0.5059318764866561
 20
6.9546875
 42
-0.1472695824370333
  0
LWPOLYLINE
  5
55
330
2
100
AcDbEntity
  8
0
100
AcDbPolyline
 90
        9
 70
     0
 43
0.0
 10
0.5059318764866561
 20
6.765987499999996
 42
-0.1432467981947568
 10
0.4807072256311997
 20
6.773365596871246
 42
-0.1071754848060475
 10
0.456021059660614
 20
6.797916522015898
 42
-0.0783035184710328
 10
0.4410743920382529
 20
6.831537776366696
 42
-0.0656020556757086
 10
0.435347322422146
 20
6.875000000000002
 42
-0.0656020556757101
 10
0.4410743920382529
 20
6.9184622236333
 42
-0.0783035184710357
 10
0.456021059660614
 20
6.952083477984099
 42
-0.1071754848060445
 10
0.4807072256311997
 20
6.976634403128751
 42
-0.1432467981947535
 10
0.5059318764866561
 20
6.9840125
 42
-0.1432467981947515
  0
LINE
  5
56
330
2
100
AcDbEntity
  8
0
100
AcDbLine
 10
0.5059318764866561
 20
6.736662499999996
 30
0.0
 11
0.5059318764866561
 21
7.0133375
 31
0.0
  0
ARC
  5
57
330
2
100
AcDbEntity
  8
0
100
AcDbCircle
 10
1.123726953333375
 20
6.642920185445446
 30
0.0
 40
0.125
100
AcDbArc
 50
0.000000000000007
 51
45.00000000000016
  0
LINE
  5
58
330
2
100
AcDbEntity
  8
0
100
AcDbLine
 10
1.248726953333375
 20
6.624999999999998
 30
0.0
 11
1.248726953333375
 21
6.121473319994449
 31
0.0
  0
LINE
  5
59
330
2
100
AcDbEntity
  8
0
100
AcDbLine
 10
1.248726953333375
 20
6.121473576038722
 30
0.0
 11
1.248726953333375
 21
6.624999999999998
 31
0.0
  0
ARC
  5
5A
330
2
100
AcDbEntity
  8
0
100
AcDbCircle
 10
1.123726953333375
 20
6.121473576038722
 30
0.0
 40
0.125
100
AcDbArc
 50
314.9999999999999
 51
0.000000000000007
  0
ARC
  5
5B
330
2
100
AcDbEntity
  8
0
100
AcDbCircle
 10
1.061226953333375
 20
7.058973576038722
 30
0.0
 40
0.125
100
AcDbArc
 50
180.0
 51
225.0000000000003
  0
LINE
  5
5C
330
2
100
AcDbEntity
  8
0
100
AcDbLine
 10
0.9728386056850553
 20
6.970585228390403
 30
0.0
 11
1.212115300981694
 21
6.731308533093765
 31
0.0
  0
LINE
  5
5D
330
2
100
AcDbEntity
  8
0
100
AcDbLine
 10
2.200629914477048
 20
1.797997038856336
 30
0.0
 11
3.529057039223218
 21
0.4695699141101777
 31
0.0
  0
ARC
  5
5E
330
2
100
AcDbEntity
  8
0
100
AcDbCircle
 10
2.998726953333325
 20
-0.0607601717796946
 30
0.0
 40
0.7499999999999784
100
AcDbArc
 50
4.646827699356821
 51
45.00000000000097
  0
LINE
  5
5F
330
2
100
AcDbEntity
  8
0
100
AcDbLine
 10
0.9362269533333745
 20
9.058973576038722
 30
0.0
 11
0.9362269533333745
 21
9.218749999999977
 31
0.0
  0
LWPOLYLINE
  5
60
330
2
100
AcDbEntity
  8
0
100
AcDbPolyline
 90
        9
 70
     0
 43
0.0
 10
0.5059318764866561
 20
7.736662499999996
 42
-0.0700628980345364
 10
0.4268130726866133
 20
7.747803775768867
 42
-0.0818514225363451
 10
0.3649167545601699
 20
7.777180615657601
 42
-0.1069100077216601
 10
0.3203186034946697
 20
7.824927528412632
 42
-0.135394011665182
 10
0.3065063785585238
 20
7.874999999999995
 42
-0.1353940116651818
 10
0.3203186034946697
 20
7.925072471587365
 42
-0.1069100077216599
 10
0.3649167545601699
 20
7.972819384342389
 42
-0.0818514225363446
 10
0.4268130726866133
 20
8.002196224231129
 42
-0.0700628980345367
 10
0.5059318764866561
 20
8.0133375
 42
-0.0700628980345371
  0
LWPOLYLINE
  5
61
330
2
100
AcDbEntity
  8
0
100
AcDbPolyline
 90
        9
 70
     0
 43
0.0
 10
0.5059318764866561
 20
7.795312499999996
 42
-0.147269582437036
 10
0.4882354533241156
 20
7.800640341687791
 42
-0.1071386913803464
 10
0.470683559660614
 20
7.818652428374195
 42
-0.0765137470862007
 10
0.4601416456138452
 20
7.843157166408355
 42
-0.063469041210727
 10
0.4560832287804431
 20
7.875000000000002
 42
-0.0634690412107267
 10
0.4601416456138452
 20
7.906842833591641
 42
-0.0765137470862059
 10
0.470683559660614
 20
7.931347571625802
 42
-0.1071386913803463
 10
0.4882354533241156
 20
7.949359658312206
 42
-0.1472695824370325
 10
0.5059318764866561
 20
7.9546875
 42
-0.1472695824370333
  0
LWPOLYLINE
  5
62
330
2
100
AcDbEntity
  8
0
100
AcDbPolyline
 90
        9
 70
     0
 43
0.0
 10
0.5059318764866561
 20
7.765987499999996
 42
-0.1432467981947568
 10
0.4807072256311997
 20
7.773365596871246
 42
-0.1071754848060475
 10
0.456021059660614
 20
7.797916522015898
 42
-0.0783035184710328
 10
0.4410743920382529
 20
7.831537776366696
 42
-0.0656020556757086
 10
0.435347322422146
 20
7.875000000000002
 42
-0.0656020556757101
 10
0.4410743920382529
 20
7.9184622236333
 42
-0.0783035184710357
 10
0.456021059660614
 20
7.952083477984099
 42
-0.1071754848060445
 10
0.4807072256311997
 20
7.976634403128751
 42
-0.1432467981947535
 10
0.5059318764866561
 20
7.9840125
 42
-0.1432467981947515
  0
LINE
  5
63
330
2
100
AcDbEntity
  8
0
100
AcDbLine
 10
0.5059318764866561
 20
7.736662499999996
 30
0.0
 11
0.5059318764866561
 21
8.0133375
 31
0.0
  0
LINE
  5
64
330
2
100
AcDbEntity
  8
0
100
AcDbLine
 10
1.248726953333375
 20
8.121473576038722
 30
0.0
 11
1.248726953333375
 21
8.624999999999998
 31
0.0
  0
LINE
  5
65
330
2
100
AcDbEntity
  8
0
100
AcDbLine
 10
1.248726953333375
 20
8.642920185445446
 30
0.0
 11
1.248726953333375
 21
8.121473319994449
 31
0.0
  0
ARC
  5
66
330
2
100
AcDbEntity
  8
0
100
AcDbCircle
 10
1.123726953333375
 20
8.121473576038722
 30
0.0
 40
0.125
100
AcDbArc
 50
314.9999999999999
 51
0.000000000000007
  0
ARC
  5
67
330
2
100
AcDbEntity
  8
0
100
AcDbCircle
 10
1.061226953333375
 20
7.705420185445446
 30
0.0
 40
0.125
100
AcDbArc
 50
134.9999999999999
 51
180.0
  0
LINE
  5
68
330
2
100
AcDbEntity
  8
0
100
AcDbLine
 10
1.212115300981694
 20
8.033085228390403
 30
0.0
 11
0.9728386056850553
 21
7.793808533093765
 31
0.0
  0
ARC
  5
69
330
2
100
AcDbEntity
  8
0
100
AcDbCircle
 10
1.123726953333375
 20
8.642920185445446
 30
0.0
 40
0.125
100
AcDbArc
 50
0.000000000000007
 51
45.00000000000016
  0
ARC
  5
6A
330
2
100
AcDbEntity
  8
0
100
AcDbCircle
 10
1.061226953333375
 20
9.058973576038722
 30
0.0
 40
0.125
100
AcDbArc
 50
180.0
 51
225.0000000000003
  0
LINE
  5
6B
330
2
100
AcDbEntity
  8
0
100
AcDbLine
 10
0.9728386056850553
 20
8.970585228390403
 30
0.0
 11
1.212115300981694
 21
8.731308533093765
 31
0.0
  0
LINE
  5
6C
330
2
100
AcDbEntity
  8
0
100
AcDbLine
 10
0.9362269533333745
 20
9.218749999999984
 30
0.0
 11
-0.5253181235133368
 21
9.218749999999977
 31
0.0
  0
LINE
  5
1A7
330
2
100
AcDbEntity
  8
0
  6
HIDDEN
100
AcDbLine
 10
3.732638805544866
 20
0.0937500000000018
 30
0.0
 11
-0.2613961018137854
 21
0.0937500000000018
 31
0.0
  0
ENDSEC
  0
SECTION
  2
OBJECTS
  0
DICTIONARY
  5
9
330
0
100
AcDbDictionary
281
     1
  3
ACAD_COLOR
350
19F
  3
ACAD_GROUP
350
23
  3
ACAD_LAYOUT
350
D
  3
ACAD_MATERIAL
350
19E
  3
ACAD_MLINESTYLE
350
24
  3
ACAD_PLOTSETTINGS
350
25
  3
ACAD_PLOTSTYLENAME
350
8
  3
ACAD_TABLESTYLE
350
1A0
  3
ACDBHEADERROUNDTRIPXREC
350
1C2
  3
AcDbVariableDictionary
350
19A
  0
DICTIONARY
  5
19F
102
{ACAD_REACTORS
330
9
102
}
330
9
100
AcDbDictionary
281
     1
  0
DICTIONARY
  5
23
102
{ACAD_REACTORS
330
9
102
}
330
9
100
AcDbDictionary
281
     1
  0
DICTIONARY
  5
D
102
{ACAD_REACTORS
330
9
102
}
330
9
100
AcDbDictionary
281
     1
  3
Layout1
350
13
  3
Model
350
C
  0
DICTIONARY
  5
19E
102
{ACAD_REACTORS
330
9
102
}
330
9
100
AcDbDictionary
281
     1
  0
DICTIONARY
  5
24
102
{ACAD_REACTORS
330
9
102
}
330
9
100
AcDbDictionary
281
     1
  3
STANDARD
350
26
  0
DICTIONARY
  5
25
102
{ACAD_REACTORS
330
9
102
}
330
9
100
AcDbDictionary
281
     1
  0
ACDBDICTIONARYWDFLT
  5
8
102
{ACAD_REACTORS
330
9
102
}
330
9
100
AcDbDictionary
281
     1
  3
Normal
350
7
100
AcDbDictionaryWithDefault
340
7
  0
DICTIONARY
  5
1A0
102
{ACAD_REACTORS
330
9
102
}
330
9
100
AcDbDictionary
281
     1
  3
Standard
350
1A1
  0
DICTIONARY
  5
1C2
102
{ACAD_REACTORS
330
9
102
}
330
9
100
AcDbDictionary
281
     1
  3
COLORDICT
350
1C3
  3
MATERIALDICT
350
1C4
  0
DICTIONARY
  5
19A
102
{ACAD_REACTORS
330
9
102
}
330
9
100
AcDbDictionary
281
     1
  3
CTABLESTYLE
350
1AF
  3
HIDETEXT
350
1C1
  0
LAYOUT
  5
13
102
{ACAD_REACTORS
330
D
102
}
102
{ACAD_XDICTIONARY
360
1C5
102
}
330
D
100
AcDbPlotSettings
  1

  2
HP LaserJet 2100 Series PS
  4

  6

 40
0.0
 41
0.0
 42
0.0
 43
0.0
 44
0.0
 45
0.0
 46
0.0
 47
0.0
 48
0.0
 49
0.0
140
0.0
141
0.0
142
1.0
143
1.0
 70
   688
 72
     0
 73
     0
 74
     5
  7

 75
    16
147
1.0
148
0.0
149
0.0
100
AcDbLayout
  1
Layout1
 70
     0
 71
     1
 10
0.0
 20
0.0
 11
12.0
 21
9.0
 12
0.0
 22
0.0
 32
0.0
 14
1.000000000000000E+20
 24
1.000000000000000E+20
 34
1.000000000000000E+20
 15
-1.000000000000000E+20
 25
-1.000000000000000E+20
 35
-1.000000000000000E+20
146
0.0
 13
0.0
 23
0.0
 33
0.0
 16
1.0
 26
0.0
 36
0.0
 17
0.0
 27
1.0
 37
0.0
 76
     0
330
E
  0
LAYOUT
  5
C
102
{ACAD_REACTORS
330
D
102
}
102
{ACAD_XDICTIONARY
360
1C7
102
}
330
D
100
AcDbPlotSettings
  1

  2
HP LaserJet 2100 Series PS
  4
Letter
  6

 40
5.365749835968018
 41
5.408084392547607
 42
5.4080810546875
 43
5.365753173828125
 44
215.8999938964844
 45
279.3999938964844
 46
0.0
 47
0.0
 48
0.0
 49
0.0
140
0.0
141
0.0
142
1.0
143
4.964148012307827
 70
 11952
 72
     0
 73
     1
 74
     2
  7

 75
     0
147
0.2014444366929948
148
0.0
149
0.0
100
AcDbLayout
  1
Model
 70
     1
 71
     0
 10
0.0
 20
0.0
 11
12.0
 21
9.0
 12
0.0
 22
0.0
 32
0.0
 14
0.0
 24
0.0
 34
0.0
 15
0.0
 25
0.0
 35
0.0
146
0.0
 13
0.0
 23
0.0
 33
0.0
 16
1.0
 26
0.0
 36
0.0
 17
0.0
 27
1.0
 37
0.0
 76
     0
330
2
  0
MLINESTYLE
  5
26
102
{ACAD_REACTORS
330
24
102
}
330
24
100
AcDbMlineStyle
  2
STANDARD
 70
     0
  3

 62
   256
 51
90.0
 52
90.0
 71
     2
 49
0.5
 62
   256
  6
BYLAYER
 49
-0.5
 62
   256
  6
BYLAYER
  0
ACDBPLACEHOLDER
  5
7
102
{ACAD_REACTORS
330
8
102
}
330
8
  0
ACAD_PROXY_OBJECT
  5
1A1
102
{ACAD_REACTORS
330
1A0
102
}
330
1A0
100
AcDbProxyObject
 90
      499
 91
      557
 95
   983063
 70
     0
 93
     1841
310
4214DD185B99185C9928B81E85EB51B8AE3F2E07A17AD46E2B8FC02B5E8DC0F42B1CFD028000000C1008070000C3001FDFF8000000C1003FBFF000000182007F7FE00000030400FEFFC00000060801FDFF8000000C1003FBFF00000018200000000000000681FA0B0000001820100E000186003FBFF000000182007F7FE000
310
00030400FEFFC00000060801FDFF8000000C1003FBFF000000182007F7FE000000304000AD7A3703D0AC73F4160000003040201C00030C007F7FE00000030400FEFFC00000060801FDFF8000000C1003FBFF000000182007F7FE00000030400FEFFC000000608000
340
16
340
16
340
16
 94
        0
  0
XRECORD
  5
1C3
102
{ACAD_REACTORS
330
1C2
102
}
330
1C2
100
AcDbXrecord
340
19F
  0
XRECORD
  5
1C4
102
{ACAD_REACTORS
330
1C2
102
}
330
1C2
100
AcDbXrecord
340
19E
  0
DICTIONARYVAR
  5
1AF
102
{ACAD_REACTORS
330
19A
102
}
330
19A
100
DictionaryVariables
280
     0
  1
STANDARD
  0
DICTIONARYVAR
  5
1C1
102
{ACAD_REACTORS
330
19A
102
}
330
19A
100
DictionaryVariables
280
     0
  1
0
  0
DICTIONARY
  5
1C5
330
13
100
AcDbDictionary
280
     1
281
     1
  3
ACAD_XREC_ROUNDTRIP
360
1C6
  0
DICTIONARY
  5
1C7
330
C
100
AcDbDictionary
280
     1
281
     1
  3
ACAD_XREC_ROUNDTRIP
360
1C8
  0
XRECORD
  5
1C6
102
{ACAD_REACTORS
330
1C5
102
}
330
1C5
100
AcDbXrecord
102
SHADEPLOT
 70
     0
102
SHADEPLOTRESLEVEL
 70
     2
102
SHADEPLOTCUSTOMDPI
 70
   300
  0
XRECORD
  5
1C8
102
{ACAD_REACTORS
330
1C7
102
}
330
1C7
100
AcDbXrecord
102
SHADEPLOT
 70
     0
102
SHADEPLOTRESLEVEL
 70
     2
102
SHADEPLOTCUSTOMDPI
 70
   300
  0
ENDSEC
  0
EOF
