  0
SECTION
  2
HEADER
  9
$ACADVER
  1
AC1015
  9
$ACADMAINTVER
 70
     6
  9
$DWGCODEPAGE
  3
ANSI_1252
  9
$INSBASE
 10
0.0
 20
0.0
 30
0.0
  9
$EXTMIN
 10
-13.85639180063315
 20
-0.0408934616028489
 30
-0.0015258207003583
  9
$EXTMAX
 10
13.7290192421398
 20
16.68884283943201
 30
0.0000000349246037
  9
$LIMMIN
 10
0.0
 20
0.0
  9
$LIMMAX
 10
52.5
 20
40.0
  9
$ORTHOMODE
 70
     1
  9
$REGENMODE
 70
     1
  9
$FILLMODE
 70
     1
  9
$QTEXTMODE
 70
     0
  9
$MIRRTEXT
 70
     1
  9
$LTSCALE
 40
1.0
  9
$ATTMODE
 70
     1
  9
$TEXTSIZE
 40
0.36
  9
$TRACEWID
 40
0.05
  9
$TEXTSTYLE
  7
STANDARD
  9
$CLAYER
  8
0
  9
$CELTYPE
  6
BYLAYER
  9
$CECOLOR
 62
   256
  9
$CELTSCALE
 40
1.0
  9
$DISPSILH
 70
     0
  9
$DIMSCALE
 40
4.0
  9
$DIMASZ
 40
0.125
  9
$DIMEXO
 40
0.062
  9
$DIMDLI
 40
0.375
  9
$DIMRND
 40
0.0
  9
$DIMDLE
 40
0.0
  9
$DIMEXE
 40
0.08
  9
$DIMTP
 40
0.0
  9
$DIMTM
 40
0.0
  9
$DIMTXT
 40
0.09
  9
$DIMCEN
 40
-0.03125
  9
$DIMTSZ
 40
0.0
  9
$DIMTOL
 70
     0
  9
$DIMLIM
 70
     0
  9
$DIMTIH
 70
     1
  9
$DIMTOH
 70
     1
  9
$DIMSE1
 70
     0
  9
$DIMSE2
 70
     0
  9
$DIMTAD
 70
     0
  9
$DIMZIN
 70
     0
  9
$DIMBLK
  1

  9
$DIMASO
 70
     0
  9
$DIMSHO
 70
     0
  9
$DIMPOST
  1

  9
$DIMAPOST
  1

  9
$DIMALT
 70
     1
  9
$DIMALTD
 70
     2
  9
$DIMALTF
 40
25.4
  9
$DIMLFAC
 40
1.0
  9
$DIMTOFL
 70
     0
  9
$DIMTVP
 40
0.0
  9
$DIMTIX
 70
     0
  9
$DIMSOXD
 70
     0
  9
$DIMSAH
 70
     0
  9
$DIMBLK1
  1

  9
$DIMBLK2
  1

  9
$DIMSTYLE
  2
STANDARD
  9
$DIMCLRD
 70
     0
  9
$DIMCLRE
 70
     0
  9
$DIMCLRT
 70
     0
  9
$DIMTFAC
 40
1.0
  9
$DIMGAP
 40
0.09375
  9
$DIMJUST
 70
     0
  9
$DIMSD1
 70
     0
  9
$DIMSD2
 70
     0
  9
$DIMTOLJ
 70
     1
  9
$DIMTZIN
 70
     0
  9
$DIMALTZ
 70
     0
  9
$DIMALTTZ
 70
     0
  9
$DIMUPT
 70
     0
  9
$DIMDEC
 70
     5
  9
$DIMTDEC
 70
     5
  9
$DIMALTU
 70
     2
  9
$DIMALTTD
 70
     2
  9
$DIMTXSTY
  7
STANDARD
  9
$DIMAUNIT
 70
     0
  9
$DIMADEC
 70
     0
  9
$DIMALTRND
 40
0.0
  9
$DIMAZIN
 70
     0
  9
$DIMDSEP
 70
    46
  9
$DIMATFIT
 70
     3
  9
$DIMFRAC
 70
     2
  9
$DIMLDRBLK
  1

  9
$DIMLUNIT
 70
     5
  9
$DIMLWD
 70
    -2
  9
$DIMLWE
 70
    -2
  9
$DIMTMOVE
 70
     2
  9
$LUNITS
 70
     5
  9
$LUPREC
 70
     5
  9
$SKETCHINC
 40
0.1
  9
$FILLETRAD
 40
0.0
  9
$AUNITS
 70
     0
  9
$AUPREC
 70
     0
  9
$MENU
  1
acad
  9
$ELEVATION
 40
0.0
  9
$PELEVATION
 40
0.0
  9
$THICKNESS
 40
0.0
  9
$LIMCHECK
 70
     0
  9
$CHAMFERA
 40
0.0
  9
$CHAMFERB
 40
0.0
  9
$CHAMFERC
 40
0.0
  9
$CHAMFERD
 40
0.0
  9
$SKPOLY
 70
     0
  9
$TDCREATE
 40
2450514.931169097
  9
$TDUCREATE
 40
2450515.26450243
  9
$TDUPDATE
 40
2454165.946127801
  9
$TDUUPDATE
 40
2454166.279461134
  9
$TDINDWG
 40
0.2993250347
  9
$TDUSRTIMER
 40
0.2993250347
  9
$USRTIMER
 70
     1
  9
$ANGBASE
 50
0.0
  9
$ANGDIR
 70
     0
  9
$PDMODE
 70
     0
  9
$PDSIZE
 40
0.0
  9
$PLINEWID
 40
0.0
  9
$SPLFRAME
 70
     0
  9
$SPLINETYPE
 70
     6
  9
$SPLINESEGS
 70
     8
  9
$HANDSEED
  5
1B9
  9
$SURFTAB1
 70
     6
  9
$SURFTAB2
 70
     6
  9
$SURFTYPE
 70
     6
  9
$SURFU
 70
     6
  9
$SURFV
 70
     6
  9
$UCSBASE
  2

  9
$UCSNAME
  2

  9
$UCSORG
 10
0.0
 20
0.0
 30
0.0
  9
$UCSXDIR
 10
1.0
 20
0.0
 30
0.0
  9
$UCSYDIR
 10
0.0
 20
1.0
 30
0.0
  9
$UCSORTHOREF
  2

  9
$UCSORTHOVIEW
 70
     0
  9
$UCSORGTOP
 10
0.0
 20
0.0
 30
0.0
  9
$UCSORGBOTTOM
 10
0.0
 20
0.0
 30
0.0
  9
$UCSORGLEFT
 10
0.0
 20
0.0
 30
0.0
  9
$UCSORGRIGHT
 10
0.0
 20
0.0
 30
0.0
  9
$UCSORGFRONT
 10
0.0
 20
0.0
 30
0.0
  9
$UCSORGBACK
 10
0.0
 20
0.0
 30
0.0
  9
$PUCSBASE
  2

  9
$PUCSNAME
  2

  9
$PUCSORG
 10
0.0
 20
0.0
 30
0.0
  9
$PUCSXDIR
 10
1.0
 20
0.0
 30
0.0
  9
$PUCSYDIR
 10
0.0
 20
1.0
 30
0.0
  9
$PUCSORTHOREF
  2

  9
$PUCSORTHOVIEW
 70
     0
  9
$PUCSORGTOP
 10
0.0
 20
0.0
 30
0.0
  9
$PUCSORGBOTTOM
 10
0.0
 20
0.0
 30
0.0
  9
$PUCSORGLEFT
 10
0.0
 20
0.0
 30
0.0
  9
$PUCSORGRIGHT
 10
0.0
 20
0.0
 30
0.0
  9
$PUCSORGFRONT
 10
0.0
 20
0.0
 30
0.0
  9
$PUCSORGBACK
 10
0.0
 20
0.0
 30
0.0
  9
$USERI1
 70
     0
  9
$USERI2
 70
     0
  9
$USERI3
 70
     0
  9
$USERI4
 70
     0
  9
$USERI5
 70
     0
  9
$USERR1
 40
0.0
  9
$USERR2
 40
0.0
  9
$USERR3
 40
0.0
  9
$USERR4
 40
0.0
  9
$USERR5
 40
0.0
  9
$WORLDVIEW
 70
     1
  9
$SHADEDGE
 70
     3
  9
$SHADEDIF
 70
    70
  9
$TILEMODE
 70
     1
  9
$MAXACTVP
 70
    16
  9
$PINSBASE
 10
0.0
 20
0.0
 30
0.0
  9
$PLIMCHECK
 70
     0
  9
$PEXTMIN
 10
1.000000000000000E+20
 20
1.000000000000000E+20
 30
1.000000000000000E+20
  9
$PEXTMAX
 10
-1.000000000000000E+20
 20
-1.000000000000000E+20
 30
-1.000000000000000E+20
  9
$PLIMMIN
 10
0.0
 20
0.0
  9
$PLIMMAX
 10
12.0
 20
9.0
  9
$UNITMODE
 70
     0
  9
$VISRETAIN
 70
     0
  9
$PLINEGEN
 70
     0
  9
$PSLTSCALE
 70
     0
  9
$TREEDEPTH
 70
  3020
  9
$CMLSTYLE
  2
STANDARD
  9
$CMLJUST
 70
     0
  9
$CMLSCALE
 40
1.0
  9
$PROXYGRAPHICS
 70
     1
  9
$MEASUREMENT
 70
     0
  9
$CELWEIGHT
370
    -1
  9
$ENDCAPS
280
     0
  9
$JOINSTYLE
280
     0
  9
$LWDISPLAY
290
     0
  9
$INSUNITS
 70
     0
  9
$HYPERLINKBASE
  1

  9
$STYLESHEET
  1

  9
$XEDIT
290
     1
  9
$CEPSNTYPE
380
     0
  9
$PSTYLEMODE
290
     1
  9
$FINGERPRINTGUID
  2
{4A389440-8CC7-11D5-BE3F-00508B5FCD51}
  9
$VERSIONGUID
  2
{D7862C99-AAF5-4775-B65B-450AE51E78D2}
  9
$EXTNAMES
290
     1
  9
$PSVPSCALE
 40
0.0
  9
$OLESTARTUP
290
     0
  0
ENDSEC
  0
SECTION
  2
CLASSES
  0
CLASS
  1
DICTIONARYVAR
  2
AcDbDictionaryVar
  3
AutoCAD 2000
 90
        0
280
     0
281
     0
  0
CLASS
  1
LWPOLYLINE
  2
AcDbPolyline
  3
AutoCAD 2000
 90
        0
280
     0
281
     1
  0
CLASS
  1
ACDBDICTIONARYWDFLT
  2
AcDbDictionaryWithDefault
  3
AutoCAD 2000
 90
        0
280
     0
281
     0
  0
CLASS
  1
ACDBPLACEHOLDER
  2
AcDbPlaceHolder
  3
ObjectDBX Classes
 90
        0
280
     0
281
     0
  0
CLASS
  1
LAYOUT
  2
AcDbLayout
  3
ObjectDBX Classes
 90
        0
280
     0
281
     0
  0
CLASS
  1
LONG_TRANSACTION
  2
AcDbLongTransaction
  3
ObjectDBX Classes
 90
   -65536
280
     1
281
     0
  0
CLASS
  1
LWPOLYLINE
  2
AcDbPolyline
  3
AutoCAD 2000
 90
        0
280
     0
281
     1
  0
CLASS
  1
HATCH
  2
AcDbHatch
  3
AutoCAD 2000
 90
        0
280
     0
281
     1
  0
CLASS
  1
XRECORD
  2
AcDbXrecord
  3
AutoCAD 2000
 90
        0
280
     0
281
     0
  0
CLASS
  1
LONG_TRANSACTION
  2
AcDbLongTransaction
  3
ObjectDBX Classes
 90
   -65536
280
     1
281
     0
  0
CLASS
  1
LWPOLYLINE
  2
AcDbPolyline
  3
AutoCAD 2000
 90
        0
280
     0
281
     1
  0
CLASS
  1
HATCH
  2
AcDbHatch
  3
AutoCAD 2000
 90
        0
280
     0
281
     1
  0
CLASS
  1
XRECORD
  2
AcDbXrecord
  3
AutoCAD 2000
 90
        0
280
     0
281
     0
  0
CLASS
  1
LONG_TRANSACTION
  2
AcDbLongTransaction
  3
ObjectDBX Classes
 90
   -65536
280
     1
281
     0
  0
CLASS
  1
LWPOLYLINE
  2
AcDbPolyline
  3
AutoCAD 2000
 90
        0
280
     0
281
     1
  0
CLASS
  1
HATCH
  2
AcDbHatch
  3
AutoCAD 2000
 90
        0
280
     0
281
     1
  0
CLASS
  1
XRECORD
  2
AcDbXrecord
  3
AutoCAD 2000
 90
        0
280
     0
281
     0
  0
CLASS
  1
LONG_TRANSACTION
  2
AcDbLongTransaction
  3
ObjectDBX Classes
 90
   -65536
280
     1
281
     0
  0
CLASS
  1
LWPOLYLINE
  2
AcDbPolyline
  3
AutoCAD 2000
 90
        0
280
     0
281
     1
  0
CLASS
  1
HATCH
  2
AcDbHatch
  3
AutoCAD 2000
 90
        0
280
     0
281
     1
  0
CLASS
  1
XRECORD
  2
AcDbXrecord
  3
AutoCAD 2000
 90
        0
280
     0
281
     0
  0
CLASS
  1
LONG_TRANSACTION
  2
AcDbLongTransaction
  3
ObjectDBX Classes
 90
   -65536
280
     1
281
     0
  0
CLASS
  1
LWPOLYLINE
  2
AcDbPolyline
  3
AutoCAD 2000
 90
        0
280
     0
281
     1
  0
CLASS
  1
HATCH
  2
AcDbHatch
  3
AutoCAD 2000
 90
        0
280
     0
281
     1
  0
CLASS
  1
XRECORD
  2
AcDbXrecord
  3
AutoCAD 2000
 90
        0
280
     0
281
     0
  0
CLASS
  1
LONG_TRANSACTION
  2
AcDbLongTransaction
  3
ObjectDBX Classes
 90
   -65536
280
     1
281
     0
  0
CLASS
  1
LWPOLYLINE
  2
AcDbPolyline
  3
AutoCAD 2000
 90
        0
280
     0
281
     1
  0
CLASS
  1
HATCH
  2
AcDbHatch
  3
AutoCAD 2000
 90
        0
280
     0
281
     1
  0
CLASS
  1
XRECORD
  2
AcDbXrecord
  3
AutoCAD 2000
 90
        0
280
     0
281
     0
  0
CLASS
  1
LONG_TRANSACTION
  2
AcDbLongTransaction
  3
ObjectDBX Classes
 90
   -65536
280
     1
281
     0
  0
CLASS
  1
LWPOLYLINE
  2
AcDbPolyline
  3
AutoCAD 2000
 90
        0
280
     0
281
     1
  0
CLASS
  1
HATCH
  2
AcDbHatch
  3
AutoCAD 2000
 90
        0
280
     0
281
     1
  0
CLASS
  1
XRECORD
  2
AcDbXrecord
  3
AutoCAD 2000
 90
        0
280
     0
281
     0
  0
CLASS
  1
LONG_TRANSACTION
  2
AcDbLongTransaction
  3
ObjectDBX Classes
 90
   -65536
280
     1
281
     0
  0
CLASS
  1
LWPOLYLINE
  2
AcDbPolyline
  3
AutoCAD 2000
 90
        0
280
     0
281
     1
  0
CLASS
  1
HATCH
  2
AcDbHatch
  3
AutoCAD 2000
 90
        0
280
     0
281
     1
  0
CLASS
  1
XRECORD
  2
AcDbXrecord
  3
AutoCAD 2000
 90
        0
280
     0
281
     0
  0
CLASS
  1
LONG_TRANSACTION
  2
AcDbLongTransaction
  3
ObjectDBX Classes
 90
   -65536
280
     1
281
     0
  0
CLASS
  1
LWPOLYLINE
  2
AcDbPolyline
  3
AutoCAD 2000
 90
        0
280
     0
281
     1
  0
CLASS
  1
HATCH
  2
AcDbHatch
  3
AutoCAD 2000
 90
        0
280
     0
281
     1
  0
CLASS
  1
XRECORD
  2
AcDbXrecord
  3
AutoCAD 2000
 90
        0
280
     0
281
     0
  0
CLASS
  1
LONG_TRANSACTION
  2
AcDbLongTransaction
  3
ObjectDBX Classes
 90
   -65536
280
     1
281
     0
  0
CLASS
  1
LWPOLYLINE
  2
AcDbPolyline
  3
AutoCAD 2000
 90
        0
280
     0
281
     1
  0
CLASS
  1
HATCH
  2
AcDbHatch
  3
AutoCAD 2000
 90
        0
280
     0
281
     1
  0
CLASS
  1
XRECORD
  2
AcDbXrecord
  3
AutoCAD 2000
 90
        0
280
     0
281
     0
  0
CLASS
  1
LONG_TRANSACTION
  2
AcDbLongTransaction
  3
ObjectDBX Classes
 90
   -65536
280
     1
281
     0
  0
CLASS
  1
LWPOLYLINE
  2
AcDbPolyline
  3
AutoCAD 2000
 90
        0
280
     0
281
     1
  0
CLASS
  1
HATCH
  2
AcDbHatch
  3
AutoCAD 2000
 90
        0
280
     0
281
     1
  0
CLASS
  1
XRECORD
  2
AcDbXrecord
  3
AutoCAD 2000
 90
        0
280
     0
281
     0
  0
CLASS
  1
LONG_TRANSACTION
  2
AcDbLongTransaction
  3
ObjectDBX Classes
 90
   -65536
280
     1
281
     0
  0
CLASS
  1
LWPOLYLINE
  2
AcDbPolyline
  3
AutoCAD 2000
 90
        0
280
     0
281
     1
  0
CLASS
  1
HATCH
  2
AcDbHatch
  3
AutoCAD 2000
 90
        0
280
     0
281
     1
  0
CLASS
  1
XRECORD
  2
AcDbXrecord
  3
AutoCAD 2000
 90
        0
280
     0
281
     0
  0
CLASS
  1
LONG_TRANSACTION
  2
AcDbLongTransaction
  3
ObjectDBX Classes
 90
   -65536
280
     1
281
     0
  0
CLASS
  1
LWPOLYLINE
  2
AcDbPolyline
  3
AutoCAD 2000
 90
        0
280
     0
281
     1
  0
CLASS
  1
HATCH
  2
AcDbHatch
  3
AutoCAD 2000
 90
        0
280
     0
281
     1
  0
CLASS
  1
XRECORD
  2
AcDbXrecord
  3
AutoCAD 2000
 90
        0
280
     0
281
     0
  0
CLASS
  1
TABLESTYLE
  2
AcDbTableStyle
  3
ObjectDBX Classes
 90
     2047
280
     1
281
     0
  0
ENDSEC
  0
SECTION
  2
TABLES
  0
TABLE
  2
VPORT
  5
1D
330
0
100
AcDbSymbolTable
 70
     2
  0
VPORT
  5
1A9
330
1D
100
AcDbSymbolTableRecord
100
AcDbViewportTableRecord
  2
*Active
 70
     0
 10
0.0
 20
0.0
 11
1.0
 21
1.0
 12
19.32180409968342
 22
19.97955326919857
 13
0.0
 23
0.0
 14
0.03125
 24
0.03125
 15
0.25
 25
0.25
 16
0.0
 26
0.0
 36
1.0
 17
0.0
 27
0.0
 37
0.0
 40
40.54036406611348
 41
1.814583333333333
 42
50.0
 43
0.0
 44
0.0
 50
0.0
 51
0.0
 71
     0
 72
   100
 73
     1
 74
     0
 75
     0
 76
     0
 77
     0
 78
     0
281
     0
 65
     1
110
0.0
120
0.0
130
0.0
111
1.0
121
0.0
131
0.0
112
0.0
122
1.0
132
0.0
 79
     0
146
0.0
  0
ENDTAB
  0
TABLE
  2
LTYPE
  5
18
330
0
100
AcDbSymbolTable
 70
     2
  0
LTYPE
  5
19
330
18
100
AcDbSymbolTableRecord
100
AcDbLinetypeTableRecord
  2
BYBLOCK
 70
     0
  3

 72
    65
 73
     0
 40
0.0
  0
LTYPE
  5
1A
330
18
100
AcDbSymbolTableRecord
100
AcDbLinetypeTableRecord
  2
BYLAYER
 70
     0
  3

 72
    65
 73
     0
 40
0.0
  0
LTYPE
  5
A
330
18
100
AcDbSymbolTableRecord
100
AcDbLinetypeTableRecord
  2
CONTINUOUS
 70
     0
  3
Solid line
 72
    65
 73
     0
 40
0.0
  0
LTYPE
  5
1A6
330
18
100
AcDbSymbolTableRecord
100
AcDbLinetypeTableRecord
  2
HIDDEN
 70
     0
  3
Hidden __ __ __ __ __ __ __ __ __ __ __ __ __ _
 72
    65
 73
     2
 40
0.375
 49
0.25
 74
     0
 49
-0.125
 74
     0
  0
ENDTAB
  0
TABLE
  2
LAYER
  5
14
330
0
100
AcDbSymbolTable
 70
     1
  0
LAYER
  5
6
330
14
100
AcDbSymbolTableRecord
100
AcDbLayerTableRecord
  2
0
 70
     0
 62
     7
  6
CONTINUOUS
370
    -3
390
7
  0
ENDTAB
  0
TABLE
  2
STYLE
  5
15
330
0
100
AcDbSymbolTable
 70
     2
  0
STYLE
  5
16
330
15
100
AcDbSymbolTableRecord
100
AcDbTextStyleTableRecord
  2
STANDARD
 70
     0
 40
0.0
 41
1.0
 50
0.0
 71
     0
 42
0.36
  3
TXT
  4

  0
STYLE
  5
1A5
330
15
100
AcDbSymbolTableRecord
100
AcDbTextStyleTableRecord
  2

 70
     1
 40
0.0
 41
1.0
 50
0.0
 71
     0
 42
0.36
  3
ltypeshp.shx
  4

  0
ENDTAB
  0
TABLE
  2
VIEW
  5
1B
330
0
100
AcDbSymbolTable
 70
     0
  0
ENDTAB
  0
TABLE
  2
UCS
  5
1C
330
0
100
AcDbSymbolTable
 70
     0
  0
ENDTAB
  0
TABLE
  2
APPID
  5
1F
330
0
100
AcDbSymbolTable
 70
     1
  0
APPID
  5
20
330
1F
100
AcDbSymbolTableRecord
100
AcDbRegAppTableRecord
  2
ACAD
 70
     0
  0
ENDTAB
  0
TABLE
  2
DIMSTYLE
  5
21
330
0
100
AcDbSymbolTable
 70
     1
100
AcDbDimStyleTable
  0
DIMSTYLE
105
27
330
21
100
AcDbSymbolTableRecord
100
AcDbDimStyleTableRecord
  2
STANDARD
 70
     0
  3

  4

340
16
  0
ENDTAB
  0
TABLE
  2
BLOCK_RECORD
  5
1
330
0
100
AcDbSymbolTable
 70
     0
  0
BLOCK_RECORD
  5
2
330
1
100
AcDbSymbolTableRecord
100
AcDbBlockTableRecord
  2
*MODEL_SPACE
340
C
  0
BLOCK_RECORD
  5
E
330
1
100
AcDbSymbolTableRecord
100
AcDbBlockTableRecord
  2
*PAPER_SPACE
340
13
  0
ENDTAB
  0
ENDSEC
  0
SECTION
  2
BLOCKS
  0
BLOCK
  5
5
330
2
100
AcDbEntity
  8
0
100
AcDbBlockBegin
  2
*MODEL_SPACE
 70
     0
 10
0.0
 20
0.0
 30
0.0
  3
*MODEL_SPACE
  1

  4

  0
ENDBLK
  5
B
330
2
100
AcDbEntity
  8
0
100
AcDbBlockEnd
  0
BLOCK
  5
11
330
E
100
AcDbEntity
 67
     1
  8
0
100
AcDbBlockBegin
  2
*PAPER_SPACE
 70
     0
 10
0.0
 20
0.0
 30
0.0
  3
*PAPER_SPACE
  1

  4

  0
ENDBLK
  5
12
330
E
100
AcDbEntity
 67
     1
  8
0
100
AcDbBlockEnd
  0
ENDSEC
  0
SECTION
  2
ENTITIES
  0
LINE
  5
28
330
2
100
AcDbEntity
  8
0
100
AcDbLine
 10
1.771836674056878
 20
16.46072262824518
 30
0.0
 11
1.771836674056878
 21
12.42947262824518
 31
0.0
  0
LINE
  5
29
330
2
100
AcDbEntity
  8
0
100
AcDbLine
 10
1.865586674056878
 20
16.46072262824518
 30
0.0
 11
1.865586674056878
 21
12.42947262824517
 31
0.0
  0
LINE
  5
2A
330
2
100
AcDbEntity
  8
0
100
AcDbLine
 10
-1.7906629492742
 20
16.46072262824519
 30
0.0
 11
-1.7906629492742
 21
12.42947262824519
 31
0.0
  0
LINE
  5
2B
330
2
100
AcDbEntity
  8
0
100
AcDbLine
 10
-1.8844129492742
 20
16.46072262824519
 30
0.0
 11
-1.8844129492742
 21
12.42947262824519
 31
0.0
  0
LINE
  5
2C
330
2
100
AcDbEntity
  8
0
100
AcDbLine
 10
-13.76080125052918
 20
9.218749999999977
 30
0.0
 11
-13.76080125052918
 21
6.324999999999994
 31
0.0
  0
LINE
  5
2D
330
2
100
AcDbEntity
  8
0
100
AcDbLine
 10
-12.39300617368247
 20
7.705420185445446
 30
0.0
 11
-12.39300617368247
 21
7.058973576038722
 31
0.0
  0
LINE
  5
2E
330
2
100
AcDbEntity
  8
0
100
AcDbLine
 10
-13.85455125052918
 20
0.4270269749706266
 30
0.0
 11
-13.85455125052918
 21
9.218749999999977
 31
0.0
  0
ARC
  5
2F
330
2
100
AcDbEntity
  8
0
100
AcDbCircle
 10
-8.830506173682508
 20
4.096094077712662
 30
0.0
 40
3.25
100
AcDbArc
 50
180.0
 51
225.0000000000005
  0
LINE
  5
30
330
2
100
AcDbEntity
  8
0
100
AcDbLine
 10
-13.5829714243061
 20
0.0000000000000036
 30
0.0
 11
-9.582971424306095
 21
-0.0000000000000036
 31
0.0
  0
LINE
  5
31
330
2
100
AcDbEntity
  8
0
100
AcDbLine
 10
-13.76080125052918
 20
0.4270269749706266
 30
0.0
 11
-13.76080125052918
 21
6.624999999999998
 31
0.0
  0
ARC
  5
32
330
2
100
AcDbEntity
  8
0
100
AcDbCircle
 10
-14.0388391343153
 20
0.0099510018476856
 30
0.0
 40
0.455976305817323
100
AcDbArc
 50
358.7495059120791
 51
66.16143218348043
  0
LINE
  5
33
330
2
100
AcDbEntity
  8
0
100
AcDbLine
 10
-13.76080125052918
 20
0.4270269749706266
 30
0.0
 11
-13.85455125052918
 21
0.4270269749706266
 31
0.0
  0
LWPOLYLINE
  5
34
330
2
100
AcDbEntity
  8
0
100
AcDbPolyline
 90
        9
 70
     0
 43
0.0
 10
-12.82330125052918
 20
0.736662499999996
 42
-0.0700628980345364
 10
-12.90242005432923
 20
0.7478037757688671
 42
-0.0818514225363451
 10
-12.96431637245567
 20
0.7771806156576009
 42
-0.1069100077216601
 10
-13.00891452352117
 20
0.8249275284126316
 42
-0.135394011665182
 10
-13.02272674845732
 20
0.8749999999999947
 42
-0.1353940116651818
 10
-13.00891452352117
 20
0.9250724715873648
 42
-0.1069100077216599
 10
-12.96431637245567
 20
0.9728193843423885
 42
-0.0818514225363446
 10
-12.90242005432923
 20
1.002196224231129
 42
-0.0700628980345367
 10
-12.82330125052918
 20
1.0133375
 42
-0.0700628980345371
  0
LWPOLYLINE
  5
35
330
2
100
AcDbEntity
  8
0
100
AcDbPolyline
 90
        9
 70
     0
 43
0.0
 10
-12.82330125052918
 20
0.7953124999999961
 42
-0.147269582437036
 10
-12.84099767369172
 20
0.8006403416877905
 42
-0.1071386913803464
 10
-12.85854956735523
 20
0.8186524283741949
 42
-0.0765137470862007
 10
-12.869091481402
 20
0.8431571664083553
 42
-0.063469041210727
 10
-12.8731498982354
 20
0.8750000000000018
 42
-0.0634690412107267
 10
-12.869091481402
 20
0.9068428335916412
 42
-0.0765137470862059
 10
-12.85854956735523
 20
0.9313475716258015
 42
-0.1071386913803463
 10
-12.84099767369172
 20
0.9493596583122059
 42
-0.1472695824370325
 10
-12.82330125052918
 20
0.9546875000000004
 42
-0.1472695824370333
  0
LWPOLYLINE
  5
36
330
2
100
AcDbEntity
  8
0
100
AcDbPolyline
 90
        9
 70
     0
 43
0.0
 10
-12.82330125052918
 20
0.7659874999999961
 42
-0.1432467981947568
 10
-12.84852590138464
 20
0.7733655968712458
 42
-0.1071754848060475
 10
-12.87321206735523
 20
0.7979165220158979
 42
-0.0783035184710328
 10
-12.88815873497759
 20
0.8315377763666962
 42
-0.0656020556757086
 10
-12.89388580459369
 20
0.8750000000000018
 42
-0.0656020556757101
 10
-12.88815873497759
 20
0.9184622236333002
 42
-0.0783035184710357
 10
-12.87321206735523
 20
0.9520834779840985
 42
-0.1071754848060445
 10
-12.84852590138464
 20
0.9766344031287506
 42
-0.1432467981947535
 10
-12.82330125052918
 20
0.9840125000000004
 42
-0.1432467981947515
  0
LINE
  5
37
330
2
100
AcDbEntity
  8
0
100
AcDbLine
 10
-12.82330125052918
 20
0.736662499999996
 30
0.0
 11
-12.82330125052918
 21
1.0133375
 31
0.0
  0
LINE
  5
38
330
2
100
AcDbEntity
  8
0
100
AcDbLine
 10
-12.08050617368247
 20
4.096094077712662
 30
0.0
 11
-12.08050617368247
 21
4.642920185445446
 31
0.0
  0
LWPOLYLINE
  5
39
330
2
100
AcDbEntity
  8
0
100
AcDbPolyline
 90
        9
 70
     0
 43
0.0
 10
-12.82330125052918
 20
2.795312499999996
 42
-0.147269582437036
 10
-12.84099767369172
 20
2.800640341687791
 42
-0.1071386913803464
 10
-12.85854956735523
 20
2.818652428374195
 42
-0.0765137470862007
 10
-12.869091481402
 20
2.843157166408355
 42
-0.063469041210727
 10
-12.8731498982354
 20
2.875000000000002
 42
-0.0634690412107267
 10
-12.869091481402
 20
2.906842833591641
 42
-0.0765137470862059
 10
-12.85854956735523
 20
2.931347571625802
 42
-0.1071386913803463
 10
-12.84099767369172
 20
2.949359658312206
 42
-0.1472695824370325
 10
-12.82330125052918
 20
2.9546875
 42
-0.1472695824370333
  0
LWPOLYLINE
  5
3A
330
2
100
AcDbEntity
  8
0
100
AcDbPolyline
 90
        9
 70
     0
 43
0.0
 10
-12.82330125052918
 20
2.765987499999996
 42
-0.1432467981947568
 10
-12.84852590138464
 20
2.773365596871246
 42
-0.1071754848060475
 10
-12.87321206735523
 20
2.797916522015898
 42
-0.0783035184710328
 10
-12.88815873497759
 20
2.831537776366696
 42
-0.0656020556757086
 10
-12.89388580459369
 20
2.875000000000002
 42
-0.0656020556757101
 10
-12.88815873497759
 20
2.9184622236333
 42
-0.0783035184710357
 10
-12.87321206735523
 20
2.952083477984099
 42
-0.1071754848060445
 10
-12.84852590138464
 20
2.976634403128751
 42
-0.1432467981947535
 10
-12.82330125052918
 20
2.9840125
 42
-0.1432467981947515
  0
LWPOLYLINE
  5
3B
330
2
100
AcDbEntity
  8
0
100
AcDbPolyline
 90
        9
 70
     0
 43
0.0
 10
-12.82330125052918
 20
2.736662499999996
 42
-0.0700628980345364
 10
-12.90242005432923
 20
2.747803775768867
 42
-0.0818514225363451
 10
-12.96431637245567
 20
2.777180615657601
 42
-0.1069100077216601
 10
-13.00891452352117
 20
2.824927528412632
 42
-0.135394011665182
 10
-13.02272674845732
 20
2.874999999999995
 42
-0.1353940116651818
 10
-13.00891452352117
 20
2.925072471587365
 42
-0.1069100077216599
 10
-12.96431637245567
 20
2.972819384342389
 42
-0.0818514225363446
 10
-12.90242005432923
 20
3.002196224231129
 42
-0.0700628980345367
 10
-12.82330125052918
 20
3.0133375
 42
-0.0700628980345371
  0
LINE
  5
3C
330
2
100
AcDbEntity
  8
0
100
AcDbLine
 10
-12.82330125052918
 20
2.736662499999996
 30
0.0
 11
-12.82330125052918
 21
3.0133375
 31
0.0
  0
LWPOLYLINE
  5
3D
330
2
100
AcDbEntity
  8
0
100
AcDbPolyline
 90
        9
 70
     0
 43
0.0
 10
-12.82330125052918
 20
1.736662499999996
 42
-0.0700628980345364
 10
-12.90242005432923
 20
1.747803775768867
 42
-0.0818514225363451
 10
-12.96431637245567
 20
1.777180615657601
 42
-0.1069100077216601
 10
-13.00891452352117
 20
1.824927528412632
 42
-0.135394011665182
 10
-13.02272674845732
 20
1.874999999999995
 42
-0.1353940116651818
 10
-13.00891452352117
 20
1.925072471587365
 42
-0.1069100077216599
 10
-12.96431637245567
 20
1.972819384342389
 42
-0.0818514225363446
 10
-12.90242005432923
 20
2.002196224231129
 42
-0.0700628980345367
 10
-12.82330125052918
 20
2.0133375
 42
-0.0700628980345371
  0
LINE
  5
3E
330
2
100
AcDbEntity
  8
0
100
AcDbLine
 10
-12.82330125052918
 20
1.736662499999996
 30
0.0
 11
-12.82330125052918
 21
2.0133375
 31
0.0
  0
LWPOLYLINE
  5
3F
330
2
100
AcDbEntity
  8
0
100
AcDbPolyline
 90
        9
 70
     0
 43
0.0
 10
-12.82330125052918
 20
1.765987499999996
 42
-0.1432467981947568
 10
-12.84852590138464
 20
1.773365596871246
 42
-0.1071754848060475
 10
-12.87321206735523
 20
1.797916522015898
 42
-0.0783035184710328
 10
-12.88815873497759
 20
1.831537776366696
 42
-0.0656020556757086
 10
-12.89388580459369
 20
1.875000000000002
 42
-0.0656020556757101
 10
-12.88815873497759
 20
1.9184622236333
 42
-0.0783035184710357
 10
-12.87321206735523
 20
1.952083477984099
 42
-0.1071754848060445
 10
-12.84852590138464
 20
1.976634403128751
 42
-0.1432467981947535
 10
-12.82330125052918
 20
1.9840125
 42
-0.1432467981947515
  0
LWPOLYLINE
  5
40
330
2
100
AcDbEntity
  8
0
100
AcDbPolyline
 90
        9
 70
     0
 43
0.0
 10
-12.82330125052918
 20
1.795312499999996
 42
-0.147269582437036
 10
-12.84099767369172
 20
1.800640341687791
 42
-0.1071386913803464
 10
-12.85854956735523
 20
1.818652428374195
 42
-0.0765137470862007
 10
-12.869091481402
 20
1.843157166408355
 42
-0.063469041210727
 10
-12.8731498982354
 20
1.875000000000002
 42
-0.0634690412107267
 10
-12.869091481402
 20
1.906842833591641
 42
-0.0765137470862059
 10
-12.85854956735523
 20
1.931347571625802
 42
-0.1071386913803463
 10
-12.84099767369172
 20
1.949359658312206
 42
-0.1472695824370325
 10
-12.82330125052918
 20
1.9546875
 42
-0.1472695824370333
  0
LWPOLYLINE
  5
41
330
2
100
AcDbEntity
  8
0
100
AcDbPolyline
 90
        9
 70
     0
 43
0.0
 10
-12.82330125052918
 20
3.736662499999996
 42
-0.0700628980345364
 10
-12.90242005432923
 20
3.747803775768867
 42
-0.0818514225363451
 10
-12.96431637245567
 20
3.777180615657601
 42
-0.1069100077216601
 10
-13.00891452352117
 20
3.824927528412632
 42
-0.135394011665182
 10
-13.02272674845732
 20
3.874999999999995
 42
-0.1353940116651818
 10
-13.00891452352117
 20
3.925072471587365
 42
-0.1069100077216599
 10
-12.96431637245567
 20
3.972819384342389
 42
-0.0818514225363446
 10
-12.90242005432923
 20
4.002196224231129
 42
-0.0700628980345367
 10
-12.82330125052918
 20
4.0133375
 42
-0.0700628980345371
  0
LWPOLYLINE
  5
42
330
2
100
AcDbEntity
  8
0
100
AcDbPolyline
 90
        9
 70
     0
 43
0.0
 10
-12.82330125052918
 20
3.795312499999996
 42
-0.147269582437036
 10
-12.84099767369172
 20
3.800640341687791
 42
-0.1071386913803464
 10
-12.85854956735523
 20
3.818652428374195
 42
-0.0765137470862007
 10
-12.869091481402
 20
3.843157166408355
 42
-0.063469041210727
 10
-12.8731498982354
 20
3.875000000000002
 42
-0.0634690412107267
 10
-12.869091481402
 20
3.906842833591641
 42
-0.0765137470862059
 10
-12.85854956735523
 20
3.931347571625802
 42
-0.1071386913803463
 10
-12.84099767369172
 20
3.949359658312206
 42
-0.1472695824370325
 10
-12.82330125052918
 20
3.9546875
 42
-0.1472695824370333
  0
LWPOLYLINE
  5
43
330
2
100
AcDbEntity
  8
0
100
AcDbPolyline
 90
        9
 70
     0
 43
0.0
 10
-12.82330125052918
 20
3.765987499999996
 42
-0.1432467981947568
 10
-12.84852590138464
 20
3.773365596871246
 42
-0.1071754848060475
 10
-12.87321206735523
 20
3.797916522015898
 42
-0.0783035184710328
 10
-12.88815873497759
 20
3.831537776366696
 42
-0.0656020556757086
 10
-12.89388580459369
 20
3.875000000000002
 42
-0.0656020556757101
 10
-12.88815873497759
 20
3.9184622236333
 42
-0.0783035184710357
 10
-12.87321206735523
 20
3.952083477984099
 42
-0.1071754848060445
 10
-12.84852590138464
 20
3.976634403128751
 42
-0.1432467981947535
 10
-12.82330125052918
 20
3.9840125
 42
-0.1432467981947515
  0
LINE
  5
44
330
2
100
AcDbEntity
  8
0
100
AcDbLine
 10
-12.82330125052918
 20
3.736662499999996
 30
0.0
 11
-12.82330125052918
 21
4.0133375
 31
0.0
  0
LINE
  5
45
330
2
100
AcDbEntity
  8
0
100
AcDbLine
 10
-12.82330125052918
 20
5.736662499999996
 30
0.0
 11
-12.82330125052918
 21
6.0133375
 31
0.0
  0
LWPOLYLINE
  5
46
330
2
100
AcDbEntity
  8
0
100
AcDbPolyline
 90
        9
 70
     0
 43
0.0
 10
-12.82330125052918
 20
5.736662499999996
 42
-0.0700628980345364
 10
-12.90242005432923
 20
5.747803775768867
 42
-0.0818514225363451
 10
-12.96431637245567
 20
5.777180615657601
 42
-0.1069100077216601
 10
-13.00891452352117
 20
5.824927528412632
 42
-0.135394011665182
 10
-13.02272674845732
 20
5.874999999999995
 42
-0.1353940116651818
 10
-13.00891452352117
 20
5.925072471587365
 42
-0.1069100077216599
 10
-12.96431637245567
 20
5.972819384342389
 42
-0.0818514225363446
 10
-12.90242005432923
 20
6.002196224231129
 42
-0.0700628980345367
 10
-12.82330125052918
 20
6.0133375
 42
-0.0700628980345371
  0
LWPOLYLINE
  5
47
330
2
100
AcDbEntity
  8
0
100
AcDbPolyline
 90
        9
 70
     0
 43
0.0
 10
-12.82330125052918
 20
5.765987499999996
 42
-0.1432467981947568
 10
-12.84852590138464
 20
5.773365596871246
 42
-0.1071754848060475
 10
-12.87321206735523
 20
5.797916522015898
 42
-0.0783035184710328
 10
-12.88815873497759
 20
5.831537776366696
 42
-0.0656020556757086
 10
-12.89388580459369
 20
5.875000000000002
 42
-0.0656020556757101
 10
-12.88815873497759
 20
5.9184622236333
 42
-0.0783035184710357
 10
-12.87321206735523
 20
5.952083477984099
 42
-0.1071754848060445
 10
-12.84852590138464
 20
5.976634403128751
 42
-0.1432467981947535
 10
-12.82330125052918
 20
5.9840125
 42
-0.1432467981947515
  0
LWPOLYLINE
  5
48
330
2
100
AcDbEntity
  8
0
100
AcDbPolyline
 90
        9
 70
     0
 43
0.0
 10
-12.82330125052918
 20
5.795312499999996
 42
-0.147269582437036
 10
-12.84099767369172
 20
5.800640341687791
 42
-0.1071386913803464
 10
-12.85854956735523
 20
5.818652428374195
 42
-0.0765137470862007
 10
-12.869091481402
 20
5.843157166408355
 42
-0.063469041210727
 10
-12.8731498982354
 20
5.875000000000002
 42
-0.0634690412107267
 10
-12.869091481402
 20
5.906842833591641
 42
-0.0765137470862059
 10
-12.85854956735523
 20
5.931347571625802
 42
-0.1071386913803463
 10
-12.84099767369172
 20
5.949359658312206
 42
-0.1472695824370325
 10
-12.82330125052918
 20
5.9546875
 42
-0.1472695824370333
  0
LINE
  5
49
330
2
100
AcDbEntity
  8
0
100
AcDbLine
 10
-12.11711782603415
 20
6.033085228390403
 30
0.0
 11
-12.35639452133079
 21
5.793808533093765
 31
0.0
  0
LWPOLYLINE
  5
4A
330
2
100
AcDbEntity
  8
0
100
AcDbPolyline
 90
        9
 70
     0
 43
0.0
 10
-12.82330125052918
 20
4.736662499999996
 42
-0.0700628980345364
 10
-12.90242005432923
 20
4.747803775768867
 42
-0.0818514225363451
 10
-12.96431637245567
 20
4.777180615657601
 42
-0.1069100077216601
 10
-13.00891452352117
 20
4.824927528412632
 42
-0.135394011665182
 10
-13.02272674845732
 20
4.874999999999995
 42
-0.1353940116651818
 10
-13.00891452352117
 20
4.925072471587365
 42
-0.1069100077216599
 10
-12.96431637245567
 20
4.972819384342389
 42
-0.0818514225363446
 10
-12.90242005432923
 20
5.002196224231129
 42
-0.0700628980345367
 10
-12.82330125052918
 20
5.0133375
 42
-0.0700628980345371
  0
LINE
  5
4B
330
2
100
AcDbEntity
  8
0
100
AcDbLine
 10
-12.82330125052918
 20
4.736662499999996
 30
0.0
 11
-12.82330125052918
 21
5.0133375
 31
0.0
  0
LWPOLYLINE
  5
4C
330
2
100
AcDbEntity
  8
0
100
AcDbPolyline
 90
        9
 70
     0
 43
0.0
 10
-12.82330125052918
 20
4.765987499999996
 42
-0.1432467981947568
 10
-12.84852590138464
 20
4.773365596871246
 42
-0.1071754848060475
 10
-12.87321206735523
 20
4.797916522015898
 42
-0.0783035184710328
 10
-12.88815873497759
 20
4.831537776366696
 42
-0.0656020556757086
 10
-12.89388580459369
 20
4.875000000000002
 42
-0.0656020556757101
 10
-12.88815873497759
 20
4.9184622236333
 42
-0.0783035184710357
 10
-12.87321206735523
 20
4.952083477984099
 42
-0.1071754848060445
 10
-12.84852590138464
 20
4.976634403128751
 42
-0.1432467981947535
 10
-12.82330125052918
 20
4.9840125
 42
-0.1432467981947515
  0
LWPOLYLINE
  5
4D
330
2
100
AcDbEntity
  8
0
100
AcDbPolyline
 90
        9
 70
     0
 43
0.0
 10
-12.82330125052918
 20
4.795312499999996
 42
-0.147269582437036
 10
-12.84099767369172
 20
4.800640341687791
 42
-0.1071386913803464
 10
-12.85854956735523
 20
4.818652428374195
 42
-0.0765137470862007
 10
-12.869091481402
 20
4.843157166408355
 42
-0.063469041210727
 10
-12.8731498982354
 20
4.875000000000002
 42
-0.0634690412107267
 10
-12.869091481402
 20
4.906842833591641
 42
-0.0765137470862059
 10
-12.85854956735523
 20
4.931347571625802
 42
-0.1071386913803463
 10
-12.84099767369172
 20
4.949359658312206
 42
-0.1472695824370325
 10
-12.82330125052918
 20
4.9546875
 42
-0.1472695824370333
  0
LINE
  5
4E
330
2
100
AcDbEntity
  8
0
100
AcDbLine
 10
-12.39300617368247
 20
5.705420185445446
 30
0.0
 11
-12.39300617368247
 21
5.058973576038722
 31
0.0
  0
ARC
  5
4F
330
2
100
AcDbEntity
  8
0
100
AcDbCircle
 10
-12.20550617368247
 20
4.642920185445446
 30
0.0
 40
0.125
100
AcDbArc
 50
0.000000000000007
 51
45.00000000000016
  0
ARC
  5
50
330
2
100
AcDbEntity
  8
0
100
AcDbCircle
 10
-12.26800617368247
 20
5.058973576038722
 30
0.0
 40
0.125
100
AcDbArc
 50
180.0
 51
225.0000000000003
  0
LINE
  5
51
330
2
100
AcDbEntity
  8
0
100
AcDbLine
 10
-12.35639452133079
 20
4.970585228390403
 30
0.0
 11
-12.11711782603415
 21
4.731308533093765
 31
0.0
  0
ARC
  5
52
330
2
100
AcDbEntity
  8
0
100
AcDbCircle
 10
-12.26800617368247
 20
5.705420185445446
 30
0.0
 40
0.125
100
AcDbArc
 50
134.9999999999999
 51
180.0
  0
LWPOLYLINE
  5
53
330
2
100
AcDbEntity
  8
0
100
AcDbPolyline
 90
        9
 70
     0
 43
0.0
 10
-12.82330125052918
 20
6.736662499999996
 42
-0.0700628980345364
 10
-12.90242005432923
 20
6.747803775768867
 42
-0.0818514225363451
 10
-12.96431637245567
 20
6.777180615657601
 42
-0.1069100077216601
 10
-13.00891452352117
 20
6.824927528412632
 42
-0.135394011665182
 10
-13.02272674845732
 20
6.874999999999995
 42
-0.1353940116651818
 10
-13.00891452352117
 20
6.925072471587365
 42
-0.1069100077216599
 10
-12.96431637245567
 20
6.972819384342389
 42
-0.0818514225363446
 10
-12.90242005432923
 20
7.002196224231129
 42
-0.0700628980345367
 10
-12.82330125052918
 20
7.0133375
 42
-0.0700628980345371
  0
LWPOLYLINE
  5
54
330
2
100
AcDbEntity
  8
0
100
AcDbPolyline
 90
        9
 70
     0
 43
0.0
 10
-12.82330125052918
 20
6.795312499999996
 42
-0.147269582437036
 10
-12.84099767369172
 20
6.800640341687791
 42
-0.1071386913803464
 10
-12.85854956735523
 20
6.818652428374195
 42
-0.0765137470862007
 10
-12.869091481402
 20
6.843157166408355
 42
-0.063469041210727
 10
-12.8731498982354
 20
6.875000000000002
 42
-0.0634690412107267
 10
-12.869091481402
 20
6.906842833591641
 42
-0.0765137470862059
 10
-12.85854956735523
 20
6.931347571625802
 42
-0.1071386913803463
 10
-12.84099767369172
 20
6.949359658312206
 42
-0.1472695824370325
 10
-12.82330125052918
 20
6.9546875
 42
-0.1472695824370333
  0
LWPOLYLINE
  5
55
330
2
100
AcDbEntity
  8
0
100
AcDbPolyline
 90
        9
 70
     0
 43
0.0
 10
-12.82330125052918
 20
6.765987499999996
 42
-0.1432467981947568
 10
-12.84852590138464
 20
6.773365596871246
 42
-0.1071754848060475
 10
-12.87321206735523
 20
6.797916522015898
 42
-0.0783035184710328
 10
-12.88815873497759
 20
6.831537776366696
 42
-0.0656020556757086
 10
-12.89388580459369
 20
6.875000000000002
 42
-0.0656020556757101
 10
-12.88815873497759
 20
6.9184622236333
 42
-0.0783035184710357
 10
-12.87321206735523
 20
6.952083477984099
 42
-0.1071754848060445
 10
-12.84852590138464
 20
6.976634403128751
 42
-0.1432467981947535
 10
-12.82330125052918
 20
6.9840125
 42
-0.1432467981947515
  0
LINE
  5
56
330
2
100
AcDbEntity
  8
0
100
AcDbLine
 10
-12.82330125052918
 20
6.736662499999996
 30
0.0
 11
-12.82330125052918
 21
7.0133375
 31
0.0
  0
ARC
  5
57
330
2
100
AcDbEntity
  8
0
100
AcDbCircle
 10
-12.20550617368247
 20
6.642920185445446
 30
0.0
 40
0.125
100
AcDbArc
 50
0.000000000000007
 51
45.00000000000016
  0
LINE
  5
58
330
2
100
AcDbEntity
  8
0
100
AcDbLine
 10
-12.08050617368247
 20
6.624999999999998
 30
0.0
 11
-12.08050617368247
 21
6.121473319994449
 31
0.0
  0
LINE
  5
59
330
2
100
AcDbEntity
  8
0
100
AcDbLine
 10
-12.08050617368247
 20
6.121473576038722
 30
0.0
 11
-12.08050617368247
 21
6.624999999999998
 31
0.0
  0
ARC
  5
5A
330
2
100
AcDbEntity
  8
0
100
AcDbCircle
 10
-12.20550617368247
 20
6.121473576038722
 30
0.0
 40
0.125
100
AcDbArc
 50
314.9999999999999
 51
0.000000000000007
  0
ARC
  5
5B
330
2
100
AcDbEntity
  8
0
100
AcDbCircle
 10
-12.26800617368247
 20
7.058973576038722
 30
0.0
 40
0.125
100
AcDbArc
 50
180.0
 51
225.0000000000003
  0
LINE
  5
5C
330
2
100
AcDbEntity
  8
0
100
AcDbLine
 10
-12.35639452133079
 20
6.970585228390403
 30
0.0
 11
-12.11711782603415
 21
6.731308533093765
 31
0.0
  0
LINE
  5
5D
330
2
100
AcDbEntity
  8
0
100
AcDbLine
 10
-11.12860321253879
 20
1.797997038856336
 30
0.0
 11
-9.800176087792622
 21
0.4695699141101777
 31
0.0
  0
ARC
  5
5E
330
2
100
AcDbEntity
  8
0
100
AcDbCircle
 10
-10.33050617368252
 20
-0.0607601717796946
 30
0.0
 40
0.7499999999999784
100
AcDbArc
 50
4.646827699356821
 51
45.00000000000097
  0
LINE
  5
5F
330
2
100
AcDbEntity
  8
0
100
AcDbLine
 10
-12.39300617368247
 20
9.058973576038722
 30
0.0
 11
-12.39300617368247
 21
9.218749999999977
 31
0.0
  0
LWPOLYLINE
  5
60
330
2
100
AcDbEntity
  8
0
100
AcDbPolyline
 90
        9
 70
     0
 43
0.0
 10
-12.82330125052918
 20
7.736662499999996
 42
-0.0700628980345364
 10
-12.90242005432923
 20
7.747803775768867
 42
-0.0818514225363451
 10
-12.96431637245567
 20
7.777180615657601
 42
-0.1069100077216601
 10
-13.00891452352117
 20
7.824927528412632
 42
-0.135394011665182
 10
-13.02272674845732
 20
7.874999999999995
 42
-0.1353940116651818
 10
-13.00891452352117
 20
7.925072471587365
 42
-0.1069100077216599
 10
-12.96431637245567
 20
7.972819384342389
 42
-0.0818514225363446
 10
-12.90242005432923
 20
8.002196224231129
 42
-0.0700628980345367
 10
-12.82330125052918
 20
8.0133375
 42
-0.0700628980345371
  0
LWPOLYLINE
  5
61
330
2
100
AcDbEntity
  8
0
100
AcDbPolyline
 90
        9
 70
     0
 43
0.0
 10
-12.82330125052918
 20
7.795312499999996
 42
-0.147269582437036
 10
-12.84099767369172
 20
7.800640341687791
 42
-0.1071386913803464
 10
-12.85854956735523
 20
7.818652428374195
 42
-0.0765137470862007
 10
-12.869091481402
 20
7.843157166408355
 42
-0.063469041210727
 10
-12.8731498982354
 20
7.875000000000002
 42
-0.0634690412107267
 10
-12.869091481402
 20
7.906842833591641
 42
-0.0765137470862059
 10
-12.85854956735523
 20
7.931347571625802
 42
-0.1071386913803463
 10
-12.84099767369172
 20
7.949359658312206
 42
-0.1472695824370325
 10
-12.82330125052918
 20
7.9546875
 42
-0.1472695824370333
  0
LWPOLYLINE
  5
62
330
2
100
AcDbEntity
  8
0
100
AcDbPolyline
 90
        9
 70
     0
 43
0.0
 10
-12.82330125052918
 20
7.765987499999996
 42
-0.1432467981947568
 10
-12.84852590138464
 20
7.773365596871246
 42
-0.1071754848060475
 10
-12.87321206735523
 20
7.797916522015898
 42
-0.0783035184710328
 10
-12.88815873497759
 20
7.831537776366696
 42
-0.0656020556757086
 10
-12.89388580459369
 20
7.875000000000002
 42
-0.0656020556757101
 10
-12.88815873497759
 20
7.9184622236333
 42
-0.0783035184710357
 10
-12.87321206735523
 20
7.952083477984099
 42
-0.1071754848060445
 10
-12.84852590138464
 20
7.976634403128751
 42
-0.1432467981947535
 10
-12.82330125052918
 20
7.9840125
 42
-0.1432467981947515
  0
LINE
  5
63
330
2
100
AcDbEntity
  8
0
100
AcDbLine
 10
-12.82330125052918
 20
7.736662499999996
 30
0.0
 11
-12.82330125052918
 21
8.0133375
 31
0.0
  0
LINE
  5
64
330
2
100
AcDbEntity
  8
0
100
AcDbLine
 10
-12.08050617368247
 20
8.121473576038722
 30
0.0
 11
-12.08050617368247
 21
8.624999999999998
 31
0.0
  0
LINE
  5
65
330
2
100
AcDbEntity
  8
0
100
AcDbLine
 10
-12.08050617368247
 20
8.642920185445446
 30
0.0
 11
-12.08050617368247
 21
8.121473319994449
 31
0.0
  0
ARC
  5
66
330
2
100
AcDbEntity
  8
0
100
AcDbCircle
 10
-12.20550617368247
 20
8.121473576038722
 30
0.0
 40
0.125
100
AcDbArc
 50
314.9999999999999
 51
0.000000000000007
  0
ARC
  5
67
330
2
100
AcDbEntity
  8
0
100
AcDbCircle
 10
-12.26800617368247
 20
7.705420185445446
 30
0.0
 40
0.125
100
AcDbArc
 50
134.9999999999999
 51
180.0
  0
LINE
  5
68
330
2
100
AcDbEntity
  8
0
100
AcDbLine
 10
-12.11711782603415
 20
8.033085228390403
 30
0.0
 11
-12.35639452133079
 21
7.793808533093765
 31
0.0
  0
ARC
  5
69
330
2
100
AcDbEntity
  8
0
100
AcDbCircle
 10
-12.20550617368247
 20
8.642920185445446
 30
0.0
 40
0.125
100
AcDbArc
 50
0.000000000000007
 51
45.00000000000016
  0
ARC
  5
6A
330
2
100
AcDbEntity
  8
0
100
AcDbCircle
 10
-12.26800617368247
 20
9.058973576038722
 30
0.0
 40
0.125
100
AcDbArc
 50
180.0
 51
225.0000000000003
  0
LINE
  5
6B
330
2
100
AcDbEntity
  8
0
100
AcDbLine
 10
-12.35639452133079
 20
8.970585228390403
 30
0.0
 11
-12.11711782603415
 21
8.731308533093765
 31
0.0
  0
LINE
  5
6C
330
2
100
AcDbEntity
  8
0
100
AcDbLine
 10
-12.39300617368247
 20
9.218749999999984
 30
0.0
 11
-13.85455125052918
 21
9.218749999999977
 31
0.0
  0
LINE
  5
6D
330
2
100
AcDbEntity
  8
0
100
AcDbLine
 10
4.514669104289133
 20
7.611670185445446
 30
0.0
 11
4.514669104289133
 21
6.965223576038726
 31
0.0
  0
CIRCLE
  5
6E
330
2
100
AcDbEntity
  8
0
100
AcDbCircle
 10
2.639664181135839
 20
7.531250000000002
 30
0.0
 40
0.0855
  0
CIRCLE
  5
6F
330
2
100
AcDbEntity
  8
0
100
AcDbCircle
 10
-2.639664181135821
 20
7.539173724782662
 30
0.0
 40
0.0855
  0
LINE
  5
70
330
2
100
AcDbEntity
  8
0
100
AcDbLine
 10
-4.514669104289119
 20
7.619593910228103
 30
0.0
 11
-4.514669104289119
 21
6.973147300821387
 31
0.0
  0
LINE
  5
71
330
2
100
AcDbEntity
  8
0
100
AcDbLine
 10
1.882464181135838
 20
0.1874999999999982
 30
0.0
 11
1.882464181135838
 21
9.124999999999998
 31
0.0
  0
LINE
  5
72
330
2
100
AcDbEntity
  8
0
100
AcDbLine
 10
-1.882464181135838
 20
0.1875000000000018
 30
0.0
 11
-1.882464181135838
 21
9.125000000000002
 31
0.0
  0
LINE
  5
73
330
2
100
AcDbEntity
  8
0
100
AcDbLine
 10
1.788714181135838
 20
0.1875000000000018
 30
0.0
 11
1.788714181135838
 21
9.124999999999998
 31
0.0
  0
LINE
  5
74
330
2
100
AcDbEntity
  8
0
100
AcDbLine
 10
-1.788714181135838
 20
0.1875000000000018
 30
0.0
 11
-1.788714181135838
 21
9.125000000000002
 31
0.0
  0
LINE
  5
75
330
2
100
AcDbEntity
  8
0
100
AcDbLine
 10
3.250266143145474
 20
1.704247038856297
 30
0.0
 11
1.921839018399304
 21
0.3758199141101404
 31
0.0
  0
ELLIPSE
  5
76
330
2
100
AcDbEntity
  8
0
100
AcDbEllipse
 10
-1.882464181135838
 20
1.156250000000002
 30
0.0
 11
0.0
 21
-0.1383375000000022
 31
0.0
210
0.0
220
0.0
230
-1.0
 40
0.9035872413481376
 41
0.0
 42
3.141592653589793
  0
ELLIPSE
  5
77
330
2
100
AcDbEntity
  8
0
100
AcDbEllipse
 10
-1.882464181135838
 20
1.156250000000016
 30
0.0
 11
0.0
 21
-0.1875000000000142
 31
0.0
210
0.0
220
0.0
230
-1.0
 40
0.9999999999999242
 41
0.0
 42
3.141592653589793
  0
LINE
  5
78
330
2
100
AcDbEntity
  8
0
100
AcDbLine
 10
-1.882464181135838
 20
1.312500000000002
 30
0.0
 11
-1.882464181135838
 21
1.000000000000002
 31
0.0
  0
LINE
  5
79
330
2
100
AcDbEntity
  8
0
100
AcDbLine
 10
-3.250266143145446
 20
1.704247038856243
 30
0.0
 11
-1.921839018399275
 21
0.3758199141100871
 31
0.0
  0
LINE
  5
7A
330
2
100
AcDbEntity
  8
0
100
AcDbLine
 10
-1.694964181135838
 20
0.0937500000000018
 30
0.0
 11
1.694964181135838
 21
0.0937500000000018
 31
0.0
  0
LINE
  5
7B
330
2
100
AcDbEntity
  8
0
100
AcDbLine
 10
-1.694964181135838
 20
0.0000000000000018
 30
0.0
 11
1.694964181135838
 21
-0.0000000000000018
 31
0.0
  0
ARC
  5
7C
330
2
100
AcDbEntity
  8
0
100
AcDbCircle
 10
-1.694964181135838
 20
0.1875000000000018
 30
0.0
 40
0.09375
100
AcDbArc
 50
180.0
 51
269.9999999999998
  0
ARC
  5
7D
330
2
100
AcDbEntity
  8
0
100
AcDbCircle
 10
-2.45216910428919
 20
-0.1545101717797994
 30
0.0
 40
0.75
100
AcDbArc
 50
40.57047427469522
 51
45.00000000000046
  0
ARC
  5
7E
330
2
100
AcDbEntity
  8
0
100
AcDbCircle
 10
-1.694964181135838
 20
0.1875000000000018
 30
0.0
 40
0.1875
100
AcDbArc
 50
180.0
 51
270.0
  0
LINE
  5
7F
330
2
100
AcDbEntity
  8
0
100
AcDbLine
 10
-1.882464181135838
 20
1.000000000000002
 30
0.0
 11
-1.882464181135838
 21
0.9687500000000018
 31
0.0
  0
ARC
  5
81
330
2
100
AcDbEntity
  8
0
100
AcDbCircle
 10
1.694964181135838
 20
0.1875000000000018
 30
0.0
 40
0.09375
100
AcDbArc
 50
270.0
 51
0.0
  0
ARC
  5
82
330
2
100
AcDbEntity
  8
0
100
AcDbCircle
 10
1.694964181135838
 20
0.1874999999999982
 30
0.0
 40
0.1875
100
AcDbArc
 50
270.0
 51
0.0
  0
ELLIPSE
  5
83
330
2
100
AcDbEntity
  8
0
100
AcDbEllipse
 10
1.882464181135838
 20
0.7812499999999947
 30
0.0
 11
0.0
 21
-0.1383375000000022
 31
0.0
210
0.0
220
0.0
230
1.0
 40
0.9035872413481376
 41
0.0
 42
3.141592653589793
  0
ELLIPSE
  5
84
330
2
100
AcDbEntity
  8
0
100
AcDbEllipse
 10
1.882464181135838
 20
0.7812500000000089
 30
0.0
 11
0.0
 21
-0.1875000000000142
 31
0.0
210
0.0
220
0.0
230
1.0
 40
0.9999999999999242
 41
0.0
 42
3.141592653589793
  0
LINE
  5
85
330
2
100
AcDbEntity
  8
0
100
AcDbLine
 10
1.882464181135838
 20
0.9374999999999947
 30
0.0
 11
1.882464181135838
 21
0.6249999999999947
 31
0.0
  0
LINE
  5
86
330
2
100
AcDbEntity
  8
0
100
AcDbLine
 10
1.882464181135838
 20
0.6249999999999947
 30
0.0
 11
1.882464181135838
 21
0.5937499999999947
 31
0.0
  0
LINE
  5
87
330
2
100
AcDbEntity
  8
0
100
AcDbLine
 10
1.882464181135838
 20
0.9375000000000231
 30
0.0
 11
1.882464181135838
 21
0.9687500000000231
 31
0.0
  0
ARC
  5
88
330
2
100
AcDbEntity
  8
0
100
AcDbCircle
 10
-0.9521691042891654
 20
4.00234407771257
 30
0.0
 40
3.25
100
AcDbArc
 50
180.0
 51
225.0000000000005
  0
LINE
  5
89
330
2
100
AcDbEntity
  8
0
100
AcDbLine
 10
-4.202169104289162
 20
4.00234407771257
 30
0.0
 11
-4.202169104289119
 21
4.55709391022811
 31
0.0
  0
CIRCLE
  5
8A
330
2
100
AcDbEntity
  8
0
100
AcDbCircle
 10
-3.733414181135835
 20
3.664173724782662
 30
0.0
 40
0.0855
  0
CIRCLE
  5
8B
330
2
100
AcDbEntity
  8
0
100
AcDbCircle
 10
-3.514664181135835
 20
3.039173724782662
 30
0.0
 40
0.0855
  0
CIRCLE
  5
8C
330
2
100
AcDbEntity
  8
0
100
AcDbCircle
 10
-3.952164181135835
 20
4.289173724782662
 30
0.0
 40
0.0855
  0
LINE
  5
8D
330
2
100
AcDbEntity
  8
0
100
AcDbLine
 10
-4.2387807566408
 20
5.94725895317306
 30
0.0
 11
-4.478057451937438
 21
5.707982257876422
 31
0.0
  0
LINE
  5
8E
330
2
100
AcDbEntity
  8
0
100
AcDbLine
 10
-4.514669104289119
 20
5.619593910228103
 30
0.0
 11
-4.514669104289119
 21
4.973147300821387
 31
0.0
  0
ARC
  5
8F
330
2
100
AcDbEntity
  8
0
100
AcDbCircle
 10
-4.389669104289119
 20
4.973147300821387
 30
0.0
 40
0.125
100
AcDbArc
 50
180.0
 51
225.0000000000003
  0
LINE
  5
90
330
2
100
AcDbEntity
  8
0
100
AcDbLine
 10
-4.478057451937438
 20
4.884758953173067
 30
0.0
 11
-4.2387807566408
 21
4.645482257876429
 31
0.0
  0
ARC
  5
91
330
2
100
AcDbEntity
  8
0
100
AcDbCircle
 10
-4.327169104289119
 20
4.55709391022811
 30
0.0
 40
0.125
100
AcDbArc
 50
0.0
 51
45.00000000000014
  0
CIRCLE
  5
92
330
2
100
AcDbEntity
  8
0
100
AcDbCircle
 10
-3.51466910428935
 20
5.031199999999958
 30
0.0
 40
0.0855
  0
ARC
  5
93
330
2
100
AcDbEntity
  8
0
100
AcDbCircle
 10
-4.389669104289119
 20
5.619593910228103
 30
0.0
 40
0.125
100
AcDbArc
 50
134.9999999999996
 51
180.0
  0
CIRCLE
  5
94
330
2
100
AcDbEntity
  8
0
100
AcDbCircle
 10
-4.264664181135835
 20
5.289173724782662
 30
0.0
 40
0.0855
  0
CIRCLE
  5
95
330
2
100
AcDbEntity
  8
0
100
AcDbCircle
 10
-3.733414181135835
 20
5.664173724782662
 30
0.0
 40
0.0855
  0
LINE
  5
96
330
2
100
AcDbEntity
  8
0
100
AcDbLine
 10
-4.478057451937438
 20
6.884758953173067
 30
0.0
 11
-4.2387807566408
 21
6.645482257876429
 31
0.0
  0
ARC
  5
97
330
2
100
AcDbEntity
  8
0
100
AcDbCircle
 10
-4.327169104289119
 20
6.55709391022811
 30
0.0
 40
0.125
100
AcDbArc
 50
0.0
 51
45.00000000000014
  0
ARC
  5
98
330
2
100
AcDbEntity
  8
0
100
AcDbCircle
 10
-4.327169104289119
 20
6.035647300821379
 30
0.0
 40
0.125
100
AcDbArc
 50
315.0
 51
0.0
  0
LINE
  5
99
330
2
100
AcDbEntity
  8
0
100
AcDbLine
 10
-4.202169104289119
 20
6.035647402433751
 30
0.0
 11
-4.202169104289112
 21
6.539173724782659
 31
0.0
  0
LINE
  5
9A
330
2
100
AcDbEntity
  8
0
100
AcDbLine
 10
-4.202169104289119
 20
6.539173724782659
 30
0.0
 11
-4.202169104289119
 21
6.035647300821379
 31
0.0
  0
CIRCLE
  5
9B
330
2
100
AcDbEntity
  8
0
100
AcDbCircle
 10
-3.952164181135835
 20
6.289173724782669
 30
0.0
 40
0.0855
  0
ARC
  5
9C
330
2
100
AcDbEntity
  8
0
100
AcDbCircle
 10
-4.389669104289119
 20
6.973147300821387
 30
0.0
 40
0.125
100
AcDbArc
 50
180.0
 51
225.0000000000003
  0
CIRCLE
  5
9D
330
2
100
AcDbEntity
  8
0
100
AcDbCircle
 10
-4.264664181135835
 20
7.289173724782662
 30
0.0
 40
0.0855
  0
CIRCLE
  5
9E
330
2
100
AcDbEntity
  8
0
100
AcDbCircle
 10
-3.514664181135835
 20
7.039173724782662
 30
0.0
 40
0.0855
  0
CIRCLE
  5
9F
330
2
100
AcDbEntity
  8
0
100
AcDbCircle
 10
-2.514664181135828
 20
2.789173724782669
 30
0.0
 40
0.0855
  0
ELLIPSE
  5
A0
330
2
100
AcDbEntity
  8
0
100
AcDbEllipse
 10
-1.882464181135838
 20
2.156250000000016
 30
0.0
 11
0.0
 21
-0.1875000000000142
 31
0.0
210
0.0
220
0.0
230
-1.0
 40
0.9999999999999242
 41
0.0
 42
3.141592653589793
  0
ELLIPSE
  5
A1
330
2
100
AcDbEntity
  8
0
100
AcDbEllipse
 10
-1.882464181135838
 20
2.156250000000002
 30
0.0
 11
0.0
 21
-0.1383375000000022
 31
0.0
210
0.0
220
0.0
230
-1.0
 40
0.9035872413481376
 41
0.0
 42
3.141592653589793
  0
CIRCLE
  5
A2
330
2
100
AcDbEntity
  8
0
100
AcDbCircle
 10
-2.639664181135821
 20
1.601673724782662
 30
0.0
 40
0.0855
  0
CIRCLE
  5
A3
330
2
100
AcDbEntity
  8
0
100
AcDbCircle
 10
-3.202164181135835
 20
2.289173724782662
 30
0.0
 40
0.0855
  0
LINE
  5
A4
330
2
100
AcDbEntity
  8
0
100
AcDbLine
 10
-1.882464181135838
 20
2.312500000000002
 30
0.0
 11
-1.882464181135838
 21
2.000000000000002
 31
0.0
  0
LINE
  5
A5
330
2
100
AcDbEntity
  8
0
100
AcDbLine
 10
-1.882464181135838
 20
2.000000000000002
 30
0.0
 11
-1.882464181135838
 21
1.968750000000002
 31
0.0
  0
LINE
  5
A6
330
2
100
AcDbEntity
  8
0
100
AcDbLine
 10
-1.882464181135838
 20
1.31250000000003
 30
0.0
 11
-1.882464181135838
 21
1.34375000000003
 31
0.0
  0
LINE
  5
A7
330
2
100
AcDbEntity
  8
0
100
AcDbLine
 10
-1.882464181135838
 20
2.31250000000003
 30
0.0
 11
-1.882464181135838
 21
2.34375000000003
 31
0.0
  0
ELLIPSE
  5
A8
330
2
100
AcDbEntity
  8
0
100
AcDbEllipse
 10
-1.882464181135838
 20
4.156250000000016
 30
0.0
 11
0.0
 21
-0.1875000000000142
 31
0.0
210
0.0
220
0.0
230
-1.0
 40
0.9999999999999242
 41
0.0
 42
3.141592653589793
  0
ELLIPSE
  5
A9
330
2
100
AcDbEntity
  8
0
100
AcDbEllipse
 10
-1.882464181135838
 20
4.156250000000002
 30
0.0
 11
0.0
 21
-0.1383375000000022
 31
0.0
210
0.0
220
0.0
230
-1.0
 40
0.9035872413481376
 41
0.0
 42
3.141592653589793
  0
ELLIPSE
  5
AA
330
2
100
AcDbEntity
  8
0
100
AcDbEllipse
 10
-1.882464181135838
 20
3.156250000000002
 30
0.0
 11
0.0
 21
-0.1383375000000022
 31
0.0
210
0.0
220
0.0
230
-1.0
 40
0.9035872413481376
 41
0.0
 42
3.141592653589793
  0
ELLIPSE
  5
AB
330
2
100
AcDbEntity
  8
0
100
AcDbEllipse
 10
-1.882464181135838
 20
3.156250000000016
 30
0.0
 11
0.0
 21
-0.1875000000000142
 31
0.0
210
0.0
220
0.0
230
-1.0
 40
0.9999999999999242
 41
0.0
 42
3.141592653589793
  0
CIRCLE
  5
AC
330
2
100
AcDbEntity
  8
0
100
AcDbCircle
 10
-2.639664181135821
 20
3.289173724782662
 30
0.0
 40
0.0855
  0
CIRCLE
  5
AD
330
2
100
AcDbEntity
  8
0
100
AcDbCircle
 10
-3.031169104289358
 20
3.468699999999961
 30
0.0
 40
0.0855
  0
CIRCLE
  5
AE
330
2
100
AcDbEntity
  8
0
100
AcDbCircle
 10
-3.202164181135835
 20
4.039173724782662
 30
0.0
 40
0.0855
  0
CIRCLE
  5
AF
330
2
100
AcDbEntity
  8
0
100
AcDbCircle
 10
-2.514664181135835
 20
4.281250000000005
 30
0.0
 40
0.0855
  0
LINE
  5
B0
330
2
100
AcDbEntity
  8
0
100
AcDbLine
 10
-1.882464181135838
 20
3.312500000000002
 30
0.0
 11
-1.882464181135838
 21
3.000000000000002
 31
0.0
  0
LINE
  5
B1
330
2
100
AcDbEntity
  8
0
100
AcDbLine
 10
-1.882464181135838
 20
3.000000000000002
 30
0.0
 11
-1.882464181135838
 21
2.968750000000002
 31
0.0
  0
LINE
  5
B2
330
2
100
AcDbEntity
  8
0
100
AcDbLine
 10
-1.882464181135838
 20
3.31250000000003
 30
0.0
 11
-1.882464181135838
 21
3.34375000000003
 31
0.0
  0
LINE
  5
B3
330
2
100
AcDbEntity
  8
0
100
AcDbLine
 10
-1.882464181135838
 20
4.312500000000002
 30
0.0
 11
-1.882464181135838
 21
4.000000000000002
 31
0.0
  0
LINE
  5
B4
330
2
100
AcDbEntity
  8
0
100
AcDbLine
 10
-1.882464181135838
 20
4.000000000000002
 30
0.0
 11
-1.882464181135838
 21
3.968750000000002
 31
0.0
  0
LINE
  5
B5
330
2
100
AcDbEntity
  8
0
100
AcDbLine
 10
-1.882464181135838
 20
4.31250000000003
 30
0.0
 11
-1.882464181135838
 21
4.34375000000003
 31
0.0
  0
ELLIPSE
  5
B6
330
2
100
AcDbEntity
  8
0
100
AcDbEllipse
 10
1.882464181135838
 20
2.781249999999995
 30
0.0
 11
0.0
 21
-0.1383375000000022
 31
0.0
210
0.0
220
0.0
230
1.0
 40
0.9035872413481376
 41
0.0
 42
3.141592653589793
  0
ELLIPSE
  5
B7
330
2
100
AcDbEntity
  8
0
100
AcDbEllipse
 10
1.882464181135838
 20
2.781250000000009
 30
0.0
 11
0.0
 21
-0.1875000000000142
 31
0.0
210
0.0
220
0.0
230
1.0
 40
0.9999999999999242
 41
0.0
 42
3.141592653589793
  0
LINE
  5
B8
330
2
100
AcDbEntity
  8
0
100
AcDbLine
 10
1.882464181135838
 20
2.937499999999995
 30
0.0
 11
1.882464181135838
 21
2.624999999999995
 31
0.0
  0
ELLIPSE
  5
B9
330
2
100
AcDbEntity
  8
0
100
AcDbEllipse
 10
1.882464181135838
 20
1.781250000000009
 30
0.0
 11
0.0
 21
-0.1875000000000142
 31
0.0
210
0.0
220
0.0
230
1.0
 40
0.9999999999999242
 41
0.0
 42
3.141592653589793
  0
ELLIPSE
  5
BA
330
2
100
AcDbEntity
  8
0
100
AcDbEllipse
 10
1.882464181135838
 20
1.781249999999995
 30
0.0
 11
0.0
 21
-0.1383375000000022
 31
0.0
210
0.0
220
0.0
230
1.0
 40
0.9035872413481376
 41
0.0
 42
3.141592653589793
  0
LINE
  5
BB
330
2
100
AcDbEntity
  8
0
100
AcDbLine
 10
1.882464181135838
 20
1.937499999999995
 30
0.0
 11
1.882464181135838
 21
1.624999999999995
 31
0.0
  0
LINE
  5
BC
330
2
100
AcDbEntity
  8
0
100
AcDbLine
 10
1.882464181135838
 20
1.624999999999995
 30
0.0
 11
1.882464181135838
 21
1.593749999999995
 31
0.0
  0
LINE
  5
BD
330
2
100
AcDbEntity
  8
0
100
AcDbLine
 10
1.882464181135838
 20
1.937500000000023
 30
0.0
 11
1.882464181135838
 21
1.968750000000023
 31
0.0
  0
LINE
  5
BE
330
2
100
AcDbEntity
  8
0
100
AcDbLine
 10
1.882464181135838
 20
2.624999999999995
 30
0.0
 11
1.882464181135838
 21
2.593749999999995
 31
0.0
  0
LINE
  5
BF
330
2
100
AcDbEntity
  8
0
100
AcDbLine
 10
1.882464181135838
 20
2.937500000000023
 30
0.0
 11
1.882464181135838
 21
2.968750000000023
 31
0.0
  0
LINE
  5
C0
330
2
100
AcDbEntity
  8
0
100
AcDbLine
 10
1.882464181135838
 20
3.937500000000023
 30
0.0
 11
1.882464181135838
 21
3.968750000000023
 31
0.0
  0
LINE
  5
C1
330
2
100
AcDbEntity
  8
0
100
AcDbLine
 10
1.882464181135838
 20
3.624999999999995
 30
0.0
 11
1.882464181135838
 21
3.593749999999995
 31
0.0
  0
ELLIPSE
  5
C2
330
2
100
AcDbEntity
  8
0
100
AcDbEllipse
 10
1.882464181135838
 20
3.781250000000009
 30
0.0
 11
0.0
 21
-0.1875000000000142
 31
0.0
210
0.0
220
0.0
230
1.0
 40
0.9999999999999242
 41
0.0
 42
3.141592653589793
  0
ELLIPSE
  5
C3
330
2
100
AcDbEntity
  8
0
100
AcDbEllipse
 10
1.882464181135838
 20
3.781249999999995
 30
0.0
 11
0.0
 21
-0.1383375000000022
 31
0.0
210
0.0
220
0.0
230
1.0
 40
0.9035872413481376
 41
0.0
 42
3.141592653589793
  0
LINE
  5
C4
330
2
100
AcDbEntity
  8
0
100
AcDbLine
 10
1.882464181135838
 20
3.937499999999995
 30
0.0
 11
1.882464181135838
 21
3.624999999999995
 31
0.0
  0
ELLIPSE
  5
C5
330
2
100
AcDbEntity
  8
0
100
AcDbEllipse
 10
-1.882464181135838
 20
5.156250000000016
 30
0.0
 11
0.0
 21
-0.1875000000000142
 31
0.0
210
0.0
220
0.0
230
-1.0
 40
0.9999999999999242
 41
0.0
 42
3.141592653589793
  0
ELLIPSE
  5
C6
330
2
100
AcDbEntity
  8
0
100
AcDbEllipse
 10
-1.882464181135838
 20
5.156250000000002
 30
0.0
 11
0.0
 21
-0.1383375000000022
 31
0.0
210
0.0
220
0.0
230
-1.0
 40
0.9035872413481376
 41
0.0
 42
3.141592653589793
  0
CIRCLE
  5
C7
330
2
100
AcDbEntity
  8
0
100
AcDbCircle
 10
-2.514664181135835
 20
4.781250000000009
 30
0.0
 40
0.0855
  0
CIRCLE
  5
C8
330
2
100
AcDbEntity
  8
0
100
AcDbCircle
 10
-2.639664181135821
 20
5.414173724782662
 30
0.0
 40
0.0855
  0
LINE
  5
C9
330
2
100
AcDbEntity
  8
0
100
AcDbLine
 10
-1.882464181135838
 20
5.312500000000002
 30
0.0
 11
-1.882464181135838
 21
5.000000000000002
 31
0.0
  0
LINE
  5
CA
330
2
100
AcDbEntity
  8
0
100
AcDbLine
 10
-1.882464181135838
 20
5.000000000000002
 30
0.0
 11
-1.882464181135838
 21
4.968750000000002
 31
0.0
  0
LINE
  5
CB
330
2
100
AcDbEntity
  8
0
100
AcDbLine
 10
-1.882464181135838
 20
5.31250000000003
 30
0.0
 11
-1.882464181135838
 21
5.34375000000003
 31
0.0
  0
ELLIPSE
  5
CC
330
2
100
AcDbEntity
  8
0
100
AcDbEllipse
 10
-1.882464181135838
 20
7.156250000000002
 30
0.0
 11
0.0
 21
-0.1383375000000022
 31
0.0
210
0.0
220
0.0
230
-1.0
 40
0.9035872413481376
 41
0.0
 42
3.141592653589793
  0
ELLIPSE
  5
CD
330
2
100
AcDbEntity
  8
0
100
AcDbEllipse
 10
-1.882464181135838
 20
7.156250000000016
 30
0.0
 11
0.0
 21
-0.1875000000000142
 31
0.0
210
0.0
220
0.0
230
-1.0
 40
0.9999999999999242
 41
0.0
 42
3.141592653589793
  0
ELLIPSE
  5
CE
330
2
100
AcDbEntity
  8
0
100
AcDbEllipse
 10
-1.882464181135838
 20
6.156250000000002
 30
0.0
 11
0.0
 21
-0.1383375000000022
 31
0.0
210
0.0
220
0.0
230
-1.0
 40
0.9035872413481376
 41
0.0
 42
3.141592653589793
  0
ELLIPSE
  5
CF
330
2
100
AcDbEntity
  8
0
100
AcDbEllipse
 10
-1.882464181135838
 20
6.156250000000016
 30
0.0
 11
0.0
 21
-0.1875000000000142
 31
0.0
210
0.0
220
0.0
230
-1.0
 40
0.9999999999999242
 41
0.0
 42
3.141592653589793
  0
CIRCLE
  5
D0
330
2
100
AcDbEntity
  8
0
100
AcDbCircle
 10
-3.202164181135835
 20
6.039173724782669
 30
0.0
 40
0.0855
  0
CIRCLE
  5
D1
330
2
100
AcDbEntity
  8
0
100
AcDbCircle
 10
-2.514664181135835
 20
6.281250000000009
 30
0.0
 40
0.0855
  0
LINE
  5
D2
330
2
100
AcDbEntity
  8
0
100
AcDbLine
 10
-1.882464181135838
 20
6.31250000000003
 30
0.0
 11
-1.882464181135838
 21
6.34375000000003
 31
0.0
  0
LINE
  5
D3
330
2
100
AcDbEntity
  8
0
100
AcDbLine
 10
-1.882464181135838
 20
6.000000000000002
 30
0.0
 11
-1.882464181135838
 21
5.968750000000002
 31
0.0
  0
LINE
  5
D4
330
2
100
AcDbEntity
  8
0
100
AcDbLine
 10
-1.882464181135838
 20
6.312500000000002
 30
0.0
 11
-1.882464181135838
 21
6.000000000000002
 31
0.0
  0
LINE
  5
D5
330
2
100
AcDbEntity
  8
0
100
AcDbLine
 10
-1.882464181135838
 20
7.312500000000002
 30
0.0
 11
-1.882464181135838
 21
7.000000000000002
 31
0.0
  0
LINE
  5
D6
330
2
100
AcDbEntity
  8
0
100
AcDbLine
 10
-1.882464181135838
 20
7.000000000000002
 30
0.0
 11
-1.882464181135838
 21
6.968750000000002
 31
0.0
  0
LINE
  5
D7
330
2
100
AcDbEntity
  8
0
100
AcDbLine
 10
-1.882464181135838
 20
7.31250000000003
 30
0.0
 11
-1.882464181135838
 21
7.34375000000003
 31
0.0
  0
ELLIPSE
  5
D8
330
2
100
AcDbEntity
  8
0
100
AcDbEllipse
 10
1.882464181135838
 20
5.781250000000009
 30
0.0
 11
0.0
 21
-0.1875000000000142
 31
0.0
210
0.0
220
0.0
230
1.0
 40
0.9999999999999242
 41
0.0
 42
3.141592653589793
  0
LINE
  5
D9
330
2
100
AcDbEntity
  8
0
100
AcDbLine
 10
1.882464181135838
 20
5.937499999999995
 30
0.0
 11
1.882464181135838
 21
5.624999999999995
 31
0.0
  0
ELLIPSE
  5
DA
330
2
100
AcDbEntity
  8
0
100
AcDbEllipse
 10
1.882464181135838
 20
4.781250000000009
 30
0.0
 11
0.0
 21
-0.1875000000000142
 31
0.0
210
0.0
220
0.0
230
1.0
 40
0.9999999999999242
 41
0.0
 42
3.141592653589793
  0
ELLIPSE
  5
DB
330
2
100
AcDbEntity
  8
0
100
AcDbEllipse
 10
1.882464181135838
 20
4.781249999999995
 30
0.0
 11
0.0
 21
-0.1383375000000022
 31
0.0
210
0.0
220
0.0
230
1.0
 40
0.9035872413481376
 41
0.0
 42
3.141592653589793
  0
LINE
  5
DC
330
2
100
AcDbEntity
  8
0
100
AcDbLine
 10
1.882464181135838
 20
4.937499999999995
 30
0.0
 11
1.882464181135838
 21
4.624999999999995
 31
0.0
  0
LINE
  5
DD
330
2
100
AcDbEntity
  8
0
100
AcDbLine
 10
1.882464181135838
 20
4.624999999999995
 30
0.0
 11
1.882464181135838
 21
4.593749999999995
 31
0.0
  0
LINE
  5
DE
330
2
100
AcDbEntity
  8
0
100
AcDbLine
 10
1.882464181135838
 20
4.937500000000023
 30
0.0
 11
1.882464181135838
 21
4.968750000000023
 31
0.0
  0
ELLIPSE
  5
DF
330
2
100
AcDbEntity
  8
0
100
AcDbEllipse
 10
1.882464181135838
 20
5.781249999999995
 30
0.0
 11
0.0
 21
-0.1383375000000022
 31
0.0
210
0.0
220
0.0
230
1.0
 40
0.9035872413481376
 41
0.0
 42
3.141592653589793
  0
LINE
  5
E0
330
2
100
AcDbEntity
  8
0
100
AcDbLine
 10
1.882464181135838
 20
5.624999999999995
 30
0.0
 11
1.882464181135838
 21
5.593749999999995
 31
0.0
  0
ELLIPSE
  5
E1
330
2
100
AcDbEntity
  8
0
100
AcDbEllipse
 10
1.882464181135838
 20
6.781249999999995
 30
0.0
 11
0.0
 21
-0.1383375000000022
 31
0.0
210
0.0
220
0.0
230
1.0
 40
0.9035872413481376
 41
0.0
 42
3.141592653589793
  0
ELLIPSE
  5
E2
330
2
100
AcDbEntity
  8
0
100
AcDbEllipse
 10
1.882464181135838
 20
6.781250000000009
 30
0.0
 11
0.0
 21
-0.1875000000000142
 31
0.0
210
0.0
220
0.0
230
1.0
 40
0.9999999999999242
 41
0.0
 42
3.141592653589793
  0
LINE
  5
E3
330
2
100
AcDbEntity
  8
0
100
AcDbLine
 10
1.882464181135838
 20
6.937499999999995
 30
0.0
 11
1.882464181135838
 21
6.624999999999995
 31
0.0
  0
LINE
  5
E4
330
2
100
AcDbEntity
  8
0
100
AcDbLine
 10
1.882464181135838
 20
6.624999999999995
 30
0.0
 11
1.882464181135838
 21
6.593749999999995
 31
0.0
  0
LINE
  5
E5
330
2
100
AcDbEntity
  8
0
100
AcDbLine
 10
1.882464181135838
 20
5.937500000000023
 30
0.0
 11
1.882464181135838
 21
5.968750000000023
 31
0.0
  0
LINE
  5
E6
330
2
100
AcDbEntity
  8
0
100
AcDbLine
 10
1.882464181135838
 20
6.937500000000023
 30
0.0
 11
1.882464181135838
 21
6.968750000000023
 31
0.0
  0
LINE
  5
E7
330
2
100
AcDbEntity
  8
0
100
AcDbLine
 10
4.20216910428919
 20
4.002344077712623
 30
0.0
 11
4.20216910428919
 21
4.541873304703417
 31
0.0
  0
CIRCLE
  5
E8
330
2
100
AcDbEntity
  8
0
100
AcDbCircle
 10
2.514664181135828
 20
2.789173724782669
 30
0.0
 40
0.0855
  0
ARC
  5
E9
330
2
100
AcDbEntity
  8
0
100
AcDbCircle
 10
0.9521691042891902
 20
4.002344077712627
 30
0.0
 40
3.25
100
AcDbArc
 50
314.9999999999996
 51
0.000000000000007
  0
CIRCLE
  5
EA
330
2
100
AcDbEntity
  8
0
100
AcDbCircle
 10
2.639669104289375
 20
1.593700000000018
 30
0.0
 40
0.0855
  0
CIRCLE
  5
EB
330
2
100
AcDbEntity
  8
0
100
AcDbCircle
 10
2.639664181135839
 20
1.593750000000002
 30
0.0
 40
0.0855
  0
CIRCLE
  5
EC
330
2
100
AcDbEntity
  8
0
100
AcDbCircle
 10
3.202169104289375
 20
2.281200000000018
 30
0.0
 40
0.0855
  0
CIRCLE
  5
ED
330
2
100
AcDbEntity
  8
0
100
AcDbCircle
 10
3.202164181135849
 20
2.281250000000005
 30
0.0
 40
0.0855
  0
CIRCLE
  5
EE
330
2
100
AcDbEntity
  8
0
100
AcDbCircle
 10
3.733414181135849
 20
3.656250000000002
 30
0.0
 40
0.0855
  0
CIRCLE
  5
EF
330
2
100
AcDbEntity
  8
0
100
AcDbCircle
 10
3.031169104289383
 20
3.468700000000018
 30
0.0
 40
0.0855
  0
CIRCLE
  5
F0
330
2
100
AcDbEntity
  8
0
100
AcDbCircle
 10
2.639664181135839
 20
3.281250000000005
 30
0.0
 40
0.0855
  0
CIRCLE
  5
F1
330
2
100
AcDbEntity
  8
0
100
AcDbCircle
 10
3.514664181135849
 20
3.031250000000005
 30
0.0
 40
0.0855
  0
CIRCLE
  5
F2
330
2
100
AcDbEntity
  8
0
100
AcDbCircle
 10
2.514664181135835
 20
4.281250000000005
 30
0.0
 40
0.0855
  0
CIRCLE
  5
F3
330
2
100
AcDbEntity
  8
0
100
AcDbCircle
 10
3.202169104289375
 20
4.031200000000018
 30
0.0
 40
0.0855
  0
CIRCLE
  5
F4
330
2
100
AcDbEntity
  8
0
100
AcDbCircle
 10
3.202164181135849
 20
4.031250000000005
 30
0.0
 40
0.0855
  0
CIRCLE
  5
F5
330
2
100
AcDbEntity
  8
0
100
AcDbCircle
 10
3.952164181135849
 20
4.281250000000005
 30
0.0
 40
0.0855
  0
LINE
  5
F6
330
2
100
AcDbEntity
  8
0
100
AcDbLine
 10
4.238780756640814
 20
5.939335228390403
 30
0.0
 11
4.478057451937445
 21
5.700058533093765
 31
0.0
  0
ARC
  5
F7
330
2
100
AcDbEntity
  8
0
100
AcDbCircle
 10
4.327169104289133
 20
6.027723576038722
 30
0.0
 40
0.125
100
AcDbArc
 50
180.0
 51
225.0000000000001
  0
CIRCLE
  5
F8
330
2
100
AcDbEntity
  8
0
100
AcDbCircle
 10
3.733414181135849
 20
5.656250000000002
 30
0.0
 40
0.0855
  0
CIRCLE
  5
F9
330
2
100
AcDbEntity
  8
0
100
AcDbCircle
 10
2.514664181135835
 20
4.781250000000009
 30
0.0
 40
0.0855
  0
CIRCLE
  5
FA
330
2
100
AcDbEntity
  8
0
100
AcDbCircle
 10
3.514664181135849
 20
5.031250000000002
 30
0.0
 40
0.0855
  0
CIRCLE
  5
FB
330
2
100
AcDbEntity
  8
0
100
AcDbCircle
 10
2.639664181135839
 20
5.406250000000002
 30
0.0
 40
0.0855
  0
LINE
  5
FC
330
2
100
AcDbEntity
  8
0
100
AcDbLine
 10
4.514669104289133
 20
5.611670185445446
 30
0.0
 11
4.514669104289133
 21
4.965223576038726
 31
0.0
  0
LINE
  5
FD
330
2
100
AcDbEntity
  8
0
100
AcDbLine
 10
4.478057451937445
 20
4.876835228390407
 30
0.0
 11
4.238780756640814
 21
4.637558533093772
 31
0.0
  0
ARC
  5
FE
330
2
100
AcDbEntity
  8
0
100
AcDbCircle
 10
4.32716910428919
 20
4.541873304703421
 30
0.0
 40
0.125
100
AcDbArc
 50
134.9999999999995
 51
180.0
  0
ARC
  5
FF
330
2
100
AcDbEntity
  8
0
100
AcDbCircle
 10
4.327169104289133
 20
4.549170185445453
 30
0.0
 40
0.125
100
AcDbArc
 50
134.9999999999999
 51
180.0
  0
ARC
  5
100
330
2
100
AcDbEntity
  8
0
100
AcDbCircle
 10
4.389669104289133
 20
4.965223576038726
 30
0.0
 40
0.125
100
AcDbArc
 50
314.9999999999997
 51
0.0
  0
CIRCLE
  5
101
330
2
100
AcDbEntity
  8
0
100
AcDbCircle
 10
4.264664181135849
 20
5.281250000000002
 30
0.0
 40
0.0855
  0
ARC
  5
102
330
2
100
AcDbEntity
  8
0
100
AcDbCircle
 10
4.389669104289133
 20
5.611670185445446
 30
0.0
 40
0.125
100
AcDbArc
 50
0.0
 51
45.00000000000033
  0
CIRCLE
  5
103
330
2
100
AcDbEntity
  8
0
100
AcDbCircle
 10
2.514664181135835
 20
6.281250000000009
 30
0.0
 40
0.0855
  0
CIRCLE
  5
104
330
2
100
AcDbEntity
  8
0
100
AcDbCircle
 10
3.202164181135842
 20
6.031250000000009
 30
0.0
 40
0.0855
  0
CIRCLE
  5
105
330
2
100
AcDbEntity
  8
0
100
AcDbCircle
 10
3.514664181135849
 20
7.031250000000002
 30
0.0
 40
0.0855
  0
LINE
  5
106
330
2
100
AcDbEntity
  8
0
100
AcDbLine
 10
4.478057451937445
 20
6.876835228390407
 30
0.0
 11
4.238780756640814
 21
6.637558533093772
 31
0.0
  0
ARC
  5
107
330
2
100
AcDbEntity
  8
0
100
AcDbCircle
 10
4.327169104289133
 20
6.549170185445453
 30
0.0
 40
0.125
100
AcDbArc
 50
134.9999999999999
 51
180.0
  0
CIRCLE
  5
108
330
2
100
AcDbEntity
  8
0
100
AcDbCircle
 10
3.952164181135842
 20
6.281250000000009
 30
0.0
 40
0.0855
  0
LINE
  5
109
330
2
100
AcDbEntity
  8
0
100
AcDbLine
 10
4.202169104289133
 20
6.531249999999998
 30
0.0
 11
4.202169104289133
 21
6.027723576038722
 31
0.0
  0
LINE
  5
10A
330
2
100
AcDbEntity
  8
0
100
AcDbLine
 10
4.202169104289126
 20
6.027723677651094
 30
0.0
 11
4.202169104289126
 21
6.531249999999998
 31
0.0
  0
CIRCLE
  5
10B
330
2
100
AcDbEntity
  8
0
100
AcDbCircle
 10
4.264664181135849
 20
7.281250000000002
 30
0.0
 40
0.0855
  0
ARC
  5
10C
330
2
100
AcDbEntity
  8
0
100
AcDbCircle
 10
4.389669104289133
 20
6.965223576038726
 30
0.0
 40
0.125
100
AcDbArc
 50
314.9999999999997
 51
0.0
  0
LINE
  5
10D
330
2
100
AcDbEntity
  8
0
100
AcDbLine
 10
1.788714181135838
 20
9.125000000000002
 30
0.0
 11
4.51466910428913
 21
9.125000000000002
 31
0.0
  0
LINE
  5
10E
330
2
100
AcDbEntity
  8
0
100
AcDbLine
 10
1.788714181135841
 20
9.124999999999998
 30
0.0
 11
4.514669104289133
 21
9.125000000000002
 31
0.0
  0
LINE
  5
10F
330
2
100
AcDbEntity
  8
0
100
AcDbLine
 10
-4.514669104289119
 20
9.125000000000005
 30
0.0
 11
-1.788714181135838
 21
9.125000000000002
 31
0.0
  0
LINE
  5
110
330
2
100
AcDbEntity
  8
0
100
AcDbLine
 10
-4.514669104289119
 20
9.125000000000005
 30
0.0
 11
-4.514669104289119
 21
8.973147300821387
 31
0.0
  0
LINE
  5
111
330
2
100
AcDbEntity
  8
0
100
AcDbLine
 10
-4.202169104289119
 20
8.539173724782659
 30
0.0
 11
-4.202169104289119
 21
8.035647300821379
 31
0.0
  0
LINE
  5
112
330
2
100
AcDbEntity
  8
0
100
AcDbLine
 10
-4.202169104289119
 20
8.035647402433751
 30
0.0
 11
-4.202169104289112
 21
8.55709391022811
 31
0.0
  0
ARC
  5
113
330
2
100
AcDbEntity
  8
0
100
AcDbCircle
 10
-4.389669104289119
 20
7.619593910228103
 30
0.0
 40
0.125
100
AcDbArc
 50
134.9999999999996
 51
180.0
  0
ARC
  5
114
330
2
100
AcDbEntity
  8
0
100
AcDbCircle
 10
-4.327169104289119
 20
8.035647300821379
 30
0.0
 40
0.125
100
AcDbArc
 50
315.0
 51
0.0
  0
LINE
  5
115
330
2
100
AcDbEntity
  8
0
100
AcDbLine
 10
-4.2387807566408
 20
7.94725895317306
 30
0.0
 11
-4.478057451937438
 21
7.707982257876422
 31
0.0
  0
ARC
  5
116
330
2
100
AcDbEntity
  8
0
100
AcDbCircle
 10
-4.389669104289119
 20
8.973147300821387
 30
0.0
 40
0.125
100
AcDbArc
 50
180.0
 51
225.0000000000003
  0
LINE
  5
117
330
2
100
AcDbEntity
  8
0
100
AcDbLine
 10
-4.478057451937438
 20
8.884758953173067
 30
0.0
 11
-4.2387807566408
 21
8.645482257876429
 31
0.0
  0
ARC
  5
118
330
2
100
AcDbEntity
  8
0
100
AcDbCircle
 10
-4.327169104289119
 20
8.55709391022811
 30
0.0
 40
0.125
100
AcDbArc
 50
0.0
 51
45.00000000000014
  0
CIRCLE
  5
119
330
2
100
AcDbEntity
  8
0
100
AcDbCircle
 10
-3.952164181135835
 20
8.882923724782669
 30
0.0
 40
0.0855
  0
ELLIPSE
  5
11A
330
2
100
AcDbEntity
  8
0
100
AcDbEllipse
 10
-1.882464181135838
 20
8.156250000000016
 30
0.0
 11
0.0
 21
-0.1875000000000142
 31
0.0
210
0.0
220
0.0
230
-1.0
 40
0.9999999999999242
 41
0.0
 42
3.141592653589793
  0
ELLIPSE
  5
11B
330
2
100
AcDbEntity
  8
0
100
AcDbEllipse
 10
-1.882464181135838
 20
8.156250000000002
 30
0.0
 11
0.0
 21
-0.1383375000000022
 31
0.0
210
0.0
220
0.0
230
-1.0
 40
0.9035872413481376
 41
0.0
 42
3.141592653589793
  0
CIRCLE
  5
11C
330
2
100
AcDbEntity
  8
0
100
AcDbCircle
 10
-2.514664181135835
 20
8.281250000000009
 30
0.0
 40
0.0855
  0
LINE
  5
11D
330
2
100
AcDbEntity
  8
0
100
AcDbLine
 10
-1.882464181135838
 20
8.312500000000002
 30
0.0
 11
-1.882464181135838
 21
8.000000000000002
 31
0.0
  0
LINE
  5
11E
330
2
100
AcDbEntity
  8
0
100
AcDbLine
 10
-1.882464181135838
 20
8.000000000000002
 30
0.0
 11
-1.882464181135838
 21
7.968750000000002
 31
0.0
  0
LINE
  5
11F
330
2
100
AcDbEntity
  8
0
100
AcDbLine
 10
-1.882464181135838
 20
8.31250000000003
 30
0.0
 11
-1.882464181135838
 21
8.34375000000003
 31
0.0
  0
ELLIPSE
  5
120
330
2
100
AcDbEntity
  8
0
100
AcDbEllipse
 10
1.882464181135838
 20
7.781249999999995
 30
0.0
 11
0.0
 21
-0.1383375000000022
 31
0.0
210
0.0
220
0.0
230
1.0
 40
0.9035872413481376
 41
0.0
 42
3.141592653589793
  0
LINE
  5
121
330
2
100
AcDbEntity
  8
0
100
AcDbLine
 10
1.882464181135838
 20
7.937499999999995
 30
0.0
 11
1.882464181135838
 21
7.624999999999995
 31
0.0
  0
LINE
  5
122
330
2
100
AcDbEntity
  8
0
100
AcDbLine
 10
1.882464181135838
 20
7.937500000000023
 30
0.0
 11
1.882464181135838
 21
7.968750000000023
 31
0.0
  0
ELLIPSE
  5
123
330
2
100
AcDbEntity
  8
0
100
AcDbEllipse
 10
1.882464181135838
 20
7.781250000000009
 30
0.0
 11
0.0
 21
-0.1875000000000142
 31
0.0
210
0.0
220
0.0
230
1.0
 40
0.9999999999999242
 41
0.0
 42
3.141592653589793
  0
LINE
  5
124
330
2
100
AcDbEntity
  8
0
100
AcDbLine
 10
1.882464181135838
 20
7.624999999999995
 30
0.0
 11
1.882464181135838
 21
7.593749999999995
 31
0.0
  0
LINE
  5
125
330
2
100
AcDbEntity
  8
0
100
AcDbLine
 10
-1.111553827180821
 20
12.42947262824519
 30
0.0
 11
1.079553827181734
 21
12.42947262824518
 31
0.0
  0
LINE
  5
126
330
2
100
AcDbEntity
  8
0
100
AcDbLine
 10
-1.205303827181147
 20
12.52322262824518
 30
0.0
 11
-1.517803827181147
 21
12.52322262824518
 31
0.0
  0
LINE
  5
127
330
2
100
AcDbEntity
  8
0
100
AcDbLine
 10
-1.8844129492742
 20
12.42947262824519
 30
0.0
 11
-1.611553827181403
 21
12.42947262824519
 31
0.0
  0
ARC
  5
128
330
2
100
AcDbEntity
  8
0
100
AcDbCircle
 10
-1.517803827181147
 20
12.42947262824518
 30
0.0
 40
0.09375
100
AcDbArc
 50
90.0
 51
180.0
  0
ARC
  5
129
330
2
100
AcDbEntity
  8
0
100
AcDbCircle
 10
-1.205303827181147
 20
12.42947262824518
 30
0.0
 40
0.09375
100
AcDbArc
 50
0.0
 51
90.0
  0
ARC
  5
12A
330
2
100
AcDbEntity
  8
0
100
AcDbCircle
 10
1.485803827182181
 20
12.42947262824518
 30
0.0
 40
0.09375
100
AcDbArc
 50
0.0
 51
90.0
  0
LINE
  5
12B
330
2
100
AcDbEntity
  8
0
100
AcDbLine
 10
1.485803827182181
 20
12.52322262824518
 30
0.0
 11
1.173303827182181
 21
12.52322262824518
 31
0.0
  0
ARC
  5
12C
330
2
100
AcDbEntity
  8
0
100
AcDbCircle
 10
1.173303827182181
 20
12.42947262824518
 30
0.0
 40
0.09375
100
AcDbArc
 50
90.0
 51
180.0
  0
LINE
  5
12D
330
2
100
AcDbEntity
  8
0
100
AcDbLine
 10
1.579553827182174
 20
12.42947262824518
 30
0.0
 11
1.865586674056878
 21
12.42947262824517
 31
0.0
  0
LINE
  5
12E
330
2
100
AcDbEntity
  8
0
100
AcDbLine
 10
4.514669104289133
 20
9.125000000000002
 30
0.0
 11
4.514669104289133
 21
8.965223576038726
 31
0.0
  0
CIRCLE
  5
12F
330
2
100
AcDbEntity
  8
0
100
AcDbCircle
 10
2.514664181135835
 20
8.281250000000009
 30
0.0
 40
0.0855
  0
LINE
  5
130
330
2
100
AcDbEntity
  8
0
100
AcDbLine
 10
4.202169104289126
 20
8.027723677651094
 30
0.0
 11
4.202169104289126
 21
8.531249999999998
 31
0.0
  0
LINE
  5
131
330
2
100
AcDbEntity
  8
0
100
AcDbLine
 10
4.202169104289133
 20
8.549170185445453
 30
0.0
 11
4.202169104289133
 21
8.027723576038722
 31
0.0
  0
LINE
  5
132
330
2
100
AcDbEntity
  8
0
100
AcDbLine
 10
4.238780756640814
 20
7.939335228390403
 30
0.0
 11
4.478057451937445
 21
7.700058533093765
 31
0.0
  0
ARC
  5
133
330
2
100
AcDbEntity
  8
0
100
AcDbCircle
 10
4.327169104289133
 20
8.027723576038722
 30
0.0
 40
0.125
100
AcDbArc
 50
180.0
 51
225.0000000000001
  0
ARC
  5
134
330
2
100
AcDbEntity
  8
0
100
AcDbCircle
 10
4.389669104289133
 20
7.611670185445446
 30
0.0
 40
0.125
100
AcDbArc
 50
0.0
 51
45.00000000000033
  0
LINE
  5
135
330
2
100
AcDbEntity
  8
0
100
AcDbLine
 10
4.478057451937445
 20
8.876835228390407
 30
0.0
 11
4.238780756640814
 21
8.637558533093772
 31
0.0
  0
ARC
  5
136
330
2
100
AcDbEntity
  8
0
100
AcDbCircle
 10
4.327169104289133
 20
8.549170185445453
 30
0.0
 40
0.125
100
AcDbArc
 50
134.9999999999999
 51
180.0
  0
CIRCLE
  5
137
330
2
100
AcDbEntity
  8
0
100
AcDbCircle
 10
3.952164181135842
 20
8.875000000000009
 30
0.0
 40
0.0855
  0
ARC
  5
138
330
2
100
AcDbEntity
  8
0
100
AcDbCircle
 10
4.389669104289133
 20
8.965223576038726
 30
0.0
 40
0.125
100
AcDbArc
 50
314.9999999999997
 51
0.0
  0
LINE
  5
139
330
2
100
AcDbEntity
  8
0
100
AcDbLine
 10
13.72599392087637
 20
0.4270269749706266
 30
0.0
 11
13.72599392087637
 21
9.218749999999977
 31
0.0
  0
LINE
  5
13A
330
2
100
AcDbEntity
  8
0
100
AcDbLine
 10
12.26444884402966
 20
7.705420185445446
 30
0.0
 11
12.26444884402966
 21
7.058973576038722
 31
0.0
  0
LINE
  5
13B
330
2
100
AcDbEntity
  8
0
100
AcDbLine
 10
13.63224392087638
 20
9.218749999999977
 30
0.0
 11
13.63224392087638
 21
6.324999999999994
 31
0.0
  0
LINE
  5
13C
330
2
100
AcDbEntity
  8
0
100
AcDbLine
 10
13.45441409465329
 20
0.0000000000000036
 30
0.0
 11
9.454414094653288
 21
-0.0000000000000036
 31
0.0
  0
LINE
  5
13D
330
2
100
AcDbEntity
  8
0
100
AcDbLine
 10
11.00004588288599
 20
1.797997038856336
 30
0.0
 11
9.671618758139815
 21
0.4695699141101777
 31
0.0
  0
ARC
  5
13E
330
2
100
AcDbEntity
  8
0
100
AcDbCircle
 10
10.20194884402971
 20
-0.0607601717796946
 30
0.0
 40
0.7499999999999784
100
AcDbArc
 50
134.999999999999
 51
175.3531723006432
  0
LINE
  5
13F
330
2
100
AcDbEntity
  8
0
100
AcDbLine
 10
11.95194884402966
 20
4.096094077712662
 30
0.0
 11
11.95194884402966
 21
4.642920185445446
 31
0.0
  0
ARC
  5
140
330
2
100
AcDbEntity
  8
0
100
AcDbCircle
 10
8.701948844029701
 20
4.096094077712662
 30
0.0
 40
3.25
100
AcDbArc
 50
314.9999999999996
 51
0.000000000000007
  0
LINE
  5
141
330
2
100
AcDbEntity
  8
0
100
AcDbLine
 10
11.98856049638134
 20
6.033085228390403
 30
0.0
 11
12.22783719167798
 21
5.793808533093765
 31
0.0
  0
LINE
  5
142
330
2
100
AcDbEntity
  8
0
100
AcDbLine
 10
12.26444884402966
 20
5.705420185445446
 30
0.0
 11
12.26444884402966
 21
5.058973576038722
 31
0.0
  0
ARC
  5
143
330
2
100
AcDbEntity
  8
0
100
AcDbCircle
 10
12.13944884402966
 20
5.058973576038722
 30
0.0
 40
0.125
100
AcDbArc
 50
314.9999999999997
 51
0.0
  0
ARC
  5
144
330
2
100
AcDbEntity
  8
0
100
AcDbCircle
 10
12.07694884402966
 20
4.642920185445446
 30
0.0
 40
0.125
100
AcDbArc
 50
134.9999999999999
 51
180.0
  0
LINE
  5
145
330
2
100
AcDbEntity
  8
0
100
AcDbLine
 10
12.22783719167798
 20
4.970585228390403
 30
0.0
 11
11.98856049638134
 21
4.731308533093765
 31
0.0
  0
ARC
  5
146
330
2
100
AcDbEntity
  8
0
100
AcDbCircle
 10
12.13944884402966
 20
5.705420185445446
 30
0.0
 40
0.125
100
AcDbArc
 50
0.0
 51
45.00000000000014
  0
ARC
  5
147
330
2
100
AcDbEntity
  8
0
100
AcDbCircle
 10
12.07694884402966
 20
6.642920185445446
 30
0.0
 40
0.125
100
AcDbArc
 50
134.9999999999999
 51
180.0
  0
ARC
  5
148
330
2
100
AcDbEntity
  8
0
100
AcDbCircle
 10
12.07694884402966
 20
6.121473576038722
 30
0.0
 40
0.125
100
AcDbArc
 50
180.0
 51
225.0000000000001
  0
LINE
  5
149
330
2
100
AcDbEntity
  8
0
100
AcDbLine
 10
11.95194884402966
 20
6.121473576038722
 30
0.0
 11
11.95194884402966
 21
6.624999999999998
 31
0.0
  0
LINE
  5
14A
330
2
100
AcDbEntity
  8
0
100
AcDbLine
 10
11.95194884402966
 20
6.624999999999998
 30
0.0
 11
11.95194884402966
 21
6.121473319994449
 31
0.0
  0
ARC
  5
14B
330
2
100
AcDbEntity
  8
0
100
AcDbCircle
 10
12.13944884402966
 20
7.058973576038722
 30
0.0
 40
0.125
100
AcDbArc
 50
314.9999999999997
 51
0.0
  0
LINE
  5
14C
330
2
100
AcDbEntity
  8
0
100
AcDbLine
 10
12.22783719167798
 20
6.970585228390403
 30
0.0
 11
11.98856049638134
 21
6.731308533093765
 31
0.0
  0
LINE
  5
14D
330
2
100
AcDbEntity
  8
0
100
AcDbLine
 10
13.63224392087637
 20
0.4270269749706266
 30
0.0
 11
13.63224392087638
 21
6.624999999999998
 31
0.0
  0
LINE
  5
14E
330
2
100
AcDbEntity
  8
0
100
AcDbLine
 10
13.63224392087637
 20
0.4270269749706266
 30
0.0
 11
13.72599392087637
 21
0.4270269749706266
 31
0.0
  0
ARC
  5
14F
330
2
100
AcDbEntity
  8
0
100
AcDbCircle
 10
13.9102818046625
 20
0.0099510018476856
 30
0.0
 40
0.455976305817323
100
AcDbArc
 50
113.8385678165196
 51
181.2504940879209
  0
LINE
  5
150
330
2
100
AcDbEntity
  8
0
100
AcDbLine
 10
12.69474392087638
 20
0.736662499999996
 30
0.0
 11
12.69474392087638
 21
1.0133375
 31
0.0
  0
LWPOLYLINE
  5
151
330
2
100
AcDbEntity
  8
0
100
AcDbPolyline
 90
        9
 70
     0
 43
0.0
 10
12.69474392087638
 20
0.7659874999999961
 42
0.1432467981947568
 10
12.71996857173183
 20
0.7733655968712458
 42
0.1071754848060475
 10
12.74465473770242
 20
0.7979165220158979
 42
0.0783035184710328
 10
12.75960140532478
 20
0.8315377763666962
 42
0.0656020556757086
 10
12.76532847494089
 20
0.8750000000000018
 42
0.0656020556757101
 10
12.75960140532478
 20
0.9184622236333002
 42
0.0783035184710357
 10
12.74465473770242
 20
0.9520834779840985
 42
0.1071754848060445
 10
12.71996857173183
 20
0.9766344031287506
 42
0.1432467981947535
 10
12.69474392087638
 20
0.9840125000000004
 42
0.1432467981947515
  0
LWPOLYLINE
  5
152
330
2
100
AcDbEntity
  8
0
100
AcDbPolyline
 90
        9
 70
     0
 43
0.0
 10
12.69474392087638
 20
0.7953124999999961
 42
0.147269582437036
 10
12.71244034403892
 20
0.8006403416877905
 42
0.1071386913803464
 10
12.72999223770242
 20
0.8186524283741949
 42
0.0765137470862007
 10
12.74053415174919
 20
0.8431571664083553
 42
0.063469041210727
 10
12.74459256858259
 20
0.8750000000000018
 42
0.0634690412107267
 10
12.74053415174919
 20
0.9068428335916412
 42
0.0765137470862059
 10
12.72999223770242
 20
0.9313475716258015
 42
0.1071386913803463
 10
12.71244034403892
 20
0.9493596583122059
 42
0.1472695824370325
 10
12.69474392087638
 20
0.9546875000000004
 42
0.1472695824370333
  0
LWPOLYLINE
  5
153
330
2
100
AcDbEntity
  8
0
100
AcDbPolyline
 90
        9
 70
     0
 43
0.0
 10
12.69474392087638
 20
0.736662499999996
 42
0.0700628980345364
 10
12.77386272467642
 20
0.7478037757688671
 42
0.0818514225363451
 10
12.83575904280286
 20
0.7771806156576009
 42
0.1069100077216601
 10
12.88035719386836
 20
0.8249275284126316
 42
0.135394011665182
 10
12.89416941880451
 20
0.8749999999999947
 42
0.1353940116651818
 10
12.88035719386836
 20
0.9250724715873648
 42
0.1069100077216599
 10
12.83575904280286
 20
0.9728193843423885
 42
0.0818514225363446
 10
12.77386272467642
 20
1.002196224231129
 42
0.0700628980345367
 10
12.69474392087638
 20
1.0133375
 42
0.0700628980345371
  0
LINE
  5
154
330
2
100
AcDbEntity
  8
0
100
AcDbLine
 10
12.69474392087638
 20
2.736662499999996
 30
0.0
 11
12.69474392087638
 21
3.0133375
 31
0.0
  0
LWPOLYLINE
  5
155
330
2
100
AcDbEntity
  8
0
100
AcDbPolyline
 90
        9
 70
     0
 43
0.0
 10
12.69474392087638
 20
2.736662499999996
 42
0.0700628980345364
 10
12.77386272467642
 20
2.747803775768867
 42
0.0818514225363451
 10
12.83575904280286
 20
2.777180615657601
 42
0.1069100077216601
 10
12.88035719386836
 20
2.824927528412632
 42
0.135394011665182
 10
12.89416941880451
 20
2.874999999999995
 42
0.1353940116651818
 10
12.88035719386836
 20
2.925072471587365
 42
0.1069100077216599
 10
12.83575904280286
 20
2.972819384342389
 42
0.0818514225363446
 10
12.77386272467642
 20
3.002196224231129
 42
0.0700628980345367
 10
12.69474392087638
 20
3.0133375
 42
0.0700628980345371
  0
LWPOLYLINE
  5
156
330
2
100
AcDbEntity
  8
0
100
AcDbPolyline
 90
        9
 70
     0
 43
0.0
 10
12.69474392087638
 20
2.765987499999996
 42
0.1432467981947568
 10
12.71996857173183
 20
2.773365596871246
 42
0.1071754848060475
 10
12.74465473770242
 20
2.797916522015898
 42
0.0783035184710328
 10
12.75960140532478
 20
2.831537776366696
 42
0.0656020556757086
 10
12.76532847494089
 20
2.875000000000002
 42
0.0656020556757101
 10
12.75960140532478
 20
2.9184622236333
 42
0.0783035184710357
 10
12.74465473770242
 20
2.952083477984099
 42
0.1071754848060445
 10
12.71996857173183
 20
2.976634403128751
 42
0.1432467981947535
 10
12.69474392087638
 20
2.9840125
 42
0.1432467981947515
  0
LWPOLYLINE
  5
157
330
2
100
AcDbEntity
  8
0
100
AcDbPolyline
 90
        9
 70
     0
 43
0.0
 10
12.69474392087638
 20
2.795312499999996
 42
0.147269582437036
 10
12.71244034403892
 20
2.800640341687791
 42
0.1071386913803464
 10
12.72999223770242
 20
2.818652428374195
 42
0.0765137470862007
 10
12.74053415174919
 20
2.843157166408355
 42
0.063469041210727
 10
12.74459256858259
 20
2.875000000000002
 42
0.0634690412107267
 10
12.74053415174919
 20
2.906842833591641
 42
0.0765137470862059
 10
12.72999223770242
 20
2.931347571625802
 42
0.1071386913803463
 10
12.71244034403892
 20
2.949359658312206
 42
0.1472695824370325
 10
12.69474392087638
 20
2.9546875
 42
0.1472695824370333
  0
LWPOLYLINE
  5
158
330
2
100
AcDbEntity
  8
0
100
AcDbPolyline
 90
        9
 70
     0
 43
0.0
 10
12.69474392087638
 20
1.795312499999996
 42
0.147269582437036
 10
12.71244034403892
 20
1.800640341687791
 42
0.1071386913803464
 10
12.72999223770242
 20
1.818652428374195
 42
0.0765137470862007
 10
12.74053415174919
 20
1.843157166408355
 42
0.063469041210727
 10
12.74459256858259
 20
1.875000000000002
 42
0.0634690412107267
 10
12.74053415174919
 20
1.906842833591641
 42
0.0765137470862059
 10
12.72999223770242
 20
1.931347571625802
 42
0.1071386913803463
 10
12.71244034403892
 20
1.949359658312206
 42
0.1472695824370325
 10
12.69474392087638
 20
1.9546875
 42
0.1472695824370333
  0
LWPOLYLINE
  5
159
330
2
100
AcDbEntity
  8
0
100
AcDbPolyline
 90
        9
 70
     0
 43
0.0
 10
12.69474392087638
 20
1.765987499999996
 42
0.1432467981947568
 10
12.71996857173183
 20
1.773365596871246
 42
0.1071754848060475
 10
12.74465473770242
 20
1.797916522015898
 42
0.0783035184710328
 10
12.75960140532478
 20
1.831537776366696
 42
0.0656020556757086
 10
12.76532847494089
 20
1.875000000000002
 42
0.0656020556757101
 10
12.75960140532478
 20
1.9184622236333
 42
0.0783035184710357
 10
12.74465473770242
 20
1.952083477984099
 42
0.1071754848060445
 10
12.71996857173183
 20
1.976634403128751
 42
0.1432467981947535
 10
12.69474392087638
 20
1.9840125
 42
0.1432467981947515
  0
LINE
  5
15A
330
2
100
AcDbEntity
  8
0
100
AcDbLine
 10
12.69474392087638
 20
1.736662499999996
 30
0.0
 11
12.69474392087638
 21
2.0133375
 31
0.0
  0
LWPOLYLINE
  5
15B
330
2
100
AcDbEntity
  8
0
100
AcDbPolyline
 90
        9
 70
     0
 43
0.0
 10
12.69474392087638
 20
1.736662499999996
 42
0.0700628980345364
 10
12.77386272467642
 20
1.747803775768867
 42
0.0818514225363451
 10
12.83575904280286
 20
1.777180615657601
 42
0.1069100077216601
 10
12.88035719386836
 20
1.824927528412632
 42
0.135394011665182
 10
12.89416941880451
 20
1.874999999999995
 42
0.1353940116651818
 10
12.88035719386836
 20
1.925072471587365
 42
0.1069100077216599
 10
12.83575904280286
 20
1.972819384342389
 42
0.0818514225363446
 10
12.77386272467642
 20
2.002196224231129
 42
0.0700628980345367
 10
12.69474392087638
 20
2.0133375
 42
0.0700628980345371
  0
LINE
  5
15C
330
2
100
AcDbEntity
  8
0
100
AcDbLine
 10
12.69474392087638
 20
3.736662499999996
 30
0.0
 11
12.69474392087638
 21
4.0133375
 31
0.0
  0
LWPOLYLINE
  5
15D
330
2
100
AcDbEntity
  8
0
100
AcDbPolyline
 90
        9
 70
     0
 43
0.0
 10
12.69474392087638
 20
3.765987499999996
 42
0.1432467981947568
 10
12.71996857173183
 20
3.773365596871246
 42
0.1071754848060475
 10
12.74465473770242
 20
3.797916522015898
 42
0.0783035184710328
 10
12.75960140532478
 20
3.831537776366696
 42
0.0656020556757086
 10
12.76532847494089
 20
3.875000000000002
 42
0.0656020556757101
 10
12.75960140532478
 20
3.9184622236333
 42
0.0783035184710357
 10
12.74465473770242
 20
3.952083477984099
 42
0.1071754848060445
 10
12.71996857173183
 20
3.976634403128751
 42
0.1432467981947535
 10
12.69474392087638
 20
3.9840125
 42
0.1432467981947515
  0
LWPOLYLINE
  5
15E
330
2
100
AcDbEntity
  8
0
100
AcDbPolyline
 90
        9
 70
     0
 43
0.0
 10
12.69474392087638
 20
3.795312499999996
 42
0.147269582437036
 10
12.71244034403892
 20
3.800640341687791
 42
0.1071386913803464
 10
12.72999223770242
 20
3.818652428374195
 42
0.0765137470862007
 10
12.74053415174919
 20
3.843157166408355
 42
0.063469041210727
 10
12.74459256858259
 20
3.875000000000002
 42
0.0634690412107267
 10
12.74053415174919
 20
3.906842833591641
 42
0.0765137470862059
 10
12.72999223770242
 20
3.931347571625802
 42
0.1071386913803463
 10
12.71244034403892
 20
3.949359658312206
 42
0.1472695824370325
 10
12.69474392087638
 20
3.9546875
 42
0.1472695824370333
  0
LWPOLYLINE
  5
15F
330
2
100
AcDbEntity
  8
0
100
AcDbPolyline
 90
        9
 70
     0
 43
0.0
 10
12.69474392087638
 20
3.736662499999996
 42
0.0700628980345364
 10
12.77386272467642
 20
3.747803775768867
 42
0.0818514225363451
 10
12.83575904280286
 20
3.777180615657601
 42
0.1069100077216601
 10
12.88035719386836
 20
3.824927528412632
 42
0.135394011665182
 10
12.89416941880451
 20
3.874999999999995
 42
0.1353940116651818
 10
12.88035719386836
 20
3.925072471587365
 42
0.1069100077216599
 10
12.83575904280286
 20
3.972819384342389
 42
0.0818514225363446
 10
12.77386272467642
 20
4.002196224231129
 42
0.0700628980345367
 10
12.69474392087638
 20
4.0133375
 42
0.0700628980345371
  0
LWPOLYLINE
  5
160
330
2
100
AcDbEntity
  8
0
100
AcDbPolyline
 90
        9
 70
     0
 43
0.0
 10
12.69474392087638
 20
5.795312499999996
 42
0.147269582437036
 10
12.71244034403892
 20
5.800640341687791
 42
0.1071386913803464
 10
12.72999223770242
 20
5.818652428374195
 42
0.0765137470862007
 10
12.74053415174919
 20
5.843157166408355
 42
0.063469041210727
 10
12.74459256858259
 20
5.875000000000002
 42
0.0634690412107267
 10
12.74053415174919
 20
5.906842833591641
 42
0.0765137470862059
 10
12.72999223770242
 20
5.931347571625802
 42
0.1071386913803463
 10
12.71244034403892
 20
5.949359658312206
 42
0.1472695824370325
 10
12.69474392087638
 20
5.9546875
 42
0.1472695824370333
  0
LWPOLYLINE
  5
161
330
2
100
AcDbEntity
  8
0
100
AcDbPolyline
 90
        9
 70
     0
 43
0.0
 10
12.69474392087638
 20
5.765987499999996
 42
0.1432467981947568
 10
12.71996857173183
 20
5.773365596871246
 42
0.1071754848060475
 10
12.74465473770242
 20
5.797916522015898
 42
0.0783035184710328
 10
12.75960140532478
 20
5.831537776366696
 42
0.0656020556757086
 10
12.76532847494089
 20
5.875000000000002
 42
0.0656020556757101
 10
12.75960140532478
 20
5.9184622236333
 42
0.0783035184710357
 10
12.74465473770242
 20
5.952083477984099
 42
0.1071754848060445
 10
12.71996857173183
 20
5.976634403128751
 42
0.1432467981947535
 10
12.69474392087638
 20
5.9840125
 42
0.1432467981947515
  0
LWPOLYLINE
  5
162
330
2
100
AcDbEntity
  8
0
100
AcDbPolyline
 90
        9
 70
     0
 43
0.0
 10
12.69474392087638
 20
5.736662499999996
 42
0.0700628980345364
 10
12.77386272467642
 20
5.747803775768867
 42
0.0818514225363451
 10
12.83575904280286
 20
5.777180615657601
 42
0.1069100077216601
 10
12.88035719386836
 20
5.824927528412632
 42
0.135394011665182
 10
12.89416941880451
 20
5.874999999999995
 42
0.1353940116651818
 10
12.88035719386836
 20
5.925072471587365
 42
0.1069100077216599
 10
12.83575904280286
 20
5.972819384342389
 42
0.0818514225363446
 10
12.77386272467642
 20
6.002196224231129
 42
0.0700628980345367
 10
12.69474392087638
 20
6.0133375
 42
0.0700628980345371
  0
LINE
  5
163
330
2
100
AcDbEntity
  8
0
100
AcDbLine
 10
12.69474392087638
 20
5.736662499999996
 30
0.0
 11
12.69474392087638
 21
6.0133375
 31
0.0
  0
LWPOLYLINE
  5
164
330
2
100
AcDbEntity
  8
0
100
AcDbPolyline
 90
        9
 70
     0
 43
0.0
 10
12.69474392087638
 20
4.795312499999996
 42
0.147269582437036
 10
12.71244034403892
 20
4.800640341687791
 42
0.1071386913803464
 10
12.72999223770242
 20
4.818652428374195
 42
0.0765137470862007
 10
12.74053415174919
 20
4.843157166408355
 42
0.063469041210727
 10
12.74459256858259
 20
4.875000000000002
 42
0.0634690412107267
 10
12.74053415174919
 20
4.906842833591641
 42
0.0765137470862059
 10
12.72999223770242
 20
4.931347571625802
 42
0.1071386913803463
 10
12.71244034403892
 20
4.949359658312206
 42
0.1472695824370325
 10
12.69474392087638
 20
4.9546875
 42
0.1472695824370333
  0
LWPOLYLINE
  5
165
330
2
100
AcDbEntity
  8
0
100
AcDbPolyline
 90
        9
 70
     0
 43
0.0
 10
12.69474392087638
 20
4.765987499999996
 42
0.1432467981947568
 10
12.71996857173183
 20
4.773365596871246
 42
0.1071754848060475
 10
12.74465473770242
 20
4.797916522015898
 42
0.0783035184710328
 10
12.75960140532478
 20
4.831537776366696
 42
0.0656020556757086
 10
12.76532847494089
 20
4.875000000000002
 42
0.0656020556757101
 10
12.75960140532478
 20
4.9184622236333
 42
0.0783035184710357
 10
12.74465473770242
 20
4.952083477984099
 42
0.1071754848060445
 10
12.71996857173183
 20
4.976634403128751
 42
0.1432467981947535
 10
12.69474392087638
 20
4.9840125
 42
0.1432467981947515
  0
LINE
  5
166
330
2
100
AcDbEntity
  8
0
100
AcDbLine
 10
12.69474392087638
 20
4.736662499999996
 30
0.0
 11
12.69474392087638
 21
5.0133375
 31
0.0
  0
LWPOLYLINE
  5
167
330
2
100
AcDbEntity
  8
0
100
AcDbPolyline
 90
        9
 70
     0
 43
0.0
 10
12.69474392087638
 20
4.736662499999996
 42
0.0700628980345364
 10
12.77386272467642
 20
4.747803775768867
 42
0.0818514225363451
 10
12.83575904280286
 20
4.777180615657601
 42
0.1069100077216601
 10
12.88035719386836
 20
4.824927528412632
 42
0.135394011665182
 10
12.89416941880451
 20
4.874999999999995
 42
0.1353940116651818
 10
12.88035719386836
 20
4.925072471587365
 42
0.1069100077216599
 10
12.83575904280286
 20
4.972819384342389
 42
0.0818514225363446
 10
12.77386272467642
 20
5.002196224231129
 42
0.0700628980345367
 10
12.69474392087638
 20
5.0133375
 42
0.0700628980345371
  0
LINE
  5
168
330
2
100
AcDbEntity
  8
0
100
AcDbLine
 10
12.69474392087638
 20
6.736662499999996
 30
0.0
 11
12.69474392087638
 21
7.0133375
 31
0.0
  0
LWPOLYLINE
  5
169
330
2
100
AcDbEntity
  8
0
100
AcDbPolyline
 90
        9
 70
     0
 43
0.0
 10
12.69474392087638
 20
6.765987499999996
 42
0.1432467981947568
 10
12.71996857173183
 20
6.773365596871246
 42
0.1071754848060475
 10
12.74465473770242
 20
6.797916522015898
 42
0.0783035184710328
 10
12.75960140532478
 20
6.831537776366696
 42
0.0656020556757086
 10
12.76532847494089
 20
6.875000000000002
 42
0.0656020556757101
 10
12.75960140532478
 20
6.9184622236333
 42
0.0783035184710357
 10
12.74465473770242
 20
6.952083477984099
 42
0.1071754848060445
 10
12.71996857173183
 20
6.976634403128751
 42
0.1432467981947535
 10
12.69474392087638
 20
6.9840125
 42
0.1432467981947515
  0
LWPOLYLINE
  5
16A
330
2
100
AcDbEntity
  8
0
100
AcDbPolyline
 90
        9
 70
     0
 43
0.0
 10
12.69474392087638
 20
6.795312499999996
 42
0.147269582437036
 10
12.71244034403892
 20
6.800640341687791
 42
0.1071386913803464
 10
12.72999223770242
 20
6.818652428374195
 42
0.0765137470862007
 10
12.74053415174919
 20
6.843157166408355
 42
0.063469041210727
 10
12.74459256858259
 20
6.875000000000002
 42
0.0634690412107267
 10
12.74053415174919
 20
6.906842833591641
 42
0.0765137470862059
 10
12.72999223770242
 20
6.931347571625802
 42
0.1071386913803463
 10
12.71244034403892
 20
6.949359658312206
 42
0.1472695824370325
 10
12.69474392087638
 20
6.9546875
 42
0.1472695824370333
  0
LWPOLYLINE
  5
16B
330
2
100
AcDbEntity
  8
0
100
AcDbPolyline
 90
        9
 70
     0
 43
0.0
 10
12.69474392087638
 20
6.736662499999996
 42
0.0700628980345364
 10
12.77386272467642
 20
6.747803775768867
 42
0.0818514225363451
 10
12.83575904280286
 20
6.777180615657601
 42
0.1069100077216601
 10
12.88035719386836
 20
6.824927528412632
 42
0.135394011665182
 10
12.89416941880451
 20
6.874999999999995
 42
0.1353940116651818
 10
12.88035719386836
 20
6.925072471587365
 42
0.1069100077216599
 10
12.83575904280286
 20
6.972819384342389
 42
0.0818514225363446
 10
12.77386272467642
 20
7.002196224231129
 42
0.0700628980345367
 10
12.69474392087638
 20
7.0133375
 42
0.0700628980345371
  0
LINE
  5
16C
330
2
100
AcDbEntity
  8
0
100
AcDbLine
 10
12.26444884402966
 20
9.218749999999984
 30
0.0
 11
13.72599392087637
 21
9.218749999999977
 31
0.0
  0
LINE
  5
16D
330
2
100
AcDbEntity
  8
0
100
AcDbLine
 10
12.26444884402966
 20
9.058973576038722
 30
0.0
 11
12.26444884402966
 21
9.218749999999977
 31
0.0
  0
LINE
  5
16E
330
2
100
AcDbEntity
  8
0
100
AcDbLine
 10
11.95194884402966
 20
8.642920185445446
 30
0.0
 11
11.95194884402966
 21
8.121473319994449
 31
0.0
  0
LINE
  5
16F
330
2
100
AcDbEntity
  8
0
100
AcDbLine
 10
11.95194884402966
 20
8.121473576038722
 30
0.0
 11
11.95194884402966
 21
8.624999999999998
 31
0.0
  0
ARC
  5
170
330
2
100
AcDbEntity
  8
0
100
AcDbCircle
 10
12.13944884402966
 20
7.705420185445446
 30
0.0
 40
0.125
100
AcDbArc
 50
0.0
 51
45.00000000000014
  0
ARC
  5
171
330
2
100
AcDbEntity
  8
0
100
AcDbCircle
 10
12.07694884402966
 20
8.121473576038722
 30
0.0
 40
0.125
100
AcDbArc
 50
180.0
 51
225.0000000000001
  0
LINE
  5
172
330
2
100
AcDbEntity
  8
0
100
AcDbLine
 10
11.98856049638134
 20
8.033085228390403
 30
0.0
 11
12.22783719167798
 21
7.793808533093765
 31
0.0
  0
ARC
  5
173
330
2
100
AcDbEntity
  8
0
100
AcDbCircle
 10
12.13944884402966
 20
9.058973576038722
 30
0.0
 40
0.125
100
AcDbArc
 50
314.9999999999997
 51
0.0
  0
ARC
  5
174
330
2
100
AcDbEntity
  8
0
100
AcDbCircle
 10
12.07694884402966
 20
8.642920185445446
 30
0.0
 40
0.125
100
AcDbArc
 50
134.9999999999999
 51
180.0
  0
LINE
  5
175
330
2
100
AcDbEntity
  8
0
100
AcDbLine
 10
12.22783719167798
 20
8.970585228390403
 30
0.0
 11
11.98856049638134
 21
8.731308533093765
 31
0.0
  0
LINE
  5
176
330
2
100
AcDbEntity
  8
0
100
AcDbLine
 10
12.69474392087638
 20
7.736662499999996
 30
0.0
 11
12.69474392087638
 21
8.0133375
 31
0.0
  0
LWPOLYLINE
  5
177
330
2
100
AcDbEntity
  8
0
100
AcDbPolyline
 90
        9
 70
     0
 43
0.0
 10
12.69474392087638
 20
7.765987499999996
 42
0.1432467981947568
 10
12.71996857173183
 20
7.773365596871246
 42
0.1071754848060475
 10
12.74465473770242
 20
7.797916522015898
 42
0.0783035184710328
 10
12.75960140532478
 20
7.831537776366696
 42
0.0656020556757086
 10
12.76532847494089
 20
7.875000000000002
 42
0.0656020556757101
 10
12.75960140532478
 20
7.9184622236333
 42
0.0783035184710357
 10
12.74465473770242
 20
7.952083477984099
 42
0.1071754848060445
 10
12.71996857173183
 20
7.976634403128751
 42
0.1432467981947535
 10
12.69474392087638
 20
7.9840125
 42
0.1432467981947515
  0
LWPOLYLINE
  5
178
330
2
100
AcDbEntity
  8
0
100
AcDbPolyline
 90
        9
 70
     0
 43
0.0
 10
12.69474392087638
 20
7.795312499999996
 42
0.147269582437036
 10
12.71244034403892
 20
7.800640341687791
 42
0.1071386913803464
 10
12.72999223770242
 20
7.818652428374195
 42
0.0765137470862007
 10
12.74053415174919
 20
7.843157166408355
 42
0.063469041210727
 10
12.74459256858259
 20
7.875000000000002
 42
0.0634690412107267
 10
12.74053415174919
 20
7.906842833591641
 42
0.0765137470862059
 10
12.72999223770242
 20
7.931347571625802
 42
0.1071386913803463
 10
12.71244034403892
 20
7.949359658312206
 42
0.1472695824370325
 10
12.69474392087638
 20
7.9546875
 42
0.1472695824370333
  0
LWPOLYLINE
  5
179
330
2
100
AcDbEntity
  8
0
100
AcDbPolyline
 90
        9
 70
     0
 43
0.0
 10
12.69474392087638
 20
7.736662499999996
 42
0.0700628980345364
 10
12.77386272467642
 20
7.747803775768867
 42
0.0818514225363451
 10
12.83575904280286
 20
7.777180615657601
 42
0.1069100077216601
 10
12.88035719386836
 20
7.824927528412632
 42
0.135394011665182
 10
12.89416941880451
 20
7.874999999999995
 42
0.1353940116651818
 10
12.88035719386836
 20
7.925072471587365
 42
0.1069100077216599
 10
12.83575904280286
 20
7.972819384342389
 42
0.0818514225363446
 10
12.77386272467642
 20
8.002196224231129
 42
0.0700628980345367
 10
12.69474392087638
 20
8.0133375
 42
0.0700628980345371
  0
LINE
  5
17A
330
2
100
AcDbEntity
  8
0
100
AcDbLine
 10
1.959336674056878
 20
16.55447262824518
 30
0.0
 11
4.484000000000005
 21
16.55447262824518
 31
0.0
  0
LINE
  5
17B
330
2
100
AcDbEntity
  8
0
100
AcDbLine
 10
1.959336674056878
 20
16.64822262824518
 30
0.0
 11
4.484000000000005
 21
16.64822262824518
 31
0.0
  0
LINE
  5
17C
330
2
100
AcDbEntity
  8
0
100
AcDbLine
 10
-1.9781629492742
 20
16.55447262824519
 30
0.0
 11
-4.515999999999998
 21
16.55447262824519
 31
0.0
  0
LINE
  5
17D
330
2
100
AcDbEntity
  8
0
100
AcDbLine
 10
-1.9781629492742
 20
16.64822262824518
 30
0.0
 11
-4.515999999999998
 21
16.64822262824518
 31
0.0
  0
LINE
  5
17E
330
2
100
AcDbEntity
  8
0
100
AcDbLine
 10
-4.515999999999998
 20
16.64822262824518
 30
0.0
 11
-4.515999999999998
 21
16.55447262824519
 31
0.0
  0
LINE
  5
17F
330
2
100
AcDbEntity
  8
0
100
AcDbLine
 10
-1.111556835929278
 20
16.42947262824519
 30
0.0
 11
1.0795568359299
 21
16.42947262824518
 31
0.0
  0
LINE
  5
180
330
2
100
AcDbEntity
  8
0
100
AcDbLine
 10
-1.879729464768484
 20
15.80891577419256
 30
0.0
 11
-2.026950410708611
 21
15.65246464134957
 31
0.0
  0
LINE
  5
181
330
2
100
AcDbEntity
  8
0
100
AcDbLine
 10
-1.906546201337786
 20
15.87049368028468
 30
0.0
 11
-2.089282963240645
 21
15.68775691838182
 31
0.0
  0
LINE
  5
182
330
2
100
AcDbEntity
  8
0
100
AcDbLine
 10
-2.089282963240645
 20
15.68775691838182
 30
0.0
 11
-1.875359011665918
 21
15.56663459856458
 31
0.0
  0
ARC
  5
183
330
2
100
AcDbEntity
  8
0
100
AcDbCircle
 10
-1.950740375161946
 20
15.91468785410885
 30
0.0
 40
0.0625
100
AcDbArc
 50
314.9999999999999
 51
0.0
  0
LINE
  5
184
330
2
100
AcDbEntity
  8
0
100
AcDbLine
 10
-1.825740375161953
 20
15.9707347219363
 30
0.0
 11
-1.825740375161946
 21
15.99662306958463
 31
0.0
  0
ARC
  5
185
330
2
100
AcDbEntity
  8
0
100
AcDbCircle
 10
-1.950740375161953
 20
15.91468785410883
 30
0.0
 40
0.125
100
AcDbArc
 50
314.9999999999999
 51
0.0
  0
LINE
  5
186
330
2
100
AcDbEntity
  8
0
100
AcDbLine
 10
-1.205303827181147
 20
16.33497154168702
 30
0.0
 11
-1.517803827181147
 21
16.33497154168702
 31
0.0
  0
LINE
  5
187
330
2
100
AcDbEntity
  8
0
100
AcDbLine
 10
-1.611550818434303
 20
16.42947262824519
 30
0.0
 11
-1.7906629492742
 21
16.42947262824519
 31
0.0
  0
ARC
  5
188
330
2
100
AcDbEntity
  8
0
100
AcDbCircle
 10
-1.9781629492742
 20
16.46072262824519
 30
0.0
 40
0.09375
100
AcDbArc
 50
0.0
 51
90.0
  0
ARC
  5
189
330
2
100
AcDbEntity
  8
0
100
AcDbCircle
 10
-1.9781629492742
 20
16.46072262824519
 30
0.0
 40
0.1875
100
AcDbArc
 50
0.0
 51
90.0
  0
ARC
  5
18A
330
2
100
AcDbEntity
  8
0
100
AcDbCircle
 10
-1.517803827181147
 20
16.42872154168702
 30
0.0
 40
0.09375
100
AcDbArc
 50
179.5409647978006
 51
270.0000000000001
  0
ARC
  5
18B
330
2
100
AcDbEntity
  8
0
100
AcDbCircle
 10
-1.205303827181147
 20
16.42872154168702
 30
0.0
 40
0.09375
100
AcDbArc
 50
270.0
 51
0.4590352021994594
  0
ARC
  5
18C
330
2
100
AcDbEntity
  8
0
100
AcDbCircle
 10
1.940968037552917
 20
15.91468785410883
 30
0.0
 40
0.125
100
AcDbArc
 50
180.0
 51
225.0000000000001
  0
LINE
  5
18D
330
2
100
AcDbEntity
  8
0
100
AcDbLine
 10
1.815968037552917
 20
15.9707347219363
 30
0.0
 11
1.815968037552917
 21
15.99662306958463
 31
0.0
  0
LINE
  5
18E
330
2
100
AcDbEntity
  8
0
100
AcDbLine
 10
1.869957127159449
 20
15.80891577419256
 30
0.0
 11
2.017178073099583
 21
15.65246464134957
 31
0.0
  0
LINE
  5
18F
330
2
100
AcDbEntity
  8
0
100
AcDbLine
 10
1.89677386372875
 20
15.87049368028468
 30
0.0
 11
2.07951062563161
 21
15.68775691838182
 31
0.0
  0
ARC
  5
190
330
2
100
AcDbEntity
  8
0
100
AcDbCircle
 10
1.940968037552917
 20
15.91468785410885
 30
0.0
 40
0.0625
100
AcDbArc
 50
180.0
 51
225.0000000000001
  0
LINE
  5
191
330
2
100
AcDbEntity
  8
0
100
AcDbLine
 10
2.07951062563161
 20
15.68775691838182
 30
0.0
 11
1.865586674056882
 21
15.56663459856458
 31
0.0
  0
ARC
  5
192
330
2
100
AcDbEntity
  8
0
100
AcDbCircle
 10
1.485803827182181
 20
16.42872154168702
 30
0.0
 40
0.09375
100
AcDbArc
 50
270.0
 51
0.4590352022018076
  0
LINE
  5
193
330
2
100
AcDbEntity
  8
0
100
AcDbLine
 10
1.485803827182181
 20
16.33497154168702
 30
0.0
 11
1.173303827182181
 21
16.33497154168702
 31
0.0
  0
ARC
  5
194
330
2
100
AcDbEntity
  8
0
100
AcDbCircle
 10
1.173303827182181
 20
16.42872154168702
 30
0.0
 40
0.09375
100
AcDbArc
 50
179.5409647977985
 51
270.0
  0
ARC
  5
195
330
2
100
AcDbEntity
  8
0
100
AcDbCircle
 10
1.959336674056878
 20
16.46072262824518
 30
0.0
 40
0.09375
100
AcDbArc
 50
90.0
 51
180.0
  0
ARC
  5
196
330
2
100
AcDbEntity
  8
0
100
AcDbCircle
 10
1.959336674056878
 20
16.46072262824518
 30
0.0
 40
0.1875
100
AcDbArc
 50
90.0
 51
180.0
  0
LINE
  5
197
330
2
100
AcDbEntity
  8
0
100
AcDbLine
 10
1.579550818434775
 20
16.42947262824517
 30
0.0
 11
1.771836674056878
 21
16.42947262824518
 31
0.0
  0
LINE
  5
198
330
2
100
AcDbEntity
  8
0
100
AcDbLine
 10
4.484000000000005
 20
16.64822262824518
 30
0.0
 11
4.484000000000005
 21
16.55447262824518
 31
0.0
  0
LINE
  5
1A7
330
2
100
AcDbEntity
  8
0
  6
HIDDEN
100
AcDbLine
 10
-9.596594321470974
 20
0.0937500000000018
 30
0.0
 11
-13.59062922882963
 21
0.0937500000000018
 31
0.0
  0
LINE
  5
1A8
330
2
100
AcDbEntity
  8
0
  6
HIDDEN
100
AcDbLine
 10
9.468036991818167
 20
0.0937500000000018
 30
0.0
 11
13.46207189917682
 21
0.0937500000000018
 31
0.0
  0
ENDSEC
  0
SECTION
  2
OBJECTS
  0
DICTIONARY
  5
9
330
0
100
AcDbDictionary
281
     1
  3
ACAD_COLOR
350
19F
  3
ACAD_GROUP
350
23
  3
ACAD_LAYOUT
350
D
  3
ACAD_MATERIAL
350
19E
  3
ACAD_MLINESTYLE
350
24
  3
ACAD_PLOTSETTINGS
350
25
  3
ACAD_PLOTSTYLENAME
350
8
  3
ACAD_TABLESTYLE
350
1A0
  3
ACDBHEADERROUNDTRIPXREC
350
1B2
  3
AcDbVariableDictionary
350
19A
  0
DICTIONARY
  5
19F
102
{ACAD_REACTORS
330
9
102
}
330
9
100
AcDbDictionary
281
     1
  0
DICTIONARY
  5
23
102
{ACAD_REACTORS
330
9
102
}
330
9
100
AcDbDictionary
281
     1
  0
DICTIONARY
  5
D
102
{ACAD_REACTORS
330
9
102
}
330
9
100
AcDbDictionary
281
     1
  3
Layout1
350
13
  3
Model
350
C
  0
DICTIONARY
  5
19E
102
{ACAD_REACTORS
330
9
102
}
330
9
100
AcDbDictionary
281
     1
  0
DICTIONARY
  5
24
102
{ACAD_REACTORS
330
9
102
}
330
9
100
AcDbDictionary
281
     1
  3
STANDARD
350
26
  0
DICTIONARY
  5
25
102
{ACAD_REACTORS
330
9
102
}
330
9
100
AcDbDictionary
281
     1
  0
ACDBDICTIONARYWDFLT
  5
8
102
{ACAD_REACTORS
330
9
102
}
330
9
100
AcDbDictionary
281
     1
  3
Normal
350
7
100
AcDbDictionaryWithDefault
340
7
  0
DICTIONARY
  5
1A0
102
{ACAD_REACTORS
330
9
102
}
330
9
100
AcDbDictionary
281
     1
  3
Standard
350
1A1
  0
DICTIONARY
  5
1B2
102
{ACAD_REACTORS
330
9
102
}
330
9
100
AcDbDictionary
281
     1
  3
COLORDICT
350
1B3
  3
MATERIALDICT
350
1B4
  0
DICTIONARY
  5
19A
102
{ACAD_REACTORS
330
9
102
}
330
9
100
AcDbDictionary
281
     1
  3
CTABLESTYLE
350
1AF
  3
HIDETEXT
350
1B1
  0
LAYOUT
  5
13
102
{ACAD_REACTORS
330
D
102
}
102
{ACAD_XDICTIONARY
360
1B5
102
}
330
D
100
AcDbPlotSettings
  1

  2
HP LaserJet 2100 Series PS
  4

  6

 40
0.0
 41
0.0
 42
0.0
 43
0.0
 44
0.0
 45
0.0
 46
0.0
 47
0.0
 48
0.0
 49
0.0
140
0.0
141
0.0
142
1.0
143
1.0
 70
   688
 72
     0
 73
     0
 74
     5
  7

 75
    16
147
1.0
148
0.0
149
0.0
100
AcDbLayout
  1
Layout1
 70
     0
 71
     1
 10
0.0
 20
0.0
 11
12.0
 21
9.0
 12
0.0
 22
0.0
 32
0.0
 14
1.000000000000000E+20
 24
1.000000000000000E+20
 34
1.000000000000000E+20
 15
-1.000000000000000E+20
 25
-1.000000000000000E+20
 35
-1.000000000000000E+20
146
0.0
 13
0.0
 23
0.0
 33
0.0
 16
1.0
 26
0.0
 36
0.0
 17
0.0
 27
1.0
 37
0.0
 76
     0
330
E
  0
LAYOUT
  5
C
102
{ACAD_REACTORS
330
D
102
}
102
{ACAD_XDICTIONARY
360
1B7
102
}
330
D
100
AcDbPlotSettings
  1

  2
HP LaserJet 2100 Series PS
  4
Letter
  6

 40
5.365749835968018
 41
5.408084392547607
 42
5.4080810546875
 43
5.365753173828125
 44
215.8999938964844
 45
279.3999938964844
 46
0.0
 47
0.0
 48
0.0
 49
0.0
140
0.0
141
0.0
142
1.0
143
4.964148012307827
 70
 11952
 72
     0
 73
     1
 74
     2
  7

 75
     0
147
0.2014444366929948
148
0.0
149
0.0
100
AcDbLayout
  1
Model
 70
     1
 71
     0
 10
0.0
 20
0.0
 11
12.0
 21
9.0
 12
0.0
 22
0.0
 32
0.0
 14
0.0
 24
0.0
 34
0.0
 15
0.0
 25
0.0
 35
0.0
146
0.0
 13
0.0
 23
0.0
 33
0.0
 16
1.0
 26
0.0
 36
0.0
 17
0.0
 27
1.0
 37
0.0
 76
     0
330
2
  0
MLINESTYLE
  5
26
102
{ACAD_REACTORS
330
24
102
}
330
24
100
AcDbMlineStyle
  2
STANDARD
 70
     0
  3

 62
   256
 51
90.0
 52
90.0
 71
     2
 49
0.5
 62
   256
  6
BYLAYER
 49
-0.5
 62
   256
  6
BYLAYER
  0
ACDBPLACEHOLDER
  5
7
102
{ACAD_REACTORS
330
8
102
}
330
8
  0
ACAD_PROXY_OBJECT
  5
1A1
102
{ACAD_REACTORS
330
1A0
102
}
330
1A0
100
AcDbProxyObject
 90
      499
 91
      557
 95
   983063
 70
     0
 93
     1841
310
4214DD185B99185C9928B81E85EB51B8AE3F2E07A17AD46E2B8FC02B5E8DC0F42B1CFD028000000C1008070000C3001FDFF8000000C1003FBFF000000182007F7FE00000030400FEFFC00000060801FDFF8000000C1003FBFF00000018200000000000000681FA0B0000001820100E000186003FBFF000000182007F7FE000
310
00030400FEFFC00000060801FDFF8000000C1003FBFF000000182007F7FE000000304000AD7A3703D0AC73F4160000003040201C00030C007F7FE00000030400FEFFC00000060801FDFF8000000C1003FBFF000000182007F7FE00000030400FEFFC000000608000
340
16
340
16
340
16
 94
        0
  0
XRECORD
  5
1B3
102
{ACAD_REACTORS
330
1B2
102
}
330
1B2
100
AcDbXrecord
340
19F
  0
XRECORD
  5
1B4
102
{ACAD_REACTORS
330
1B2
102
}
330
1B2
100
AcDbXrecord
340
19E
  0
DICTIONARYVAR
  5
1AF
102
{ACAD_REACTORS
330
19A
102
}
330
19A
100
DictionaryVariables
280
     0
  1
STANDARD
  0
DICTIONARYVAR
  5
1B1
102
{ACAD_REACTORS
330
19A
102
}
330
19A
100
DictionaryVariables
280
     0
  1
0
  0
DICTIONARY
  5
1B5
330
13
100
AcDbDictionary
280
     1
281
     1
  3
ACAD_XREC_ROUNDTRIP
360
1B6
  0
DICTIONARY
  5
1B7
330
C
100
AcDbDictionary
280
     1
281
     1
  3
ACAD_XREC_ROUNDTRIP
360
1B8
  0
XRECORD
  5
1B6
102
{ACAD_REACTORS
330
1B5
102
}
330
1B5
100
AcDbXrecord
102
SHADEPLOT
 70
     0
102
SHADEPLOTRESLEVEL
 70
     2
102
SHADEPLOTCUSTOMDPI
 70
   300
  0
XRECORD
  5
1B8
102
{ACAD_REACTORS
330
1B7
102
}
330
1B7
100
AcDbXrecord
102
SHADEPLOT
 70
     0
102
SHADEPLOTRESLEVEL
 70
     2
102
SHADEPLOTCUSTOMDPI
 70
   300
  0
ENDSEC
  0
EOF
