  0
SECTION
  2
HEADER
  9
$ACADVER
  1
AC1015
  9
$ACADMAINTVER
 70
     6
  9
$DWGCODEPAGE
  3
ANSI_1252
  9
$INSBASE
 10
0.0
 20
0.0
 30
0.0
  9
$EXTMIN
 10
-15.0800622517317
 20
-0.0388325214724794
 30
0.0
  9
$EXTMAX
 10
13.66914993057776
 20
19.49849192647235
 30
0.0
  9
$LIMMIN
 10
0.0
 20
0.0
  9
$LIMMAX
 10
42.0
 20
32.0
  9
$ORTHOMODE
 70
     1
  9
$REGENMODE
 70
     1
  9
$FILLMODE
 70
     1
  9
$QTEXTMODE
 70
     0
  9
$MIRRTEXT
 70
     0
  9
$LTSCALE
 40
1.0
  9
$ATTMODE
 70
     1
  9
$TEXTSIZE
 40
0.36
  9
$TRACEWID
 40
0.05
  9
$TEXTSTYLE
  7
STANDARD
  9
$CLAYER
  8
0
  9
$CELTYPE
  6
BYLAYER
  9
$CECOLOR
 62
   256
  9
$CELTSCALE
 40
1.0
  9
$DISPSILH
 70
     0
  9
$DIMSCALE
 40
4.0
  9
$DIMASZ
 40
0.125
  9
$DIMEXO
 40
0.062
  9
$DIMDLI
 40
0.375
  9
$DIMRND
 40
0.0
  9
$DIMDLE
 40
0.0
  9
$DIMEXE
 40
0.08
  9
$DIMTP
 40
0.0
  9
$DIMTM
 40
0.0
  9
$DIMTXT
 40
0.09
  9
$DIMCEN
 40
-0.06
  9
$DIMTSZ
 40
0.0
  9
$DIMTOL
 70
     0
  9
$DIMLIM
 70
     0
  9
$DIMTIH
 70
     1
  9
$DIMTOH
 70
     1
  9
$DIMSE1
 70
     0
  9
$DIMSE2
 70
     0
  9
$DIMTAD
 70
     0
  9
$DIMZIN
 70
     0
  9
$DIMBLK
  1

  9
$DIMASO
 70
     0
  9
$DIMSHO
 70
     0
  9
$DIMPOST
  1

  9
$DIMAPOST
  1

  9
$DIMALT
 70
     0
  9
$DIMALTD
 70
     2
  9
$DIMALTF
 40
25.4
  9
$DIMLFAC
 40
1.0
  9
$DIMTOFL
 70
     0
  9
$DIMTVP
 40
0.0
  9
$DIMTIX
 70
     0
  9
$DIMSOXD
 70
     0
  9
$DIMSAH
 70
     0
  9
$DIMBLK1
  1

  9
$DIMBLK2
  1

  9
$DIMSTYLE
  2
STANDARD
  9
$DIMCLRD
 70
     0
  9
$DIMCLRE
 70
     0
  9
$DIMCLRT
 70
     0
  9
$DIMTFAC
 40
1.0
  9
$DIMGAP
 40
0.09375
  9
$DIMJUST
 70
     0
  9
$DIMSD1
 70
     0
  9
$DIMSD2
 70
     0
  9
$DIMTOLJ
 70
     1
  9
$DIMTZIN
 70
     0
  9
$DIMALTZ
 70
     0
  9
$DIMALTTZ
 70
     0
  9
$DIMUPT
 70
     0
  9
$DIMDEC
 70
     5
  9
$DIMTDEC
 70
     5
  9
$DIMALTU
 70
     5
  9
$DIMALTTD
 70
     2
  9
$DIMTXSTY
  7
STANDARD
  9
$DIMAUNIT
 70
     0
  9
$DIMADEC
 70
     0
  9
$DIMALTRND
 40
0.0
  9
$DIMAZIN
 70
     0
  9
$DIMDSEP
 70
    46
  9
$DIMATFIT
 70
     3
  9
$DIMFRAC
 70
     2
  9
$DIMLDRBLK
  1

  9
$DIMLUNIT
 70
     5
  9
$DIMLWD
 70
    -2
  9
$DIMLWE
 70
    -2
  9
$DIMTMOVE
 70
     2
  9
$LUNITS
 70
     5
  9
$LUPREC
 70
     5
  9
$SKETCHINC
 40
0.1
  9
$FILLETRAD
 40
0.0
  9
$AUNITS
 70
     0
  9
$AUPREC
 70
     0
  9
$MENU
  1
SIMPSON
  9
$ELEVATION
 40
0.0
  9
$PELEVATION
 40
0.0
  9
$THICKNESS
 40
0.0
  9
$LIMCHECK
 70
     0
  9
$CHAMFERA
 40
0.0
  9
$CHAMFERB
 40
0.0
  9
$CHAMFERC
 40
0.0
  9
$CHAMFERD
 40
0.0
  9
$SKPOLY
 70
     0
  9
$TDCREATE
 40
2448957.754094329
  9
$TDUCREATE
 40
2448958.087427662
  9
$TDUPDATE
 40
2454165.949179398
  9
$TDUUPDATE
 40
2454166.282512731
  9
$TDINDWG
 40
0.2083855093
  9
$TDUSRTIMER
 40
0.2083855093
  9
$USRTIMER
 70
     1
  9
$ANGBASE
 50
0.0
  9
$ANGDIR
 70
     0
  9
$PDMODE
 70
     0
  9
$PDSIZE
 40
0.0
  9
$PLINEWID
 40
0.0
  9
$SPLFRAME
 70
     0
  9
$SPLINETYPE
 70
     6
  9
$SPLINESEGS
 70
     8
  9
$HANDSEED
  5
23E
  9
$SURFTAB1
 70
     6
  9
$SURFTAB2
 70
     6
  9
$SURFTYPE
 70
     6
  9
$SURFU
 70
     6
  9
$SURFV
 70
     6
  9
$UCSBASE
  2

  9
$UCSNAME
  2

  9
$UCSORG
 10
0.0
 20
0.0
 30
0.0
  9
$UCSXDIR
 10
1.0
 20
0.0
 30
0.0
  9
$UCSYDIR
 10
0.0
 20
1.0
 30
0.0
  9
$UCSORTHOREF
  2

  9
$UCSORTHOVIEW
 70
     0
  9
$UCSORGTOP
 10
0.0
 20
0.0
 30
0.0
  9
$UCSORGBOTTOM
 10
0.0
 20
0.0
 30
0.0
  9
$UCSORGLEFT
 10
0.0
 20
0.0
 30
0.0
  9
$UCSORGRIGHT
 10
0.0
 20
0.0
 30
0.0
  9
$UCSORGFRONT
 10
0.0
 20
0.0
 30
0.0
  9
$UCSORGBACK
 10
0.0
 20
0.0
 30
0.0
  9
$PUCSBASE
  2

  9
$PUCSNAME
  2

  9
$PUCSORG
 10
0.0
 20
0.0
 30
0.0
  9
$PUCSXDIR
 10
1.0
 20
0.0
 30
0.0
  9
$PUCSYDIR
 10
0.0
 20
1.0
 30
0.0
  9
$PUCSORTHOREF
  2

  9
$PUCSORTHOVIEW
 70
     0
  9
$PUCSORGTOP
 10
0.0
 20
0.0
 30
0.0
  9
$PUCSORGBOTTOM
 10
0.0
 20
0.0
 30
0.0
  9
$PUCSORGLEFT
 10
0.0
 20
0.0
 30
0.0
  9
$PUCSORGRIGHT
 10
0.0
 20
0.0
 30
0.0
  9
$PUCSORGFRONT
 10
0.0
 20
0.0
 30
0.0
  9
$PUCSORGBACK
 10
0.0
 20
0.0
 30
0.0
  9
$USERI1
 70
     0
  9
$USERI2
 70
     0
  9
$USERI3
 70
     0
  9
$USERI4
 70
     0
  9
$USERI5
 70
     0
  9
$USERR1
 40
0.0
  9
$USERR2
 40
0.0
  9
$USERR3
 40
0.0
  9
$USERR4
 40
0.0
  9
$USERR5
 40
0.0
  9
$WORLDVIEW
 70
     1
  9
$SHADEDGE
 70
     3
  9
$SHADEDIF
 70
    70
  9
$TILEMODE
 70
     1
  9
$MAXACTVP
 70
    16
  9
$PINSBASE
 10
0.0
 20
0.0
 30
0.0
  9
$PLIMCHECK
 70
     0
  9
$PEXTMIN
 10
1.000000000000000E+20
 20
1.000000000000000E+20
 30
1.000000000000000E+20
  9
$PEXTMAX
 10
-1.000000000000000E+20
 20
-1.000000000000000E+20
 30
-1.000000000000000E+20
  9
$PLIMMIN
 10
0.0
 20
0.0
  9
$PLIMMAX
 10
12.0
 20
9.0
  9
$UNITMODE
 70
     0
  9
$VISRETAIN
 70
     0
  9
$PLINEGEN
 70
     0
  9
$PSLTSCALE
 70
     0
  9
$TREEDEPTH
 70
  3020
  9
$CMLSTYLE
  2
STANDARD
  9
$CMLJUST
 70
     0
  9
$CMLSCALE
 40
1.0
  9
$PROXYGRAPHICS
 70
     1
  9
$MEASUREMENT
 70
     0
  9
$CELWEIGHT
370
    -1
  9
$ENDCAPS
280
     0
  9
$JOINSTYLE
280
     0
  9
$LWDISPLAY
290
     0
  9
$INSUNITS
 70
     0
  9
$HYPERLINKBASE
  1

  9
$STYLESHEET
  1

  9
$XEDIT
290
     1
  9
$CEPSNTYPE
380
     0
  9
$PSTYLEMODE
290
     1
  9
$FINGERPRINTGUID
  2
{41B22419-8B17-11D5-BE3F-00508B5FCD51}
  9
$VERSIONGUID
  2
{6C870DA8-D4BC-4EC7-BE0D-D6EC67A6CBE6}
  9
$EXTNAMES
290
     1
  9
$PSVPSCALE
 40
0.0
  9
$OLESTARTUP
290
     0
  0
ENDSEC
  0
SECTION
  2
CLASSES
  0
CLASS
  1
DICTIONARYVAR
  2
AcDbDictionaryVar
  3
AutoCAD 2000
 90
        0
280
     0
281
     0
  0
CLASS
  1
LWPOLYLINE
  2
AcDbPolyline
  3
AutoCAD 2000
 90
        0
280
     0
281
     1
  0
CLASS
  1
ACDBDICTIONARYWDFLT
  2
AcDbDictionaryWithDefault
  3
AutoCAD 2000
 90
        0
280
     0
281
     0
  0
CLASS
  1
ACDBPLACEHOLDER
  2
AcDbPlaceHolder
  3
ObjectDBX Classes
 90
        0
280
     0
281
     0
  0
CLASS
  1
LAYOUT
  2
AcDbLayout
  3
ObjectDBX Classes
 90
        0
280
     0
281
     0
  0
CLASS
  1
LONG_TRANSACTION
  2
AcDbLongTransaction
  3
ObjectDBX Classes
 90
   -65536
280
     1
281
     0
  0
CLASS
  1
LWPOLYLINE
  2
AcDbPolyline
  3
AutoCAD 2000
 90
        0
280
     0
281
     1
  0
CLASS
  1
HATCH
  2
AcDbHatch
  3
AutoCAD 2000
 90
        0
280
     0
281
     1
  0
CLASS
  1
XRECORD
  2
AcDbXrecord
  3
AutoCAD 2000
 90
        0
280
     0
281
     0
  0
CLASS
  1
LONG_TRANSACTION
  2
AcDbLongTransaction
  3
ObjectDBX Classes
 90
   -65536
280
     1
281
     0
  0
CLASS
  1
LWPOLYLINE
  2
AcDbPolyline
  3
AutoCAD 2000
 90
        0
280
     0
281
     1
  0
CLASS
  1
HATCH
  2
AcDbHatch
  3
AutoCAD 2000
 90
        0
280
     0
281
     1
  0
CLASS
  1
XRECORD
  2
AcDbXrecord
  3
AutoCAD 2000
 90
        0
280
     0
281
     0
  0
CLASS
  1
LONG_TRANSACTION
  2
AcDbLongTransaction
  3
ObjectDBX Classes
 90
   -65536
280
     1
281
     0
  0
CLASS
  1
LWPOLYLINE
  2
AcDbPolyline
  3
AutoCAD 2000
 90
        0
280
     0
281
     1
  0
CLASS
  1
HATCH
  2
AcDbHatch
  3
AutoCAD 2000
 90
        0
280
     0
281
     1
  0
CLASS
  1
XRECORD
  2
AcDbXrecord
  3
AutoCAD 2000
 90
        0
280
     0
281
     0
  0
CLASS
  1
LONG_TRANSACTION
  2
AcDbLongTransaction
  3
ObjectDBX Classes
 90
   -65536
280
     1
281
     0
  0
CLASS
  1
LWPOLYLINE
  2
AcDbPolyline
  3
AutoCAD 2000
 90
        0
280
     0
281
     1
  0
CLASS
  1
HATCH
  2
AcDbHatch
  3
AutoCAD 2000
 90
        0
280
     0
281
     1
  0
CLASS
  1
XRECORD
  2
AcDbXrecord
  3
AutoCAD 2000
 90
        0
280
     0
281
     0
  0
CLASS
  1
LONG_TRANSACTION
  2
AcDbLongTransaction
  3
ObjectDBX Classes
 90
   -65536
280
     1
281
     0
  0
CLASS
  1
LWPOLYLINE
  2
AcDbPolyline
  3
AutoCAD 2000
 90
        0
280
     0
281
     1
  0
CLASS
  1
HATCH
  2
AcDbHatch
  3
AutoCAD 2000
 90
        0
280
     0
281
     1
  0
CLASS
  1
XRECORD
  2
AcDbXrecord
  3
AutoCAD 2000
 90
        0
280
     0
281
     0
  0
CLASS
  1
LONG_TRANSACTION
  2
AcDbLongTransaction
  3
ObjectDBX Classes
 90
   -65536
280
     1
281
     0
  0
CLASS
  1
LWPOLYLINE
  2
AcDbPolyline
  3
AutoCAD 2000
 90
        0
280
     0
281
     1
  0
CLASS
  1
HATCH
  2
AcDbHatch
  3
AutoCAD 2000
 90
        0
280
     0
281
     1
  0
CLASS
  1
XRECORD
  2
AcDbXrecord
  3
AutoCAD 2000
 90
        0
280
     0
281
     0
  0
CLASS
  1
LONG_TRANSACTION
  2
AcDbLongTransaction
  3
ObjectDBX Classes
 90
   -65536
280
     1
281
     0
  0
CLASS
  1
LWPOLYLINE
  2
AcDbPolyline
  3
AutoCAD 2000
 90
        0
280
     0
281
     1
  0
CLASS
  1
HATCH
  2
AcDbHatch
  3
AutoCAD 2000
 90
        0
280
     0
281
     1
  0
CLASS
  1
XRECORD
  2
AcDbXrecord
  3
AutoCAD 2000
 90
        0
280
     0
281
     0
  0
CLASS
  1
LONG_TRANSACTION
  2
AcDbLongTransaction
  3
ObjectDBX Classes
 90
   -65536
280
     1
281
     0
  0
CLASS
  1
LWPOLYLINE
  2
AcDbPolyline
  3
AutoCAD 2000
 90
        0
280
     0
281
     1
  0
CLASS
  1
HATCH
  2
AcDbHatch
  3
AutoCAD 2000
 90
        0
280
     0
281
     1
  0
CLASS
  1
XRECORD
  2
AcDbXrecord
  3
AutoCAD 2000
 90
        0
280
     0
281
     0
  0
CLASS
  1
LONG_TRANSACTION
  2
AcDbLongTransaction
  3
ObjectDBX Classes
 90
   -65536
280
     1
281
     0
  0
CLASS
  1
LWPOLYLINE
  2
AcDbPolyline
  3
AutoCAD 2000
 90
        0
280
     0
281
     1
  0
CLASS
  1
HATCH
  2
AcDbHatch
  3
AutoCAD 2000
 90
        0
280
     0
281
     1
  0
CLASS
  1
XRECORD
  2
AcDbXrecord
  3
AutoCAD 2000
 90
        0
280
     0
281
     0
  0
CLASS
  1
LONG_TRANSACTION
  2
AcDbLongTransaction
  3
ObjectDBX Classes
 90
   -65536
280
     1
281
     0
  0
CLASS
  1
LWPOLYLINE
  2
AcDbPolyline
  3
AutoCAD 2000
 90
        0
280
     0
281
     1
  0
CLASS
  1
HATCH
  2
AcDbHatch
  3
AutoCAD 2000
 90
        0
280
     0
281
     1
  0
CLASS
  1
XRECORD
  2
AcDbXrecord
  3
AutoCAD 2000
 90
        0
280
     0
281
     0
  0
CLASS
  1
LONG_TRANSACTION
  2
AcDbLongTransaction
  3
ObjectDBX Classes
 90
   -65536
280
     1
281
     0
  0
CLASS
  1
LWPOLYLINE
  2
AcDbPolyline
  3
AutoCAD 2000
 90
        0
280
     0
281
     1
  0
CLASS
  1
HATCH
  2
AcDbHatch
  3
AutoCAD 2000
 90
        0
280
     0
281
     1
  0
CLASS
  1
XRECORD
  2
AcDbXrecord
  3
AutoCAD 2000
 90
        0
280
     0
281
     0
  0
CLASS
  1
LONG_TRANSACTION
  2
AcDbLongTransaction
  3
ObjectDBX Classes
 90
   -65536
280
     1
281
     0
  0
CLASS
  1
LWPOLYLINE
  2
AcDbPolyline
  3
AutoCAD 2000
 90
        0
280
     0
281
     1
  0
CLASS
  1
HATCH
  2
AcDbHatch
  3
AutoCAD 2000
 90
        0
280
     0
281
     1
  0
CLASS
  1
XRECORD
  2
AcDbXrecord
  3
AutoCAD 2000
 90
        0
280
     0
281
     0
  0
CLASS
  1
LONG_TRANSACTION
  2
AcDbLongTransaction
  3
ObjectDBX Classes
 90
   -65536
280
     1
281
     0
  0
CLASS
  1
LWPOLYLINE
  2
AcDbPolyline
  3
AutoCAD 2000
 90
        0
280
     0
281
     1
  0
CLASS
  1
HATCH
  2
AcDbHatch
  3
AutoCAD 2000
 90
        0
280
     0
281
     1
  0
CLASS
  1
XRECORD
  2
AcDbXrecord
  3
AutoCAD 2000
 90
        0
280
     0
281
     0
  0
CLASS
  1
LONG_TRANSACTION
  2
AcDbLongTransaction
  3
ObjectDBX Classes
 90
   -65536
280
     1
281
     0
  0
CLASS
  1
LWPOLYLINE
  2
AcDbPolyline
  3
AutoCAD 2000
 90
        0
280
     0
281
     1
  0
CLASS
  1
HATCH
  2
AcDbHatch
  3
AutoCAD 2000
 90
        0
280
     0
281
     1
  0
CLASS
  1
XRECORD
  2
AcDbXrecord
  3
AutoCAD 2000
 90
        0
280
     0
281
     0
  0
CLASS
  1
LONG_TRANSACTION
  2
AcDbLongTransaction
  3
ObjectDBX Classes
 90
   -65536
280
     1
281
     0
  0
CLASS
  1
LWPOLYLINE
  2
AcDbPolyline
  3
AutoCAD 2000
 90
        0
280
     0
281
     1
  0
CLASS
  1
HATCH
  2
AcDbHatch
  3
AutoCAD 2000
 90
        0
280
     0
281
     1
  0
CLASS
  1
XRECORD
  2
AcDbXrecord
  3
AutoCAD 2000
 90
        0
280
     0
281
     0
  0
CLASS
  1
TABLESTYLE
  2
AcDbTableStyle
  3
ObjectDBX Classes
 90
     2047
280
     1
281
     0
  0
ENDSEC
  0
SECTION
  2
TABLES
  0
TABLE
  2
VPORT
  5
1D
330
0
100
AcDbSymbolTable
 70
     3
  0
VPORT
  5
230
330
1D
100
AcDbSymbolTableRecord
100
AcDbViewportTableRecord
  2
*Active
 70
     0
 10
0.0
 20
0.0
 11
1.0
 21
1.0
 12
9.404547110034248
 22
10.84304798475128
 13
0.0
 23
0.0
 14
0.063
 24
0.063
 15
0.25
 25
0.25
 16
0.0
 26
0.0
 36
1.0
 17
0.0
 27
0.0
 37
0.0
 40
32.44069672469845
 41
1.814583333333333
 42
50.0
 43
0.0
 44
0.0
 50
0.0
 51
0.0
 71
     0
 72
   100
 73
     1
 74
     1
 75
     0
 76
     0
 77
     0
 78
     0
281
     0
 65
     1
110
0.0
120
0.0
130
0.0
111
1.0
121
0.0
131
0.0
112
0.0
122
1.0
132
0.0
 79
     0
146
0.0
  0
ENDTAB
  0
TABLE
  2
LTYPE
  5
18
330
0
100
AcDbSymbolTable
 70
     2
  0
LTYPE
  5
19
330
18
100
AcDbSymbolTableRecord
100
AcDbLinetypeTableRecord
  2
BYBLOCK
 70
     0
  3

 72
    65
 73
     0
 40
0.0
  0
LTYPE
  5
1A
330
18
100
AcDbSymbolTableRecord
100
AcDbLinetypeTableRecord
  2
BYLAYER
 70
     0
  3

 72
    65
 73
     0
 40
0.0
  0
LTYPE
  5
A
330
18
100
AcDbSymbolTableRecord
100
AcDbLinetypeTableRecord
  2
CONTINUOUS
 70
     0
  3
Solid line
 72
    65
 73
     0
 40
0.0
  0
LTYPE
  5
30
330
18
100
AcDbSymbolTableRecord
100
AcDbLinetypeTableRecord
  2
DASHED
 70
     0
  3
__ __ __ __ __ __ __ __ __ __ __ __ __ __ __
 72
    65
 73
     2
 40
0.75
 49
0.5
 74
     0
 49
-0.25
 74
     0
  0
ENDTAB
  0
TABLE
  2
LAYER
  5
14
330
0
100
AcDbSymbolTable
 70
     1
  0
LAYER
  5
6
330
14
100
AcDbSymbolTableRecord
100
AcDbLayerTableRecord
  2
0
 70
     0
 62
     7
  6
CONTINUOUS
370
    -3
390
7
  0
ENDTAB
  0
TABLE
  2
STYLE
  5
15
330
0
100
AcDbSymbolTable
 70
     1
  0
STYLE
  5
16
330
15
100
AcDbSymbolTableRecord
100
AcDbTextStyleTableRecord
  2
STANDARD
 70
     0
 40
0.0
 41
1.0
 50
0.0
 71
     0
 42
0.36
  3
TXT
  4

  0
ENDTAB
  0
TABLE
  2
VIEW
  5
1B
330
0
100
AcDbSymbolTable
 70
     0
  0
ENDTAB
  0
TABLE
  2
UCS
  5
1C
330
0
100
AcDbSymbolTable
 70
     0
  0
ENDTAB
  0
TABLE
  2
APPID
  5
1F
330
0
100
AcDbSymbolTable
 70
     1
  0
APPID
  5
20
330
1F
100
AcDbSymbolTableRecord
100
AcDbRegAppTableRecord
  2
ACAD
 70
     0
  0
ENDTAB
  0
TABLE
  2
DIMSTYLE
  5
21
330
0
100
AcDbSymbolTable
 70
     1
100
AcDbDimStyleTable
  0
DIMSTYLE
105
27
330
21
100
AcDbSymbolTableRecord
100
AcDbDimStyleTableRecord
  2
STANDARD
 70
     0
  3

  4

340
16
  0
ENDTAB
  0
TABLE
  2
BLOCK_RECORD
  5
1
330
0
100
AcDbSymbolTable
 70
     0
  0
BLOCK_RECORD
  5
2
330
1
100
AcDbSymbolTableRecord
100
AcDbBlockTableRecord
  2
*MODEL_SPACE
340
C
  0
BLOCK_RECORD
  5
E
330
1
100
AcDbSymbolTableRecord
100
AcDbBlockTableRecord
  2
*PAPER_SPACE
340
13
  0
ENDTAB
  0
ENDSEC
  0
SECTION
  2
BLOCKS
  0
BLOCK
  5
5
330
2
100
AcDbEntity
  8
0
100
AcDbBlockBegin
  2
*MODEL_SPACE
 70
     0
 10
0.0
 20
0.0
 30
0.0
  3
*MODEL_SPACE
  1

  4

  0
ENDBLK
  5
B
330
2
100
AcDbEntity
  8
0
100
AcDbBlockEnd
  0
BLOCK
  5
11
330
E
100
AcDbEntity
 67
     1
  8
0
100
AcDbBlockBegin
  2
*PAPER_SPACE
 70
     0
 10
0.0
 20
0.0
 30
0.0
  3
*PAPER_SPACE
  1

  4

  0
ENDBLK
  5
12
330
E
100
AcDbEntity
 67
     1
  8
0
100
AcDbBlockEnd
  0
ENDSEC
  0
SECTION
  2
ENTITIES
  0
ARC
  5
7D
330
2
100
AcDbEntity
  8
0
100
AcDbCircle
 10
4.32716900158996
 20
6.090223576038721
 30
0.0
 40
0.125
100
AcDbArc
 50
180.0
 51
225.0000000000001
  0
LINE
  5
7E
330
2
100
AcDbEntity
  8
0
100
AcDbLine
 10
4.238780653941641
 20
6.001835228390402
 30
0.0
 11
4.478057349238272
 21
5.762558533093763
 31
0.0
  0
ELLIPSE
  5
80
330
2
100
AcDbEntity
  8
0
100
AcDbEllipse
 10
1.882464078436671
 20
5.851173724782672
 30
0.0
 11
0.0
 21
-0.1875000000000142
 31
0.0
210
0.0
220
0.0
230
1.0
 40
0.9999999999999242
 41
0.0
 42
3.141592653589793
  0
LINE
  5
81
330
2
100
AcDbEntity
  8
0
100
AcDbLine
 10
1.882464078436671
 20
6.007423724782658
 30
0.0
 11
1.882464078436671
 21
5.694923724782658
 31
0.0
  0
LINE
  5
82
330
2
100
AcDbEntity
  8
0
100
AcDbLine
 10
-4.238780859339967
 20
6.009758953173058
 30
0.0
 11
-4.478057554636605
 21
5.77048225787642
 31
0.0
  0
LINE
  5
83
330
2
100
AcDbEntity
  8
0
  6
Continuous
100
AcDbLine
 10
1.882464078436671
 20
0.1874999999999982
 30
0.0
 11
1.882464078436671
 21
10.59375
 31
0.0
  0
LINE
  5
84
330
2
100
AcDbEntity
  8
0
  6
Continuous
100
AcDbLine
 10
-1.882464283835004
 20
0.1875
 30
0.0
 11
-1.882464283835006
 21
10.60167372478266
 31
0.0
  0
LINE
  5
85
330
2
100
AcDbEntity
  8
0
  6
Continuous
100
AcDbLine
 10
1.788714078436671
 20
0.1875
 30
0.0
 11
1.788714078436671
 21
10.59375
 31
0.0
  0
LINE
  5
86
330
2
100
AcDbEntity
  8
0
  6
Continuous
100
AcDbLine
 10
-1.788714283835004
 20
0.1875
 30
0.0
 11
-1.788714283835006
 21
10.60167372478266
 31
0.0
  0
ARC
  5
87
330
2
100
AcDbEntity
  8
0
100
AcDbCircle
 10
1.694906723065541
 20
0.1874901658164063
 30
0.0
 40
0.0938073558866057
100
AcDbArc
 50
272.1686908907737
 51
0.0060065355278531
  0
ARC
  5
88
330
2
100
AcDbEntity
  8
0
100
AcDbCircle
 10
1.694964078436671
 20
0.1874999999999982
 30
0.0
 40
0.1875
100
AcDbArc
 50
270.0
 51
0.0
  0
LINE
  5
89
330
2
100
AcDbEntity
  8
0
100
AcDbLine
 10
-3.250266040446258
 20
1.77404391959835
 30
0.0
 11
-1.882464078436671
 21
0.4062419575887777
 31
0.0
  0
LINE
  5
8A
330
2
100
AcDbEntity
  8
0
100
AcDbLine
 10
-1.694964283835004
 20
0.09375
 30
0.0
 11
1.698456558430548
 21
0.09375
 31
0.0
  0
LINE
  5
8B
330
2
100
AcDbEntity
  8
0
100
AcDbLine
 10
-1.694964283835004
 20
0.0
 30
0.0
 11
1.694964283835004
 21
-0.0000000000000018
 31
0.0
  0
ARC
  5
8C
330
2
100
AcDbEntity
  8
0
100
AcDbCircle
 10
-1.694964283835004
 20
0.1875
 30
0.0
 40
0.09375
100
AcDbArc
 50
180.0
 51
269.9999999999998
  0
ARC
  5
8D
330
2
100
AcDbEntity
  8
0
100
AcDbCircle
 10
-1.694964283835004
 20
0.1875
 30
0.0
 40
0.1875
100
AcDbArc
 50
180.0
 51
270.0
  0
CIRCLE
  5
90
330
2
100
AcDbEntity
  8
0
100
AcDbCircle
 10
-2.639664283834994
 20
5.476673724782661
 30
0.0
 40
0.0855
  0
CIRCLE
  5
93
330
2
100
AcDbEntity
  8
0
100
AcDbCircle
 10
-2.639664283834994
 20
3.351673724782661
 30
0.0
 40
0.0855
  0
CIRCLE
  5
94
330
2
100
AcDbEntity
  8
0
100
AcDbCircle
 10
-3.031169001590145
 20
3.538496880742068
 30
0.0
 40
0.0855
  0
ARC
  5
95
330
2
100
AcDbEntity
  8
0
100
AcDbCircle
 10
-0.9521690015899669
 20
4.072140958454677
 30
0.0
 40
3.25
100
AcDbArc
 50
180.0
 51
225.0000000000005
  0
CIRCLE
  5
97
330
2
100
AcDbEntity
  8
0
100
AcDbCircle
 10
-3.202164283835002
 20
2.351673724782661
 30
0.0
 40
0.0855
  0
CIRCLE
  5
99
330
2
100
AcDbEntity
  8
0
100
AcDbCircle
 10
-3.514664283835002
 20
3.101673724782661
 30
0.0
 40
0.0855
  0
LINE
  5
9A
330
2
100
AcDbEntity
  8
0
100
AcDbLine
 10
-4.478057554636605
 20
4.947258953173066
 30
0.0
 11
-4.23878085933997
 21
4.707982257876427
 31
0.0
  0
CIRCLE
  5
9B
330
2
100
AcDbEntity
  8
0
100
AcDbCircle
 10
-3.733414283835009
 20
3.726673724782661
 30
0.0
 40
0.0855
  0
LINE
  5
9D
330
2
100
AcDbEntity
  8
0
100
AcDbLine
 10
-4.20216900158996
 20
4.611670185445451
 30
0.0
 11
-4.20216900158996
 21
4.072140958454677
 31
0.0
  0
ARC
  5
9F
330
2
100
AcDbEntity
  8
0
100
AcDbCircle
 10
-4.327169206988286
 20
4.619593910228108
 30
0.0
 40
0.125
100
AcDbArc
 50
0.0
 51
45.00000000000014
  0
CIRCLE
  5
A0
330
2
100
AcDbEntity
  8
0
100
AcDbCircle
 10
-3.952164283835002
 20
4.351673724782661
 30
0.0
 40
0.0855
  0
CIRCLE
  5
A1
330
2
100
AcDbEntity
  8
0
100
AcDbCircle
 10
-3.202164283835002
 20
4.101673724782661
 30
0.0
 40
0.0855
  0
CIRCLE
  5
A2
330
2
100
AcDbEntity
  8
0
100
AcDbCircle
 10
-3.733414283835009
 20
5.726673724782661
 30
0.0
 40
0.0855
  0
CIRCLE
  5
A3
330
2
100
AcDbEntity
  8
0
100
AcDbCircle
 10
-4.264664283835002
 20
5.351673724782661
 30
0.0
 40
0.0855
  0
LINE
  5
A4
330
2
100
AcDbEntity
  8
0
100
AcDbLine
 10
-4.514669206988286
 20
5.682093910228101
 30
0.0
 11
-4.514669206988286
 21
5.035647300821385
 31
0.0
  0
ARC
  5
A5
330
2
100
AcDbEntity
  8
0
100
AcDbCircle
 10
-4.389669206988286
 20
5.035647300821385
 30
0.0
 40
0.125
100
AcDbArc
 50
180.0
 51
225.0000000000003
  0
ARC
  5
A6
330
2
100
AcDbEntity
  8
0
100
AcDbCircle
 10
-4.389669206988286
 20
5.682093910228101
 30
0.0
 40
0.125
100
AcDbArc
 50
134.9999999999996
 51
180.0
  0
CIRCLE
  5
A8
330
2
100
AcDbEntity
  8
0
100
AcDbCircle
 10
-3.514664283835002
 20
5.101673724782661
 30
0.0
 40
0.0855
  0
ELLIPSE
  5
A9
330
2
100
AcDbEntity
  8
0
100
AcDbEllipse
 10
-1.882464283835006
 20
2.226673724782661
 30
0.0
 11
0.0
 21
-0.1383375000000022
 31
0.0
210
0.0
220
0.0
230
-1.0
 40
0.9035872413481376
 41
0.0
 42
3.141592653589793
  0
LINE
  5
AA
330
2
100
AcDbEntity
  8
0
100
AcDbLine
 10
-1.882464283835006
 20
2.382923724782661
 30
0.0
 11
-1.882464283835006
 21
2.070423724782661
 31
0.0
  0
ELLIPSE
  5
AB
330
2
100
AcDbEntity
  8
0
100
AcDbEllipse
 10
-1.882464283835006
 20
2.226673724782675
 30
0.0
 11
0.0
 21
-0.1875000000000142
 31
0.0
210
0.0
220
0.0
230
-1.0
 40
0.9999999999999242
 41
0.0
 42
3.141592653589793
  0
ELLIPSE
  5
AC
330
2
100
AcDbEntity
  8
0
100
AcDbEllipse
 10
-1.882464283835006
 20
1.226673724782675
 30
0.0
 11
0.0
 21
-0.1875000000000142
 31
0.0
210
0.0
220
0.0
230
-1.0
 40
0.9999999999999242
 41
0.0
 42
3.141592653589793
  0
ELLIPSE
  5
AD
330
2
100
AcDbEntity
  8
0
100
AcDbEllipse
 10
-1.882464283835006
 20
1.226673724782661
 30
0.0
 11
0.0
 21
-0.1383375000000022
 31
0.0
210
0.0
220
0.0
230
-1.0
 40
0.9035872413481376
 41
0.0
 42
3.141592653589793
  0
LINE
  5
AE
330
2
100
AcDbEntity
  8
0
100
AcDbLine
 10
-1.882464283835006
 20
1.382923724782661
 30
0.0
 11
-1.882464283835006
 21
1.070423724782661
 31
0.0
  0
LINE
  5
AF
330
2
100
AcDbEntity
  8
0
100
AcDbLine
 10
-1.882464283835006
 20
1.070423724782661
 30
0.0
 11
-1.882464283835006
 21
1.039173724782661
 31
0.0
  0
LINE
  5
B0
330
2
100
AcDbEntity
  8
0
100
AcDbLine
 10
-1.882464283835006
 20
1.382923724782689
 30
0.0
 11
-1.882464283835006
 21
1.414173724782689
 31
0.0
  0
LINE
  5
B1
330
2
100
AcDbEntity
  8
0
100
AcDbLine
 10
-1.882464283835006
 20
2.070423724782661
 30
0.0
 11
-1.882464283835006
 21
2.039173724782661
 31
0.0
  0
CIRCLE
  5
B3
330
2
100
AcDbEntity
  8
0
100
AcDbCircle
 10
-2.511171803841117
 20
2.840551387062064
 30
0.0
 40
0.0855
  0
LINE
  5
B4
330
2
100
AcDbEntity
  8
0
100
AcDbLine
 10
-1.882464283835006
 20
2.382923724782689
 30
0.0
 11
-1.882464283835006
 21
2.414173724782689
 31
0.0
  0
LINE
  5
B5
330
2
100
AcDbEntity
  8
0
100
AcDbLine
 10
-1.882464283835006
 20
3.382923724782689
 30
0.0
 11
-1.882464283835006
 21
3.414173724782689
 31
0.0
  0
LINE
  5
B6
330
2
100
AcDbEntity
  8
0
100
AcDbLine
 10
-1.882464283835006
 20
3.070423724782661
 30
0.0
 11
-1.882464283835006
 21
3.039173724782661
 31
0.0
  0
ELLIPSE
  5
B7
330
2
100
AcDbEntity
  8
0
100
AcDbEllipse
 10
-1.882464283835006
 20
3.226673724782661
 30
0.0
 11
0.0
 21
-0.1383375000000022
 31
0.0
210
0.0
220
0.0
230
-1.0
 40
0.9035872413481376
 41
0.0
 42
3.141592653589793
  0
ELLIPSE
  5
B8
330
2
100
AcDbEntity
  8
0
100
AcDbEllipse
 10
-1.882464283835006
 20
3.226673724782675
 30
0.0
 11
0.0
 21
-0.1875000000000142
 31
0.0
210
0.0
220
0.0
230
-1.0
 40
0.9999999999999242
 41
0.0
 42
3.141592653589793
  0
LINE
  5
B9
330
2
100
AcDbEntity
  8
0
100
AcDbLine
 10
-1.882464283835006
 20
3.382923724782661
 30
0.0
 11
-1.882464283835006
 21
3.070423724782661
 31
0.0
  0
ELLIPSE
  5
BA
330
2
100
AcDbEntity
  8
0
100
AcDbEllipse
 10
-1.882464283835006
 20
4.226673724782675
 30
0.0
 11
0.0
 21
-0.1875000000000142
 31
0.0
210
0.0
220
0.0
230
-1.0
 40
0.9999999999999242
 41
0.0
 42
3.141592653589793
  0
ELLIPSE
  5
BB
330
2
100
AcDbEntity
  8
0
100
AcDbEllipse
 10
-1.882464283835006
 20
4.226673724782661
 30
0.0
 11
0.0
 21
-0.1383375000000022
 31
0.0
210
0.0
220
0.0
230
-1.0
 40
0.9035872413481376
 41
0.0
 42
3.141592653589793
  0
LINE
  5
BC
330
2
100
AcDbEntity
  8
0
100
AcDbLine
 10
-1.882464283835006
 20
4.382923724782661
 30
0.0
 11
-1.882464283835006
 21
4.070423724782661
 31
0.0
  0
LINE
  5
BD
330
2
100
AcDbEntity
  8
0
100
AcDbLine
 10
-1.882464283835006
 20
4.070423724782661
 30
0.0
 11
-1.882464283835006
 21
4.039173724782661
 31
0.0
  0
CIRCLE
  5
BE
330
2
100
AcDbEntity
  8
0
100
AcDbCircle
 10
-2.511171803841117
 20
4.340551387062064
 30
0.0
 40
0.0855
  0
LINE
  5
BF
330
2
100
AcDbEntity
  8
0
100
AcDbLine
 10
-1.882464283835006
 20
4.382923724782689
 30
0.0
 11
-1.882464283835006
 21
4.414173724782689
 31
0.0
  0
ELLIPSE
  5
C0
330
2
100
AcDbEntity
  8
0
100
AcDbEllipse
 10
-1.882464283835006
 20
5.226673724782675
 30
0.0
 11
0.0
 21
-0.1875000000000142
 31
0.0
210
0.0
220
0.0
230
-1.0
 40
0.9999999999999242
 41
0.0
 42
3.141592653589793
  0
LINE
  5
C1
330
2
100
AcDbEntity
  8
0
100
AcDbLine
 10
-1.882464283835006
 20
5.382923724782661
 30
0.0
 11
-1.882464283835006
 21
5.070423724782661
 31
0.0
  0
CIRCLE
  5
C2
330
2
100
AcDbEntity
  8
0
100
AcDbCircle
 10
-2.511171803841117
 20
4.843750000000007
 30
0.0
 40
0.0855
  0
LINE
  5
C3
330
2
100
AcDbEntity
  8
0
100
AcDbLine
 10
-1.882464283835006
 20
5.070423724782661
 30
0.0
 11
-1.882464283835006
 21
5.039173724782661
 31
0.0
  0
ELLIPSE
  5
C4
330
2
100
AcDbEntity
  8
0
100
AcDbEllipse
 10
-1.882464283835006
 20
5.226673724782661
 30
0.0
 11
0.0
 21
-0.1383375000000022
 31
0.0
210
0.0
220
0.0
230
-1.0
 40
0.9035872413481376
 41
0.0
 42
3.141592653589793
  0
LINE
  5
C5
330
2
100
AcDbEntity
  8
0
100
AcDbLine
 10
-1.882464283835006
 20
5.382923724782689
 30
0.0
 11
-1.882464283835006
 21
5.414173724782689
 31
0.0
  0
ELLIPSE
  5
C6
330
2
100
AcDbEntity
  8
0
100
AcDbEllipse
 10
1.882464078436671
 20
0.8511737247826723
 30
0.0
 11
0.0
 21
-0.1875000000000142
 31
0.0
210
0.0
220
0.0
230
1.0
 40
0.9999999999999242
 41
0.0
 42
3.141592653589793
  0
LINE
  5
C7
330
2
100
AcDbEntity
  8
0
100
AcDbLine
 10
1.882464078436671
 20
1.007423724782658
 30
0.0
 11
1.882464078436671
 21
0.6949237247826581
 31
0.0
  0
LINE
  5
C8
330
2
100
AcDbEntity
  8
0
100
AcDbLine
 10
3.250266040446258
 20
1.77404391959835
 30
0.0
 11
1.882464078436671
 21
0.4062419575887777
 31
0.0
  0
LINE
  5
C9
330
2
100
AcDbEntity
  8
0
100
AcDbLine
 10
1.882464078436671
 20
0.6949237247826581
 30
0.0
 11
1.882464078436671
 21
0.6636737247826581
 31
0.0
  0
ELLIPSE
  5
CA
330
2
100
AcDbEntity
  8
0
100
AcDbEllipse
 10
1.882464078436671
 20
0.8511737247826581
 30
0.0
 11
0.0
 21
-0.1383375000000022
 31
0.0
210
0.0
220
0.0
230
1.0
 40
0.9035872413481376
 41
0.0
 42
3.141592653589793
  0
CIRCLE
  5
CB
330
2
100
AcDbEntity
  8
0
100
AcDbCircle
 10
3.031169001590145
 20
3.538496880742068
 30
0.0
 40
0.0855
  0
ARC
  5
CD
330
2
100
AcDbEntity
  8
0
100
AcDbCircle
 10
0.9521690015899669
 20
4.072140958454677
 30
0.0
 40
3.25
100
AcDbArc
 50
314.9999999999995
 51
0.0
  0
CIRCLE
  5
CE
330
2
100
AcDbEntity
  8
0
100
AcDbCircle
 10
2.639664078436665
 20
1.65625
 30
0.0
 40
0.0855
  0
LINE
  5
CF
330
2
100
AcDbEntity
  8
0
100
AcDbLine
 10
1.882464078436671
 20
1.007423724782687
 30
0.0
 11
1.882464078436671
 21
1.038673724782687
 31
0.0
  0
ELLIPSE
  5
D0
330
2
100
AcDbEntity
  8
0
100
AcDbEllipse
 10
1.882464078436671
 20
1.851173724782658
 30
0.0
 11
0.0
 21
-0.1383375000000022
 31
0.0
210
0.0
220
0.0
230
1.0
 40
0.9035872413481376
 41
0.0
 42
3.141592653589793
  0
ELLIPSE
  5
D1
330
2
100
AcDbEntity
  8
0
100
AcDbEllipse
 10
1.882464078436671
 20
1.851173724782672
 30
0.0
 11
0.0
 21
-0.1875000000000142
 31
0.0
210
0.0
220
0.0
230
1.0
 40
0.9999999999999242
 41
0.0
 42
3.141592653589793
  0
LINE
  5
D2
330
2
100
AcDbEntity
  8
0
100
AcDbLine
 10
1.882464078436671
 20
2.007423724782658
 30
0.0
 11
1.882464078436671
 21
1.694923724782658
 31
0.0
  0
LINE
  5
D3
330
2
100
AcDbEntity
  8
0
100
AcDbLine
 10
1.882464078436671
 20
1.694923724782658
 30
0.0
 11
1.882464078436671
 21
1.663673724782658
 31
0.0
  0
LINE
  5
D4
330
2
100
AcDbEntity
  8
0
100
AcDbLine
 10
1.882464078436671
 20
2.007423724782687
 30
0.0
 11
1.882464078436671
 21
2.038673724782687
 31
0.0
  0
CIRCLE
  5
D5
330
2
100
AcDbEntity
  8
0
100
AcDbCircle
 10
2.514664078436661
 20
2.840551387062064
 30
0.0
 40
0.0855
  0
ELLIPSE
  5
D7
330
2
100
AcDbEntity
  8
0
100
AcDbEllipse
 10
1.882464078436671
 20
2.851173724782658
 30
0.0
 11
0.0
 21
-0.1383375000000022
 31
0.0
210
0.0
220
0.0
230
1.0
 40
0.9035872413481376
 41
0.0
 42
3.141592653589793
  0
LINE
  5
D8
330
2
100
AcDbEntity
  8
0
100
AcDbLine
 10
1.882464078436671
 20
3.007423724782658
 30
0.0
 11
1.882464078436671
 21
2.694923724782658
 31
0.0
  0
ELLIPSE
  5
D9
330
2
100
AcDbEntity
  8
0
100
AcDbEllipse
 10
1.882464078436671
 20
2.851173724782672
 30
0.0
 11
0.0
 21
-0.1875000000000142
 31
0.0
210
0.0
220
0.0
230
1.0
 40
0.9999999999999242
 41
0.0
 42
3.141592653589793
  0
LINE
  5
DA
330
2
100
AcDbEntity
  8
0
100
AcDbLine
 10
1.882464078436671
 20
2.694923724782658
 30
0.0
 11
1.882464078436671
 21
2.663673724782658
 31
0.0
  0
LINE
  5
DC
330
2
100
AcDbEntity
  8
0
100
AcDbLine
 10
1.882464078436671
 20
3.007423724782687
 30
0.0
 11
1.882464078436671
 21
3.038673724782687
 31
0.0
  0
CIRCLE
  5
DD
330
2
100
AcDbEntity
  8
0
100
AcDbCircle
 10
2.639664078436665
 20
3.343750000000004
 30
0.0
 40
0.0855
  0
CIRCLE
  5
DE
330
2
100
AcDbEntity
  8
0
100
AcDbCircle
 10
3.202164078436676
 20
2.343750000000004
 30
0.0
 40
0.0855
  0
CIRCLE
  5
DF
330
2
100
AcDbEntity
  8
0
100
AcDbCircle
 10
3.514664078436676
 20
3.093750000000004
 30
0.0
 40
0.0855
  0
CIRCLE
  5
E2
330
2
100
AcDbEntity
  8
0
100
AcDbCircle
 10
3.952164078436676
 20
4.343750000000004
 30
0.0
 40
0.0855
  0
ELLIPSE
  5
E4
330
2
100
AcDbEntity
  8
0
100
AcDbEllipse
 10
1.882464078436671
 20
4.851173724782658
 30
0.0
 11
0.0
 21
-0.1383375000000022
 31
0.0
210
0.0
220
0.0
230
1.0
 40
0.9035872413481376
 41
0.0
 42
3.141592653589793
  0
ELLIPSE
  5
E5
330
2
100
AcDbEntity
  8
0
100
AcDbEllipse
 10
1.882464078436671
 20
4.851173724782672
 30
0.0
 11
0.0
 21
-0.1875000000000142
 31
0.0
210
0.0
220
0.0
230
1.0
 40
0.9999999999999242
 41
0.0
 42
3.141592653589793
  0
LINE
  5
E6
330
2
100
AcDbEntity
  8
0
100
AcDbLine
 10
1.882464078436671
 20
5.007423724782658
 30
0.0
 11
1.882464078436671
 21
4.694923724782658
 31
0.0
  0
LINE
  5
E7
330
2
100
AcDbEntity
  8
0
100
AcDbLine
 10
1.882464078436671
 20
4.007423724782687
 30
0.0
 11
1.882464078436671
 21
4.038673724782687
 31
0.0
  0
LINE
  5
E8
330
2
100
AcDbEntity
  8
0
100
AcDbLine
 10
1.882464078436671
 20
3.694923724782658
 30
0.0
 11
1.882464078436671
 21
3.663673724782658
 31
0.0
  0
ELLIPSE
  5
E9
330
2
100
AcDbEntity
  8
0
100
AcDbEllipse
 10
1.882464078436671
 20
3.851173724782672
 30
0.0
 11
0.0
 21
-0.1875000000000142
 31
0.0
210
0.0
220
0.0
230
1.0
 40
0.9999999999999242
 41
0.0
 42
3.141592653589793
  0
ELLIPSE
  5
EA
330
2
100
AcDbEntity
  8
0
100
AcDbEllipse
 10
1.882464078436671
 20
3.851173724782658
 30
0.0
 11
0.0
 21
-0.1383375000000022
 31
0.0
210
0.0
220
0.0
230
1.0
 40
0.9035872413481376
 41
0.0
 42
3.141592653589793
  0
LINE
  5
EB
330
2
100
AcDbEntity
  8
0
100
AcDbLine
 10
1.882464078436671
 20
4.007423724782658
 30
0.0
 11
1.882464078436671
 21
3.694923724782658
 31
0.0
  0
LINE
  5
EC
330
2
100
AcDbEntity
  8
0
100
AcDbLine
 10
1.882464078436671
 20
4.694923724782658
 30
0.0
 11
1.882464078436671
 21
4.663673724782658
 31
0.0
  0
CIRCLE
  5
ED
330
2
100
AcDbEntity
  8
0
100
AcDbCircle
 10
2.514664078436661
 20
4.340551387062064
 30
0.0
 40
0.0855
  0
CIRCLE
  5
EE
330
2
100
AcDbEntity
  8
0
100
AcDbCircle
 10
3.202164078436676
 20
4.093750000000004
 30
0.0
 40
0.0855
  0
CIRCLE
  5
F0
330
2
100
AcDbEntity
  8
0
100
AcDbCircle
 10
3.733414078436676
 20
3.71875
 30
0.0
 40
0.0855
  0
LINE
  5
F1
330
2
100
AcDbEntity
  8
0
100
AcDbLine
 10
1.882464078436671
 20
5.007423724782687
 30
0.0
 11
1.882464078436671
 21
5.038673724782687
 31
0.0
  0
CIRCLE
  5
F2
330
2
100
AcDbEntity
  8
0
100
AcDbCircle
 10
2.514664078436661
 20
4.843750000000007
 30
0.0
 40
0.0855
  0
LINE
  5
F3
330
2
100
AcDbEntity
  8
0
100
AcDbLine
 10
1.882464078436671
 20
5.694923724782658
 30
0.0
 11
1.882464078436671
 21
5.663673724782658
 31
0.0
  0
ELLIPSE
  5
F4
330
2
100
AcDbEntity
  8
0
100
AcDbEllipse
 10
1.882464078436671
 20
5.851173724782658
 30
0.0
 11
0.0
 21
-0.1383375000000022
 31
0.0
210
0.0
220
0.0
230
1.0
 40
0.9035872413481376
 41
0.0
 42
3.141592653589793
  0
CIRCLE
  5
F5
330
2
100
AcDbEntity
  8
0
100
AcDbCircle
 10
2.639664078436665
 20
5.46875
 30
0.0
 40
0.0855
  0
CIRCLE
  5
F6
330
2
100
AcDbEntity
  8
0
100
AcDbCircle
 10
3.514664078436676
 20
5.09375
 30
0.0
 40
0.0855
  0
CIRCLE
  5
F9
330
2
100
AcDbEntity
  8
0
100
AcDbCircle
 10
3.733414078436676
 20
5.71875
 30
0.0
 40
0.0855
  0
LINE
  5
FC
330
2
100
AcDbEntity
  8
0
100
AcDbLine
 10
4.478057349238272
 20
4.939335228390405
 30
0.0
 11
4.238780653941641
 21
4.70005853309377
 31
0.0
  0
LINE
  5
FD
330
2
100
AcDbEntity
  8
0
100
AcDbLine
 10
4.20216900158996
 20
4.072140958454677
 30
0.0
 11
4.20216900158996
 21
4.47594688074209
 31
0.0
  0
LINE
  5
FE
330
2
100
AcDbEntity
  8
0
100
AcDbLine
 10
4.20216900158996
 20
4.611670185445451
 30
0.0
 11
4.20216900158996
 21
4.072140958454677
 31
0.0
  0
ARC
  5
FF
330
2
100
AcDbEntity
  8
0
100
AcDbCircle
 10
4.32716900158996
 20
4.611670185445451
 30
0.0
 40
0.125
100
AcDbArc
 50
134.9999999999999
 51
180.0
  0
CIRCLE
  5
101
330
2
100
AcDbEntity
  8
0
100
AcDbCircle
 10
4.264664078436676
 20
5.34375
 30
0.0
 40
0.0855
  0
LINE
  5
103
330
2
100
AcDbEntity
  8
0
100
AcDbLine
 10
4.51466900158996
 20
5.674170185445444
 30
0.0
 11
4.51466900158996
 21
5.027723576038724
 31
0.0
  0
ARC
  5
104
330
2
100
AcDbEntity
  8
0
100
AcDbCircle
 10
4.38966900158996
 20
5.027723576038724
 30
0.0
 40
0.125
100
AcDbArc
 50
314.9999999999997
 51
0.0
  0
ARC
  5
106
330
2
100
AcDbEntity
  8
0
100
AcDbCircle
 10
4.38966900158996
 20
5.674170185445444
 30
0.0
 40
0.125
100
AcDbArc
 50
0.0
 51
45.00000000000033
  0
CIRCLE
  5
109
330
2
100
AcDbEntity
  8
0
100
AcDbCircle
 10
-2.639664283834994
 20
9.476673724782661
 30
0.0
 40
0.0855
  0
CIRCLE
  5
10A
330
2
100
AcDbEntity
  8
0
100
AcDbCircle
 10
-2.639664283834994
 20
7.476673724782661
 30
0.0
 40
0.0855
  0
LINE
  5
10B
330
2
100
AcDbEntity
  8
0
100
AcDbLine
 10
-1.788714283835004
 20
10.60167372478266
 30
0.0
 11
-4.202169206988286
 21
10.60167372478266
 31
0.0
  0
LINE
  5
10C
330
2
100
AcDbEntity
  8
0
100
AcDbLine
 10
-4.202169206988286
 20
8.098147402433749
 30
0.0
 11
-4.202169206988282
 21
8.601673724782657
 31
0.0
  0
LINE
  5
10D
330
2
100
AcDbEntity
  8
0
100
AcDbLine
 10
-4.202169206988286
 20
8.601673724782657
 30
0.0
 11
-4.202169206988286
 21
8.098147300821378
 31
0.0
  0
LINE
  5
10E
330
2
100
AcDbEntity
  8
0
100
AcDbLine
 10
-4.202169206988286
 20
8.098147402433749
 30
0.0
 11
-4.202169206988282
 21
8.601673724782657
 31
0.0
  0
LINE
  5
10F
330
2
100
AcDbEntity
  8
0
100
AcDbLine
 10
-4.202169206988286
 20
8.619593910228108
 30
0.0
 11
-4.202169206988286
 21
8.098147300821378
 31
0.0
  0
LINE
  5
110
330
2
100
AcDbEntity
  8
0
100
AcDbLine
 10
-4.514669206988286
 20
7.682093910228101
 30
0.0
 11
-4.514669206988286
 21
7.035647300821385
 31
0.0
  0
ARC
  5
111
330
2
100
AcDbEntity
  8
0
100
AcDbCircle
 10
-4.327169206988286
 20
6.619593910228108
 30
0.0
 40
0.125
100
AcDbArc
 50
0.0
 51
45.00000000000014
  0
ARC
  5
112
330
2
100
AcDbEntity
  8
0
100
AcDbCircle
 10
-4.327169206988286
 20
6.098147300821378
 30
0.0
 40
0.125
100
AcDbArc
 50
315.0
 51
0.0
  0
CIRCLE
  5
113
330
2
100
AcDbEntity
  8
0
100
AcDbCircle
 10
-3.952164283835002
 20
6.351673724782668
 30
0.0
 40
0.0855
  0
LINE
  5
114
330
2
100
AcDbEntity
  8
0
100
AcDbLine
 10
-4.202169206988286
 20
6.601673724782657
 30
0.0
 11
-4.202169206988286
 21
6.098147300821378
 31
0.0
  0
LINE
  5
115
330
2
100
AcDbEntity
  8
0
100
AcDbLine
 10
-4.202169206988286
 20
6.098147402433749
 30
0.0
 11
-4.202169206988282
 21
6.671370605524738
 31
0.0
  0
LINE
  5
116
330
2
100
AcDbEntity
  8
0
100
AcDbLine
 10
-4.478057554636605
 20
6.947258953173066
 30
0.0
 11
-4.238780859339967
 21
6.707982257876425
 31
0.0
  0
ARC
  5
117
330
2
100
AcDbEntity
  8
0
100
AcDbCircle
 10
-4.389669206988286
 20
7.035647300821385
 30
0.0
 40
0.125
100
AcDbArc
 50
180.0
 51
225.0000000000003
  0
CIRCLE
  5
118
330
2
100
AcDbEntity
  8
0
100
AcDbCircle
 10
-3.202164283835002
 20
6.101673724782668
 30
0.0
 40
0.0855
  0
CIRCLE
  5
119
330
2
100
AcDbEntity
  8
0
100
AcDbCircle
 10
-3.514664283835002
 20
7.101673724782661
 30
0.0
 40
0.0855
  0
LINE
  5
11A
330
2
100
AcDbEntity
  8
0
100
AcDbLine
 10
-4.238780859339967
 20
8.009758953173058
 30
0.0
 11
-4.478057554636605
 21
7.77048225787642
 31
0.0
  0
CIRCLE
  5
11B
330
2
100
AcDbEntity
  8
0
100
AcDbCircle
 10
-4.264664283835002
 20
7.351673724782661
 30
0.0
 40
0.0855
  0
ARC
  5
11C
330
2
100
AcDbEntity
  8
0
100
AcDbCircle
 10
-4.389669206988286
 20
7.682093910228101
 30
0.0
 40
0.125
100
AcDbArc
 50
134.9999999999996
 51
180.0
  0
ARC
  5
11D
330
2
100
AcDbEntity
  8
0
100
AcDbCircle
 10
-4.327169206988286
 20
8.098147300821378
 30
0.0
 40
0.125
100
AcDbArc
 50
315.0
 51
0.0
  0
CIRCLE
  5
11E
330
2
100
AcDbEntity
  8
0
100
AcDbCircle
 10
-3.952164283835002
 20
8.351673724782668
 30
0.0
 40
0.0855
  0
ARC
  5
11F
330
2
100
AcDbEntity
  8
0
100
AcDbCircle
 10
-4.389669206988286
 20
9.682093910228101
 30
0.0
 40
0.125
100
AcDbArc
 50
134.9999999999996
 51
180.0
  0
LINE
  5
120
330
2
100
AcDbEntity
  8
0
100
AcDbLine
 10
-4.514669206988286
 20
9.682093910228101
 30
0.0
 11
-4.514669206988286
 21
9.035647300821385
 31
0.0
  0
LINE
  5
121
330
2
100
AcDbEntity
  8
0
100
AcDbLine
 10
-4.478057554636605
 20
8.947258953173066
 30
0.0
 11
-4.23878085933997
 21
8.707982257876427
 31
0.0
  0
ARC
  5
122
330
2
100
AcDbEntity
  8
0
100
AcDbCircle
 10
-4.389669206988286
 20
9.035647300821385
 30
0.0
 40
0.125
100
AcDbArc
 50
180.0
 51
225.0000000000003
  0
ARC
  5
123
330
2
100
AcDbEntity
  8
0
100
AcDbCircle
 10
-4.327169206988286
 20
8.619593910228108
 30
0.0
 40
0.125
100
AcDbArc
 50
0.0
 51
45.00000000000014
  0
CIRCLE
  5
124
330
2
100
AcDbEntity
  8
0
100
AcDbCircle
 10
-4.264664283835002
 20
9.351673724782661
 30
0.0
 40
0.0855
  0
CIRCLE
  5
125
330
2
100
AcDbEntity
  8
0
100
AcDbCircle
 10
-3.514664283835002
 20
9.101673724782661
 30
0.0
 40
0.0855
  0
CIRCLE
  5
126
330
2
100
AcDbEntity
  8
0
100
AcDbCircle
 10
-3.952164283835002
 20
10.35167372478267
 30
0.0
 40
0.0855
  0
LINE
  5
127
330
2
100
AcDbEntity
  8
0
100
AcDbLine
 10
-4.202169206988286
 20
10.60167372478266
 30
0.0
 11
-4.202169206988286
 21
10.09814730082138
 31
0.0
  0
LINE
  5
128
330
2
100
AcDbEntity
  8
0
100
AcDbLine
 10
-4.238780859339967
 20
10.00975895317306
 30
0.0
 11
-4.478057554636605
 21
9.77048225787642
 31
0.0
  0
ARC
  5
129
330
2
100
AcDbEntity
  8
0
100
AcDbCircle
 10
-4.327169206988286
 20
10.09814730082138
 30
0.0
 40
0.125
100
AcDbArc
 50
315.0
 51
0.0
  0
ELLIPSE
  5
12A
330
2
100
AcDbEntity
  8
0
100
AcDbEllipse
 10
-1.882464283835006
 20
7.226673724782661
 30
0.0
 11
0.0
 21
-0.1383375000000022
 31
0.0
210
0.0
220
0.0
230
-1.0
 40
0.9035872413481376
 41
0.0
 42
3.141592653589793
  0
LINE
  5
12B
330
2
100
AcDbEntity
  8
0
100
AcDbLine
 10
-1.882464283835006
 20
7.382923724782661
 30
0.0
 11
-1.882464283835006
 21
7.070423724782661
 31
0.0
  0
ELLIPSE
  5
12C
330
2
100
AcDbEntity
  8
0
100
AcDbEllipse
 10
-1.882464283835006
 20
7.226673724782675
 30
0.0
 11
0.0
 21
-0.1875000000000142
 31
0.0
210
0.0
220
0.0
230
-1.0
 40
0.9999999999999242
 41
0.0
 42
3.141592653589793
  0
CIRCLE
  5
12D
330
2
100
AcDbEntity
  8
0
100
AcDbCircle
 10
-2.511171803841117
 20
6.343750000000007
 30
0.0
 40
0.0855
  0
ELLIPSE
  5
12E
330
2
100
AcDbEntity
  8
0
100
AcDbEllipse
 10
-1.882464283835006
 20
6.226673724782675
 30
0.0
 11
0.0
 21
-0.1875000000000142
 31
0.0
210
0.0
220
0.0
230
-1.0
 40
0.9999999999999242
 41
0.0
 42
3.141592653589793
  0
ELLIPSE
  5
12F
330
2
100
AcDbEntity
  8
0
100
AcDbEllipse
 10
-1.882464283835006
 20
6.226673724782661
 30
0.0
 11
0.0
 21
-0.1383375000000022
 31
0.0
210
0.0
220
0.0
230
-1.0
 40
0.9035872413481376
 41
0.0
 42
3.141592653589793
  0
LINE
  5
130
330
2
100
AcDbEntity
  8
0
100
AcDbLine
 10
-1.882464283835006
 20
6.382923724782661
 30
0.0
 11
-1.882464283835006
 21
6.070423724782661
 31
0.0
  0
LINE
  5
131
330
2
100
AcDbEntity
  8
0
100
AcDbLine
 10
-1.882464283835006
 20
6.070423724782661
 30
0.0
 11
-1.882464283835006
 21
6.039173724782661
 31
0.0
  0
LINE
  5
132
330
2
100
AcDbEntity
  8
0
100
AcDbLine
 10
-1.882464283835006
 20
6.382923724782689
 30
0.0
 11
-1.882464283835006
 21
6.414173724782689
 31
0.0
  0
LINE
  5
133
330
2
100
AcDbEntity
  8
0
100
AcDbLine
 10
-1.882464283835006
 20
7.070423724782661
 30
0.0
 11
-1.882464283835006
 21
7.039173724782661
 31
0.0
  0
LINE
  5
134
330
2
100
AcDbEntity
  8
0
100
AcDbLine
 10
-1.882464283835006
 20
7.382923724782689
 30
0.0
 11
-1.882464283835006
 21
7.414173724782689
 31
0.0
  0
CIRCLE
  5
135
330
2
100
AcDbEntity
  8
0
100
AcDbCircle
 10
-2.511171803841117
 20
8.343750000000007
 30
0.0
 40
0.0855
  0
LINE
  5
136
330
2
100
AcDbEntity
  8
0
100
AcDbLine
 10
-1.882464283835006
 20
8.382923724782689
 30
0.0
 11
-1.882464283835006
 21
8.414173724782689
 31
0.0
  0
LINE
  5
137
330
2
100
AcDbEntity
  8
0
100
AcDbLine
 10
-1.882464283835006
 20
8.070423724782661
 30
0.0
 11
-1.882464283835006
 21
8.039173724782661
 31
0.0
  0
ELLIPSE
  5
138
330
2
100
AcDbEntity
  8
0
100
AcDbEllipse
 10
-1.882464283835006
 20
8.226673724782661
 30
0.0
 11
0.0
 21
-0.1383375000000022
 31
0.0
210
0.0
220
0.0
230
-1.0
 40
0.9035872413481376
 41
0.0
 42
3.141592653589793
  0
ELLIPSE
  5
139
330
2
100
AcDbEntity
  8
0
100
AcDbEllipse
 10
-1.882464283835006
 20
8.226673724782675
 30
0.0
 11
0.0
 21
-0.1875000000000142
 31
0.0
210
0.0
220
0.0
230
-1.0
 40
0.9999999999999242
 41
0.0
 42
3.141592653589793
  0
LINE
  5
13A
330
2
100
AcDbEntity
  8
0
100
AcDbLine
 10
-1.882464283835006
 20
8.382923724782661
 30
0.0
 11
-1.882464283835006
 21
8.070423724782661
 31
0.0
  0
ELLIPSE
  5
13B
330
2
100
AcDbEntity
  8
0
100
AcDbEllipse
 10
-1.882464283835006
 20
9.226673724782661
 30
0.0
 11
0.0
 21
-0.1383375000000022
 31
0.0
210
0.0
220
0.0
230
-1.0
 40
0.9035872413481376
 41
0.0
 42
3.141592653589793
  0
ELLIPSE
  5
13C
330
2
100
AcDbEntity
  8
0
100
AcDbEllipse
 10
-1.882464283835006
 20
9.226673724782675
 30
0.0
 11
0.0
 21
-0.1875000000000142
 31
0.0
210
0.0
220
0.0
230
-1.0
 40
0.9999999999999242
 41
0.0
 42
3.141592653589793
  0
LINE
  5
13D
330
2
100
AcDbEntity
  8
0
100
AcDbLine
 10
-1.882464283835006
 20
9.382923724782661
 30
0.0
 11
-1.882464283835006
 21
9.070423724782661
 31
0.0
  0
LINE
  5
13E
330
2
100
AcDbEntity
  8
0
100
AcDbLine
 10
-1.882464283835006
 20
9.070423724782661
 30
0.0
 11
-1.882464283835006
 21
9.039173724782661
 31
0.0
  0
LINE
  5
13F
330
2
100
AcDbEntity
  8
0
100
AcDbLine
 10
-1.882464283835006
 20
9.382923724782689
 30
0.0
 11
-1.882464283835006
 21
9.414173724782689
 31
0.0
  0
CIRCLE
  5
140
330
2
100
AcDbEntity
  8
0
100
AcDbCircle
 10
-2.511171803841117
 20
10.34375000000001
 30
0.0
 40
0.0855
  0
ELLIPSE
  5
142
330
2
100
AcDbEntity
  8
0
100
AcDbEllipse
 10
-1.882464283835006
 20
10.22667372478268
 30
0.0
 11
0.0
 21
-0.1875000000000142
 31
0.0
210
0.0
220
0.0
230
-1.0
 40
0.9999999999999242
 41
0.0
 42
3.141592653589793
  0
LINE
  5
143
330
2
100
AcDbEntity
  8
0
100
AcDbLine
 10
-1.882464283835006
 20
10.38292372478266
 30
0.0
 11
-1.882464283835006
 21
10.07042372478266
 31
0.0
  0
LINE
  5
144
330
2
100
AcDbEntity
  8
0
100
AcDbLine
 10
-1.882464283835006
 20
10.07042372478266
 30
0.0
 11
-1.882464283835006
 21
10.03917372478266
 31
0.0
  0
ELLIPSE
  5
145
330
2
100
AcDbEntity
  8
0
100
AcDbEllipse
 10
-1.882464283835006
 20
10.22667372478266
 30
0.0
 11
0.0
 21
-0.1383375000000022
 31
0.0
210
0.0
220
0.0
230
-1.0
 40
0.9035872413481376
 41
0.0
 42
3.141592653589793
  0
LINE
  5
146
330
2
100
AcDbEntity
  8
0
100
AcDbLine
 10
-1.882464283835006
 20
10.38292372478269
 30
0.0
 11
-1.882464283835006
 21
10.41417372478269
 31
0.0
  0
LINE
  5
14F
330
2
100
AcDbEntity
  8
0
100
AcDbLine
 10
4.20216900158996
 20
8.593749999999996
 30
0.0
 11
4.20216900158996
 21
8.090223576038721
 31
0.0
  0
LINE
  5
150
330
2
100
AcDbEntity
  8
0
100
AcDbLine
 10
4.202169001589953
 20
8.090223677651093
 30
0.0
 11
4.202169001589953
 21
8.593749999999996
 31
0.0
  0
LINE
  5
151
330
2
100
AcDbEntity
  8
0
100
AcDbLine
 10
4.20216900158996
 20
8.593749999999996
 30
0.0
 11
4.20216900158996
 21
8.090223576038721
 31
0.0
  0
LINE
  5
152
330
2
100
AcDbEntity
  8
0
100
AcDbLine
 10
4.202169001589953
 20
8.090223677651093
 30
0.0
 11
4.202169001589953
 21
8.593749999999996
 31
0.0
  0
CIRCLE
  5
153
330
2
100
AcDbEntity
  8
0
100
AcDbCircle
 10
3.952164078436669
 20
8.343750000000007
 30
0.0
 40
0.0855
  0
CIRCLE
  5
154
330
2
100
AcDbEntity
  8
0
100
AcDbCircle
 10
3.952164078436669
 20
6.343750000000007
 30
0.0
 40
0.0855
  0
LINE
  5
157
330
2
100
AcDbEntity
  8
0
100
AcDbLine
 10
1.882464078436671
 20
6.007423724782687
 30
0.0
 11
1.882464078436671
 21
6.038673724782687
 31
0.0
  0
CIRCLE
  5
158
330
2
100
AcDbEntity
  8
0
100
AcDbCircle
 10
2.514664078436661
 20
6.343750000000007
 30
0.0
 40
0.0855
  0
ELLIPSE
  5
15B
330
2
100
AcDbEntity
  8
0
100
AcDbEllipse
 10
1.882464078436671
 20
6.851173724782672
 30
0.0
 11
0.0
 21
-0.1875000000000142
 31
0.0
210
0.0
220
0.0
230
1.0
 40
0.9999999999999242
 41
0.0
 42
3.141592653589793
  0
ELLIPSE
  5
15C
330
2
100
AcDbEntity
  8
0
100
AcDbEllipse
 10
1.882464078436671
 20
6.851173724782658
 30
0.0
 11
0.0
 21
-0.1383375000000022
 31
0.0
210
0.0
220
0.0
230
1.0
 40
0.9035872413481376
 41
0.0
 42
3.141592653589793
  0
LINE
  5
15D
330
2
100
AcDbEntity
  8
0
100
AcDbLine
 10
1.882464078436671
 20
7.007423724782658
 30
0.0
 11
1.882464078436671
 21
6.694923724782658
 31
0.0
  0
LINE
  5
15E
330
2
100
AcDbEntity
  8
0
100
AcDbLine
 10
1.882464078436671
 20
6.694923724782658
 30
0.0
 11
1.882464078436671
 21
6.663673724782658
 31
0.0
  0
LINE
  5
15F
330
2
100
AcDbEntity
  8
0
100
AcDbLine
 10
1.882464078436671
 20
7.007423724782687
 30
0.0
 11
1.882464078436671
 21
7.038673724782687
 31
0.0
  0
CIRCLE
  5
160
330
2
100
AcDbEntity
  8
0
100
AcDbCircle
 10
3.202164078436669
 20
6.093750000000007
 30
0.0
 40
0.0855
  0
CIRCLE
  5
162
330
2
100
AcDbEntity
  8
0
100
AcDbCircle
 10
3.514664078436676
 20
7.09375
 30
0.0
 40
0.0855
  0
ELLIPSE
  5
163
330
2
100
AcDbEntity
  8
0
100
AcDbEllipse
 10
1.882464078436671
 20
7.851173724782658
 30
0.0
 11
0.0
 21
-0.1383375000000022
 31
0.0
210
0.0
220
0.0
230
1.0
 40
0.9035872413481376
 41
0.0
 42
3.141592653589793
  0
LINE
  5
164
330
2
100
AcDbEntity
  8
0
100
AcDbLine
 10
1.882464078436671
 20
8.007423724782658
 30
0.0
 11
1.882464078436671
 21
7.694923724782658
 31
0.0
  0
ELLIPSE
  5
165
330
2
100
AcDbEntity
  8
0
100
AcDbEllipse
 10
1.882464078436671
 20
7.851173724782672
 30
0.0
 11
0.0
 21
-0.1875000000000142
 31
0.0
210
0.0
220
0.0
230
1.0
 40
0.9999999999999242
 41
0.0
 42
3.141592653589793
  0
LINE
  5
166
330
2
100
AcDbEntity
  8
0
100
AcDbLine
 10
1.882464078436671
 20
7.694923724782658
 30
0.0
 11
1.882464078436671
 21
7.663673724782658
 31
0.0
  0
CIRCLE
  5
167
330
2
100
AcDbEntity
  8
0
100
AcDbCircle
 10
2.639664078436665
 20
7.71875
 30
0.0
 40
0.0855
  0
LINE
  5
168
330
2
100
AcDbEntity
  8
0
100
AcDbLine
 10
1.882464078436671
 20
8.007423724782687
 30
0.0
 11
1.882464078436671
 21
8.038673724782687
 31
0.0
  0
CIRCLE
  5
169
330
2
100
AcDbEntity
  8
0
100
AcDbCircle
 10
2.514664078436661
 20
8.343750000000007
 30
0.0
 40
0.0855
  0
LINE
  5
16A
330
2
100
AcDbEntity
  8
0
100
AcDbLine
 10
4.51466900158996
 20
7.674170185445444
 30
0.0
 11
4.51466900158996
 21
7.027723576038724
 31
0.0
  0
ARC
  5
16B
330
2
100
AcDbEntity
  8
0
100
AcDbCircle
 10
4.32716900158996
 20
6.611670185445451
 30
0.0
 40
0.125
100
AcDbArc
 50
134.9999999999999
 51
180.0
  0
LINE
  5
16C
330
2
100
AcDbEntity
  8
0
100
AcDbLine
 10
4.202169001589953
 20
6.090223677651093
 30
0.0
 11
4.202169001589953
 21
6.593749999999996
 31
0.0
  0
LINE
  5
16D
330
2
100
AcDbEntity
  8
0
100
AcDbLine
 10
4.20216900158996
 20
6.611670185445451
 30
0.0
 11
4.20216900158996
 21
6.090223576038721
 31
0.0
  0
ARC
  5
16F
330
2
100
AcDbEntity
  8
0
100
AcDbCircle
 10
4.38966900158996
 20
7.027723576038724
 30
0.0
 40
0.125
100
AcDbArc
 50
314.9999999999997
 51
0.0
  0
LINE
  5
170
330
2
100
AcDbEntity
  8
0
100
AcDbLine
 10
4.478057349238272
 20
6.939335228390405
 30
0.0
 11
4.238780653941641
 21
6.70005853309377
 31
0.0
  0
LINE
  5
171
330
2
100
AcDbEntity
  8
0
100
AcDbLine
 10
4.238780653941641
 20
8.001835228390402
 30
0.0
 11
4.478057349238272
 21
7.762558533093763
 31
0.0
  0
ARC
  5
172
330
2
100
AcDbEntity
  8
0
100
AcDbCircle
 10
4.38966900158996
 20
7.674170185445444
 30
0.0
 40
0.125
100
AcDbArc
 50
0.0
 51
45.00000000000033
  0
CIRCLE
  5
173
330
2
100
AcDbEntity
  8
0
100
AcDbCircle
 10
4.264664078436676
 20
7.34375
 30
0.0
 40
0.0855
  0
ARC
  5
174
330
2
100
AcDbEntity
  8
0
100
AcDbCircle
 10
4.32716900158996
 20
8.090223576038721
 30
0.0
 40
0.125
100
AcDbArc
 50
180.0
 51
225.0000000000001
  0
CIRCLE
  5
175
330
2
100
AcDbEntity
  8
0
100
AcDbCircle
 10
3.952164078436669
 20
10.34375000000001
 30
0.0
 40
0.0855
  0
LINE
  5
177
330
2
100
AcDbEntity
  8
0
100
AcDbLine
 10
1.788714078436671
 20
10.59375
 30
0.0
 11
4.202169001589953
 21
10.59375
 31
0.0
  0
ELLIPSE
  5
178
330
2
100
AcDbEntity
  8
0
100
AcDbEllipse
 10
1.882464078436671
 20
9.851173724782672
 30
0.0
 11
0.0
 21
-0.1875000000000142
 31
0.0
210
0.0
220
0.0
230
1.0
 40
0.9999999999999242
 41
0.0
 42
3.141592653589793
  0
ELLIPSE
  5
179
330
2
100
AcDbEntity
  8
0
100
AcDbEllipse
 10
1.882464078436671
 20
9.851173724782658
 30
0.0
 11
0.0
 21
-0.1383375000000022
 31
0.0
210
0.0
220
0.0
230
1.0
 40
0.9035872413481376
 41
0.0
 42
3.141592653589793
  0
LINE
  5
17A
330
2
100
AcDbEntity
  8
0
100
AcDbLine
 10
1.882464078436671
 20
10.00742372478266
 30
0.0
 11
1.882464078436671
 21
9.694923724782658
 31
0.0
  0
LINE
  5
17B
330
2
100
AcDbEntity
  8
0
100
AcDbLine
 10
1.882464078436671
 20
9.007423724782687
 30
0.0
 11
1.882464078436671
 21
9.038673724782687
 31
0.0
  0
LINE
  5
17C
330
2
100
AcDbEntity
  8
0
100
AcDbLine
 10
1.882464078436671
 20
8.694923724782658
 30
0.0
 11
1.882464078436671
 21
8.663673724782658
 31
0.0
  0
ELLIPSE
  5
17D
330
2
100
AcDbEntity
  8
0
100
AcDbEllipse
 10
1.882464078436671
 20
8.851173724782658
 30
0.0
 11
0.0
 21
-0.1383375000000022
 31
0.0
210
0.0
220
0.0
230
1.0
 40
0.9035872413481376
 41
0.0
 42
3.141592653589793
  0
ELLIPSE
  5
17E
330
2
100
AcDbEntity
  8
0
100
AcDbEllipse
 10
1.882464078436671
 20
8.851173724782672
 30
0.0
 11
0.0
 21
-0.1875000000000142
 31
0.0
210
0.0
220
0.0
230
1.0
 40
0.9999999999999242
 41
0.0
 42
3.141592653589793
  0
LINE
  5
17F
330
2
100
AcDbEntity
  8
0
100
AcDbLine
 10
1.882464078436671
 20
9.007423724782658
 30
0.0
 11
1.882464078436671
 21
8.694923724782658
 31
0.0
  0
LINE
  5
180
330
2
100
AcDbEntity
  8
0
100
AcDbLine
 10
1.882464078436671
 20
9.694923724782658
 30
0.0
 11
1.882464078436671
 21
9.663673724782658
 31
0.0
  0
CIRCLE
  5
182
330
2
100
AcDbEntity
  8
0
100
AcDbCircle
 10
2.639664078436665
 20
9.59375
 30
0.0
 40
0.0855
  0
CIRCLE
  5
184
330
2
100
AcDbEntity
  8
0
100
AcDbCircle
 10
3.514664078436676
 20
9.09375
 30
0.0
 40
0.0855
  0
CIRCLE
  5
187
330
2
100
AcDbEntity
  8
0
100
AcDbCircle
 10
2.514664078436661
 20
10.34375000000001
 30
0.0
 40
0.0855
  0
LINE
  5
189
330
2
100
AcDbEntity
  8
0
100
AcDbLine
 10
1.882464078436671
 20
10.00742372478269
 30
0.0
 11
1.882464078436671
 21
10.03867372478269
 31
0.0
  0
LINE
  5
18B
330
2
100
AcDbEntity
  8
0
100
AcDbLine
 10
4.51466900158996
 20
9.674170185445444
 30
0.0
 11
4.51466900158996
 21
9.027723576038724
 31
0.0
  0
ARC
  5
18C
330
2
100
AcDbEntity
  8
0
100
AcDbCircle
 10
4.38966900158996
 20
9.027723576038724
 30
0.0
 40
0.125
100
AcDbArc
 50
314.9999999999997
 51
0.0
  0
ARC
  5
18D
330
2
100
AcDbEntity
  8
0
100
AcDbCircle
 10
4.32716900158996
 20
8.611670185445451
 30
0.0
 40
0.125
100
AcDbArc
 50
134.9999999999999
 51
180.0
  0
LINE
  5
18E
330
2
100
AcDbEntity
  8
0
100
AcDbLine
 10
4.478057349238272
 20
8.939335228390405
 30
0.0
 11
4.238780653941641
 21
8.70005853309377
 31
0.0
  0
CIRCLE
  5
18F
330
2
100
AcDbEntity
  8
0
100
AcDbCircle
 10
4.264664078436676
 20
9.34375
 30
0.0
 40
0.0855
  0
LINE
  5
193
330
2
100
AcDbEntity
  8
0
100
AcDbLine
 10
4.202169001589953
 20
10.09022367765109
 30
0.0
 11
4.202169001589953
 21
10.59375
 31
0.0
  0
LINE
  5
194
330
2
100
AcDbEntity
  8
0
100
AcDbLine
 10
4.20216900158996
 20
10.59375
 30
0.0
 11
4.20216900158996
 21
10.09022357603872
 31
0.0
  0
ARC
  5
195
330
2
100
AcDbEntity
  8
0
100
AcDbCircle
 10
4.32716900158996
 20
10.09022357603872
 30
0.0
 40
0.125
100
AcDbArc
 50
180.0
 51
225.0000000000001
  0
LINE
  5
196
330
2
100
AcDbEntity
  8
0
100
AcDbLine
 10
4.238780653941641
 20
10.0018352283904
 30
0.0
 11
4.478057349238272
 21
9.762558533093763
 31
0.0
  0
LWPOLYLINE
  5
20D
330
2
100
AcDbEntity
  8
0
100
AcDbPolyline
 90
        2
 70
     0
 43
0.0
 10
4.478057349238272
 20
9.762558533093763
 10
4.51466900158996
 20
9.674170185445444
  0
LWPOLYLINE
  5
20E
330
2
100
AcDbEntity
  8
0
100
AcDbPolyline
 90
        2
 70
     0
 43
0.0
 10
4.20216900158996
 20
8.611670185445451
 10
4.20216900158996
 20
8.593749999999996
  0
ENDSEC
  0
SECTION
  2
OBJECTS
  0
DICTIONARY
  5
9
330
0
100
AcDbDictionary
281
     1
  3
ACAD_COLOR
350
212
  3
ACAD_GROUP
350
23
  3
ACAD_LAYOUT
350
D
  3
ACAD_MATERIAL
350
211
  3
ACAD_MLINESTYLE
350
24
  3
ACAD_PLOTSETTINGS
350
25
  3
ACAD_PLOTSTYLENAME
350
8
  3
ACAD_TABLESTYLE
350
213
  3
ACDBHEADERROUNDTRIPXREC
350
237
  3
AcDbVariableDictionary
350
207
  0
DICTIONARY
  5
212
102
{ACAD_REACTORS
330
9
102
}
330
9
100
AcDbDictionary
281
     1
  0
DICTIONARY
  5
23
102
{ACAD_REACTORS
330
9
102
}
330
9
100
AcDbDictionary
281
     1
  0
DICTIONARY
  5
D
102
{ACAD_REACTORS
330
9
102
}
330
9
100
AcDbDictionary
281
     1
  3
Layout1
350
13
  3
Model
350
C
  0
DICTIONARY
  5
211
102
{ACAD_REACTORS
330
9
102
}
330
9
100
AcDbDictionary
281
     1
  0
DICTIONARY
  5
24
102
{ACAD_REACTORS
330
9
102
}
330
9
100
AcDbDictionary
281
     1
  3
STANDARD
350
26
  0
DICTIONARY
  5
25
102
{ACAD_REACTORS
330
9
102
}
330
9
100
AcDbDictionary
281
     1
  0
ACDBDICTIONARYWDFLT
  5
8
102
{ACAD_REACTORS
330
9
102
}
330
9
100
AcDbDictionary
281
     1
  3
Normal
350
7
100
AcDbDictionaryWithDefault
340
7
  0
DICTIONARY
  5
213
102
{ACAD_REACTORS
330
9
102
}
330
9
100
AcDbDictionary
281
     1
  3
Standard
350
214
  0
DICTIONARY
  5
237
102
{ACAD_REACTORS
330
9
102
}
330
9
100
AcDbDictionary
281
     1
  3
COLORDICT
350
238
  3
MATERIALDICT
350
239
  0
DICTIONARY
  5
207
102
{ACAD_REACTORS
330
9
102
}
330
9
100
AcDbDictionary
281
     1
  3
CTABLESTYLE
350
225
  3
HIDETEXT
350
236
  0
LAYOUT
  5
13
102
{ACAD_REACTORS
330
D
102
}
102
{ACAD_XDICTIONARY
360
23A
102
}
330
D
100
AcDbPlotSettings
  1

  2
HP LaserJet 2100 Series PS
  4

  6

 40
0.0
 41
0.0
 42
0.0
 43
0.0
 44
0.0
 45
0.0
 46
0.0
 47
0.0
 48
0.0
 49
0.0
140
0.0
141
0.0
142
1.0
143
1.0
 70
   688
 72
     0
 73
     0
 74
     5
  7

 75
    16
147
1.0
148
0.0
149
0.0
100
AcDbLayout
  1
Layout1
 70
     0
 71
     1
 10
0.0
 20
0.0
 11
12.0
 21
9.0
 12
0.0
 22
0.0
 32
0.0
 14
1.000000000000000E+20
 24
1.000000000000000E+20
 34
1.000000000000000E+20
 15
-1.000000000000000E+20
 25
-1.000000000000000E+20
 35
-1.000000000000000E+20
146
0.0
 13
0.0
 23
0.0
 33
0.0
 16
1.0
 26
0.0
 36
0.0
 17
0.0
 27
1.0
 37
0.0
 76
     0
330
E
  0
LAYOUT
  5
C
102
{ACAD_REACTORS
330
D
102
}
102
{ACAD_XDICTIONARY
360
23C
102
}
330
D
100
AcDbPlotSettings
  1

  2
HP LaserJet 2100 Series PS
  4
Letter
  6

 40
5.365749835968018
 41
5.408084392547607
 42
5.4080810546875
 43
5.365753173828125
 44
215.8999938964844
 45
279.3999938964844
 46
0.0
 47
0.0
 48
0.0
 49
0.0
140
0.0
141
0.0
142
1.0
143
3.971318409846261
 70
 11952
 72
     0
 73
     1
 74
     2
  7

 75
     0
147
0.2518055458662435
148
0.0
149
0.0
100
AcDbLayout
  1
Model
 70
     1
 71
     0
 10
0.0
 20
0.0
 11
12.0
 21
9.0
 12
0.0
 22
0.0
 32
0.0
 14
0.0
 24
0.0
 34
0.0
 15
0.0
 25
0.0
 35
0.0
146
0.0
 13
0.0
 23
0.0
 33
0.0
 16
1.0
 26
0.0
 36
0.0
 17
0.0
 27
1.0
 37
0.0
 76
     0
330
2
  0
MLINESTYLE
  5
26
102
{ACAD_REACTORS
330
24
102
}
330
24
100
AcDbMlineStyle
  2
STANDARD
 70
     0
  3

 62
   256
 51
90.0
 52
90.0
 71
     2
 49
0.5
 62
   256
  6
BYLAYER
 49
-0.5
 62
   256
  6
BYLAYER
  0
ACDBPLACEHOLDER
  5
7
102
{ACAD_REACTORS
330
8
102
}
330
8
  0
ACAD_PROXY_OBJECT
  5
214
102
{ACAD_REACTORS
330
213
102
}
330
213
100
AcDbProxyObject
 90
      499
 91
      565
 95
   983063
 70
     0
 93
     1841
310
4214DD185B99185C9928B81E85EB51B8AE3F2E07A17AD46E2B8FC02B5E8DC0F42B1CFD028000000C1008070000C3001FDFF8000000C1003FBFF000000182007F7FE00000030400FEFFC00000060801FDFF8000000C1003FBFF00000018200000000000000681FA0B0000001820100E000186003FBFF000000182007F7FE000
310
00030400FEFFC00000060801FDFF8000000C1003FBFF000000182007F7FE000000304000AD7A3703D0AC73F4160000003040201C00030C007F7FE00000030400FEFFC00000060801FDFF8000000C1003FBFF000000182007F7FE00000030400FEFFC000000608000
340
16
340
16
340
16
 94
        0
  0
XRECORD
  5
238
102
{ACAD_REACTORS
330
237
102
}
330
237
100
AcDbXrecord
340
212
  0
XRECORD
  5
239
102
{ACAD_REACTORS
330
237
102
}
330
237
100
AcDbXrecord
340
211
  0
DICTIONARYVAR
  5
225
102
{ACAD_REACTORS
330
207
102
}
330
207
100
DictionaryVariables
280
     0
  1
STANDARD
  0
DICTIONARYVAR
  5
236
102
{ACAD_REACTORS
330
207
102
}
330
207
100
DictionaryVariables
280
     0
  1
0
  0
DICTIONARY
  5
23A
330
13
100
AcDbDictionary
280
     1
281
     1
  3
ACAD_XREC_ROUNDTRIP
360
23B
  0
DICTIONARY
  5
23C
330
C
100
AcDbDictionary
280
     1
281
     1
  3
ACAD_XREC_ROUNDTRIP
360
23D
  0
XRECORD
  5
23B
102
{ACAD_REACTORS
330
23A
102
}
330
23A
100
AcDbXrecord
102
SHADEPLOT
 70
     0
102
SHADEPLOTRESLEVEL
 70
     2
102
SHADEPLOTCUSTOMDPI
 70
   300
  0
XRECORD
  5
23D
102
{ACAD_REACTORS
330
23C
102
}
330
23C
100
AcDbXrecord
102
SHADEPLOT
 70
     0
102
SHADEPLOTRESLEVEL
 70
     2
102
SHADEPLOTCUSTOMDPI
 70
   300
  0
ENDSEC
  0
EOF
