  0
SECTION
  2
HEADER
  9
$ACADVER
  1
AC1015
  9
$ACADMAINTVER
 70
     6
  9
$DWGCODEPAGE
  3
ANSI_1252
  9
$INSBASE
 10
0.0
 20
0.0
 30
0.0
  9
$EXTMIN
 10
-15.0800622517317
 20
-0.0388325214724794
 30
0.0
  9
$EXTMAX
 10
13.66914993057776
 20
19.49849192647235
 30
0.0
  9
$LIMMIN
 10
0.0
 20
0.0
  9
$LIMMAX
 10
42.0
 20
32.0
  9
$ORTHOMODE
 70
     1
  9
$REGENMODE
 70
     1
  9
$FILLMODE
 70
     1
  9
$QTEXTMODE
 70
     0
  9
$MIRRTEXT
 70
     0
  9
$LTSCALE
 40
1.0
  9
$ATTMODE
 70
     1
  9
$TEXTSIZE
 40
0.36
  9
$TRACEWID
 40
0.05
  9
$TEXTSTYLE
  7
STANDARD
  9
$CLAYER
  8
0
  9
$CELTYPE
  6
BYLAYER
  9
$CECOLOR
 62
   256
  9
$CELTSCALE
 40
1.0
  9
$DISPSILH
 70
     0
  9
$DIMSCALE
 40
4.0
  9
$DIMASZ
 40
0.125
  9
$DIMEXO
 40
0.062
  9
$DIMDLI
 40
0.375
  9
$DIMRND
 40
0.0
  9
$DIMDLE
 40
0.0
  9
$DIMEXE
 40
0.08
  9
$DIMTP
 40
0.0
  9
$DIMTM
 40
0.0
  9
$DIMTXT
 40
0.09
  9
$DIMCEN
 40
-0.06
  9
$DIMTSZ
 40
0.0
  9
$DIMTOL
 70
     0
  9
$DIMLIM
 70
     0
  9
$DIMTIH
 70
     1
  9
$DIMTOH
 70
     1
  9
$DIMSE1
 70
     0
  9
$DIMSE2
 70
     0
  9
$DIMTAD
 70
     0
  9
$DIMZIN
 70
     0
  9
$DIMBLK
  1

  9
$DIMASO
 70
     0
  9
$DIMSHO
 70
     0
  9
$DIMPOST
  1

  9
$DIMAPOST
  1

  9
$DIMALT
 70
     0
  9
$DIMALTD
 70
     2
  9
$DIMALTF
 40
25.4
  9
$DIMLFAC
 40
1.0
  9
$DIMTOFL
 70
     0
  9
$DIMTVP
 40
0.0
  9
$DIMTIX
 70
     0
  9
$DIMSOXD
 70
     0
  9
$DIMSAH
 70
     0
  9
$DIMBLK1
  1

  9
$DIMBLK2
  1

  9
$DIMSTYLE
  2
STANDARD
  9
$DIMCLRD
 70
     0
  9
$DIMCLRE
 70
     0
  9
$DIMCLRT
 70
     0
  9
$DIMTFAC
 40
1.0
  9
$DIMGAP
 40
0.09375
  9
$DIMJUST
 70
     0
  9
$DIMSD1
 70
     0
  9
$DIMSD2
 70
     0
  9
$DIMTOLJ
 70
     1
  9
$DIMTZIN
 70
     0
  9
$DIMALTZ
 70
     0
  9
$DIMALTTZ
 70
     0
  9
$DIMUPT
 70
     0
  9
$DIMDEC
 70
     5
  9
$DIMTDEC
 70
     5
  9
$DIMALTU
 70
     5
  9
$DIMALTTD
 70
     2
  9
$DIMTXSTY
  7
STANDARD
  9
$DIMAUNIT
 70
     0
  9
$DIMADEC
 70
     0
  9
$DIMALTRND
 40
0.0
  9
$DIMAZIN
 70
     0
  9
$DIMDSEP
 70
    46
  9
$DIMATFIT
 70
     3
  9
$DIMFRAC
 70
     2
  9
$DIMLDRBLK
  1

  9
$DIMLUNIT
 70
     5
  9
$DIMLWD
 70
    -2
  9
$DIMLWE
 70
    -2
  9
$DIMTMOVE
 70
     2
  9
$LUNITS
 70
     5
  9
$LUPREC
 70
     5
  9
$SKETCHINC
 40
0.1
  9
$FILLETRAD
 40
0.0
  9
$AUNITS
 70
     0
  9
$AUPREC
 70
     0
  9
$MENU
  1
SIMPSON
  9
$ELEVATION
 40
0.0
  9
$PELEVATION
 40
0.0
  9
$THICKNESS
 40
0.0
  9
$LIMCHECK
 70
     0
  9
$CHAMFERA
 40
0.0
  9
$CHAMFERB
 40
0.0
  9
$CHAMFERC
 40
0.0
  9
$CHAMFERD
 40
0.0
  9
$SKPOLY
 70
     0
  9
$TDCREATE
 40
2448957.754094329
  9
$TDUCREATE
 40
2448958.087427662
  9
$TDUPDATE
 40
2454165.948988785
  9
$TDUUPDATE
 40
2454166.282322118
  9
$TDINDWG
 40
0.2084258333
  9
$TDUSRTIMER
 40
0.2084258333
  9
$USRTIMER
 70
     1
  9
$ANGBASE
 50
0.0
  9
$ANGDIR
 70
     0
  9
$PDMODE
 70
     0
  9
$PDSIZE
 40
0.0
  9
$PLINEWID
 40
0.0
  9
$SPLFRAME
 70
     0
  9
$SPLINETYPE
 70
     6
  9
$SPLINESEGS
 70
     8
  9
$HANDSEED
  5
23E
  9
$SURFTAB1
 70
     6
  9
$SURFTAB2
 70
     6
  9
$SURFTYPE
 70
     6
  9
$SURFU
 70
     6
  9
$SURFV
 70
     6
  9
$UCSBASE
  2

  9
$UCSNAME
  2

  9
$UCSORG
 10
0.0
 20
0.0
 30
0.0
  9
$UCSXDIR
 10
1.0
 20
0.0
 30
0.0
  9
$UCSYDIR
 10
0.0
 20
1.0
 30
0.0
  9
$UCSORTHOREF
  2

  9
$UCSORTHOVIEW
 70
     0
  9
$UCSORGTOP
 10
0.0
 20
0.0
 30
0.0
  9
$UCSORGBOTTOM
 10
0.0
 20
0.0
 30
0.0
  9
$UCSORGLEFT
 10
0.0
 20
0.0
 30
0.0
  9
$UCSORGRIGHT
 10
0.0
 20
0.0
 30
0.0
  9
$UCSORGFRONT
 10
0.0
 20
0.0
 30
0.0
  9
$UCSORGBACK
 10
0.0
 20
0.0
 30
0.0
  9
$PUCSBASE
  2

  9
$PUCSNAME
  2

  9
$PUCSORG
 10
0.0
 20
0.0
 30
0.0
  9
$PUCSXDIR
 10
1.0
 20
0.0
 30
0.0
  9
$PUCSYDIR
 10
0.0
 20
1.0
 30
0.0
  9
$PUCSORTHOREF
  2

  9
$PUCSORTHOVIEW
 70
     0
  9
$PUCSORGTOP
 10
0.0
 20
0.0
 30
0.0
  9
$PUCSORGBOTTOM
 10
0.0
 20
0.0
 30
0.0
  9
$PUCSORGLEFT
 10
0.0
 20
0.0
 30
0.0
  9
$PUCSORGRIGHT
 10
0.0
 20
0.0
 30
0.0
  9
$PUCSORGFRONT
 10
0.0
 20
0.0
 30
0.0
  9
$PUCSORGBACK
 10
0.0
 20
0.0
 30
0.0
  9
$USERI1
 70
     0
  9
$USERI2
 70
     0
  9
$USERI3
 70
     0
  9
$USERI4
 70
     0
  9
$USERI5
 70
     0
  9
$USERR1
 40
0.0
  9
$USERR2
 40
0.0
  9
$USERR3
 40
0.0
  9
$USERR4
 40
0.0
  9
$USERR5
 40
0.0
  9
$WORLDVIEW
 70
     1
  9
$SHADEDGE
 70
     3
  9
$SHADEDIF
 70
    70
  9
$TILEMODE
 70
     1
  9
$MAXACTVP
 70
    16
  9
$PINSBASE
 10
0.0
 20
0.0
 30
0.0
  9
$PLIMCHECK
 70
     0
  9
$PEXTMIN
 10
1.000000000000000E+20
 20
1.000000000000000E+20
 30
1.000000000000000E+20
  9
$PEXTMAX
 10
-1.000000000000000E+20
 20
-1.000000000000000E+20
 30
-1.000000000000000E+20
  9
$PLIMMIN
 10
0.0
 20
0.0
  9
$PLIMMAX
 10
12.0
 20
9.0
  9
$UNITMODE
 70
     0
  9
$VISRETAIN
 70
     0
  9
$PLINEGEN
 70
     0
  9
$PSLTSCALE
 70
     0
  9
$TREEDEPTH
 70
  3020
  9
$CMLSTYLE
  2
STANDARD
  9
$CMLJUST
 70
     0
  9
$CMLSCALE
 40
1.0
  9
$PROXYGRAPHICS
 70
     1
  9
$MEASUREMENT
 70
     0
  9
$CELWEIGHT
370
    -1
  9
$ENDCAPS
280
     0
  9
$JOINSTYLE
280
     0
  9
$LWDISPLAY
290
     0
  9
$INSUNITS
 70
     0
  9
$HYPERLINKBASE
  1

  9
$STYLESHEET
  1

  9
$XEDIT
290
     1
  9
$CEPSNTYPE
380
     0
  9
$PSTYLEMODE
290
     1
  9
$FINGERPRINTGUID
  2
{41B22419-8B17-11D5-BE3F-00508B5FCD51}
  9
$VERSIONGUID
  2
{956F3C22-7016-451C-AC8A-EECCE254AEBA}
  9
$EXTNAMES
290
     1
  9
$PSVPSCALE
 40
0.0
  9
$OLESTARTUP
290
     0
  0
ENDSEC
  0
SECTION
  2
CLASSES
  0
CLASS
  1
DICTIONARYVAR
  2
AcDbDictionaryVar
  3
AutoCAD 2000
 90
        0
280
     0
281
     0
  0
CLASS
  1
LWPOLYLINE
  2
AcDbPolyline
  3
AutoCAD 2000
 90
        0
280
     0
281
     1
  0
CLASS
  1
ACDBDICTIONARYWDFLT
  2
AcDbDictionaryWithDefault
  3
AutoCAD 2000
 90
        0
280
     0
281
     0
  0
CLASS
  1
ACDBPLACEHOLDER
  2
AcDbPlaceHolder
  3
ObjectDBX Classes
 90
        0
280
     0
281
     0
  0
CLASS
  1
LAYOUT
  2
AcDbLayout
  3
ObjectDBX Classes
 90
        0
280
     0
281
     0
  0
CLASS
  1
LONG_TRANSACTION
  2
AcDbLongTransaction
  3
ObjectDBX Classes
 90
   -65536
280
     1
281
     0
  0
CLASS
  1
LWPOLYLINE
  2
AcDbPolyline
  3
AutoCAD 2000
 90
        0
280
     0
281
     1
  0
CLASS
  1
HATCH
  2
AcDbHatch
  3
AutoCAD 2000
 90
        0
280
     0
281
     1
  0
CLASS
  1
XRECORD
  2
AcDbXrecord
  3
AutoCAD 2000
 90
        0
280
     0
281
     0
  0
CLASS
  1
LONG_TRANSACTION
  2
AcDbLongTransaction
  3
ObjectDBX Classes
 90
   -65536
280
     1
281
     0
  0
CLASS
  1
LWPOLYLINE
  2
AcDbPolyline
  3
AutoCAD 2000
 90
        0
280
     0
281
     1
  0
CLASS
  1
HATCH
  2
AcDbHatch
  3
AutoCAD 2000
 90
        0
280
     0
281
     1
  0
CLASS
  1
XRECORD
  2
AcDbXrecord
  3
AutoCAD 2000
 90
        0
280
     0
281
     0
  0
CLASS
  1
LONG_TRANSACTION
  2
AcDbLongTransaction
  3
ObjectDBX Classes
 90
   -65536
280
     1
281
     0
  0
CLASS
  1
LWPOLYLINE
  2
AcDbPolyline
  3
AutoCAD 2000
 90
        0
280
     0
281
     1
  0
CLASS
  1
HATCH
  2
AcDbHatch
  3
AutoCAD 2000
 90
        0
280
     0
281
     1
  0
CLASS
  1
XRECORD
  2
AcDbXrecord
  3
AutoCAD 2000
 90
        0
280
     0
281
     0
  0
CLASS
  1
LONG_TRANSACTION
  2
AcDbLongTransaction
  3
ObjectDBX Classes
 90
   -65536
280
     1
281
     0
  0
CLASS
  1
LWPOLYLINE
  2
AcDbPolyline
  3
AutoCAD 2000
 90
        0
280
     0
281
     1
  0
CLASS
  1
HATCH
  2
AcDbHatch
  3
AutoCAD 2000
 90
        0
280
     0
281
     1
  0
CLASS
  1
XRECORD
  2
AcDbXrecord
  3
AutoCAD 2000
 90
        0
280
     0
281
     0
  0
CLASS
  1
LONG_TRANSACTION
  2
AcDbLongTransaction
  3
ObjectDBX Classes
 90
   -65536
280
     1
281
     0
  0
CLASS
  1
LWPOLYLINE
  2
AcDbPolyline
  3
AutoCAD 2000
 90
        0
280
     0
281
     1
  0
CLASS
  1
HATCH
  2
AcDbHatch
  3
AutoCAD 2000
 90
        0
280
     0
281
     1
  0
CLASS
  1
XRECORD
  2
AcDbXrecord
  3
AutoCAD 2000
 90
        0
280
     0
281
     0
  0
CLASS
  1
LONG_TRANSACTION
  2
AcDbLongTransaction
  3
ObjectDBX Classes
 90
   -65536
280
     1
281
     0
  0
CLASS
  1
LWPOLYLINE
  2
AcDbPolyline
  3
AutoCAD 2000
 90
        0
280
     0
281
     1
  0
CLASS
  1
HATCH
  2
AcDbHatch
  3
AutoCAD 2000
 90
        0
280
     0
281
     1
  0
CLASS
  1
XRECORD
  2
AcDbXrecord
  3
AutoCAD 2000
 90
        0
280
     0
281
     0
  0
CLASS
  1
LONG_TRANSACTION
  2
AcDbLongTransaction
  3
ObjectDBX Classes
 90
   -65536
280
     1
281
     0
  0
CLASS
  1
LWPOLYLINE
  2
AcDbPolyline
  3
AutoCAD 2000
 90
        0
280
     0
281
     1
  0
CLASS
  1
HATCH
  2
AcDbHatch
  3
AutoCAD 2000
 90
        0
280
     0
281
     1
  0
CLASS
  1
XRECORD
  2
AcDbXrecord
  3
AutoCAD 2000
 90
        0
280
     0
281
     0
  0
CLASS
  1
LONG_TRANSACTION
  2
AcDbLongTransaction
  3
ObjectDBX Classes
 90
   -65536
280
     1
281
     0
  0
CLASS
  1
LWPOLYLINE
  2
AcDbPolyline
  3
AutoCAD 2000
 90
        0
280
     0
281
     1
  0
CLASS
  1
HATCH
  2
AcDbHatch
  3
AutoCAD 2000
 90
        0
280
     0
281
     1
  0
CLASS
  1
XRECORD
  2
AcDbXrecord
  3
AutoCAD 2000
 90
        0
280
     0
281
     0
  0
CLASS
  1
LONG_TRANSACTION
  2
AcDbLongTransaction
  3
ObjectDBX Classes
 90
   -65536
280
     1
281
     0
  0
CLASS
  1
LWPOLYLINE
  2
AcDbPolyline
  3
AutoCAD 2000
 90
        0
280
     0
281
     1
  0
CLASS
  1
HATCH
  2
AcDbHatch
  3
AutoCAD 2000
 90
        0
280
     0
281
     1
  0
CLASS
  1
XRECORD
  2
AcDbXrecord
  3
AutoCAD 2000
 90
        0
280
     0
281
     0
  0
CLASS
  1
LONG_TRANSACTION
  2
AcDbLongTransaction
  3
ObjectDBX Classes
 90
   -65536
280
     1
281
     0
  0
CLASS
  1
LWPOLYLINE
  2
AcDbPolyline
  3
AutoCAD 2000
 90
        0
280
     0
281
     1
  0
CLASS
  1
HATCH
  2
AcDbHatch
  3
AutoCAD 2000
 90
        0
280
     0
281
     1
  0
CLASS
  1
XRECORD
  2
AcDbXrecord
  3
AutoCAD 2000
 90
        0
280
     0
281
     0
  0
CLASS
  1
LONG_TRANSACTION
  2
AcDbLongTransaction
  3
ObjectDBX Classes
 90
   -65536
280
     1
281
     0
  0
CLASS
  1
LWPOLYLINE
  2
AcDbPolyline
  3
AutoCAD 2000
 90
        0
280
     0
281
     1
  0
CLASS
  1
HATCH
  2
AcDbHatch
  3
AutoCAD 2000
 90
        0
280
     0
281
     1
  0
CLASS
  1
XRECORD
  2
AcDbXrecord
  3
AutoCAD 2000
 90
        0
280
     0
281
     0
  0
CLASS
  1
LONG_TRANSACTION
  2
AcDbLongTransaction
  3
ObjectDBX Classes
 90
   -65536
280
     1
281
     0
  0
CLASS
  1
LWPOLYLINE
  2
AcDbPolyline
  3
AutoCAD 2000
 90
        0
280
     0
281
     1
  0
CLASS
  1
HATCH
  2
AcDbHatch
  3
AutoCAD 2000
 90
        0
280
     0
281
     1
  0
CLASS
  1
XRECORD
  2
AcDbXrecord
  3
AutoCAD 2000
 90
        0
280
     0
281
     0
  0
CLASS
  1
LONG_TRANSACTION
  2
AcDbLongTransaction
  3
ObjectDBX Classes
 90
   -65536
280
     1
281
     0
  0
CLASS
  1
LWPOLYLINE
  2
AcDbPolyline
  3
AutoCAD 2000
 90
        0
280
     0
281
     1
  0
CLASS
  1
HATCH
  2
AcDbHatch
  3
AutoCAD 2000
 90
        0
280
     0
281
     1
  0
CLASS
  1
XRECORD
  2
AcDbXrecord
  3
AutoCAD 2000
 90
        0
280
     0
281
     0
  0
CLASS
  1
LONG_TRANSACTION
  2
AcDbLongTransaction
  3
ObjectDBX Classes
 90
   -65536
280
     1
281
     0
  0
CLASS
  1
LWPOLYLINE
  2
AcDbPolyline
  3
AutoCAD 2000
 90
        0
280
     0
281
     1
  0
CLASS
  1
HATCH
  2
AcDbHatch
  3
AutoCAD 2000
 90
        0
280
     0
281
     1
  0
CLASS
  1
XRECORD
  2
AcDbXrecord
  3
AutoCAD 2000
 90
        0
280
     0
281
     0
  0
CLASS
  1
LONG_TRANSACTION
  2
AcDbLongTransaction
  3
ObjectDBX Classes
 90
   -65536
280
     1
281
     0
  0
CLASS
  1
LWPOLYLINE
  2
AcDbPolyline
  3
AutoCAD 2000
 90
        0
280
     0
281
     1
  0
CLASS
  1
HATCH
  2
AcDbHatch
  3
AutoCAD 2000
 90
        0
280
     0
281
     1
  0
CLASS
  1
XRECORD
  2
AcDbXrecord
  3
AutoCAD 2000
 90
        0
280
     0
281
     0
  0
CLASS
  1
TABLESTYLE
  2
AcDbTableStyle
  3
ObjectDBX Classes
 90
     2047
280
     1
281
     0
  0
ENDSEC
  0
SECTION
  2
TABLES
  0
TABLE
  2
VPORT
  5
1D
330
0
100
AcDbSymbolTable
 70
     3
  0
VPORT
  5
230
330
1D
100
AcDbSymbolTableRecord
100
AcDbViewportTableRecord
  2
*Active
 70
     0
 10
0.0
 20
0.0
 11
1.0
 21
1.0
 12
10.14797978186131
 22
11.31614148132822
 13
0.0
 23
0.0
 14
0.063
 24
0.063
 15
0.25
 25
0.25
 16
0.0
 26
0.0
 36
1.0
 17
0.0
 27
0.0
 37
0.0
 40
32.44069672469845
 41
1.814583333333333
 42
50.0
 43
0.0
 44
0.0
 50
0.0
 51
0.0
 71
     0
 72
   100
 73
     1
 74
     1
 75
     0
 76
     0
 77
     0
 78
     0
281
     0
 65
     1
110
0.0
120
0.0
130
0.0
111
1.0
121
0.0
131
0.0
112
0.0
122
1.0
132
0.0
 79
     0
146
0.0
  0
ENDTAB
  0
TABLE
  2
LTYPE
  5
18
330
0
100
AcDbSymbolTable
 70
     2
  0
LTYPE
  5
19
330
18
100
AcDbSymbolTableRecord
100
AcDbLinetypeTableRecord
  2
BYBLOCK
 70
     0
  3

 72
    65
 73
     0
 40
0.0
  0
LTYPE
  5
1A
330
18
100
AcDbSymbolTableRecord
100
AcDbLinetypeTableRecord
  2
BYLAYER
 70
     0
  3

 72
    65
 73
     0
 40
0.0
  0
LTYPE
  5
A
330
18
100
AcDbSymbolTableRecord
100
AcDbLinetypeTableRecord
  2
CONTINUOUS
 70
     0
  3
Solid line
 72
    65
 73
     0
 40
0.0
  0
LTYPE
  5
30
330
18
100
AcDbSymbolTableRecord
100
AcDbLinetypeTableRecord
  2
DASHED
 70
     0
  3
__ __ __ __ __ __ __ __ __ __ __ __ __ __ __
 72
    65
 73
     2
 40
0.75
 49
0.5
 74
     0
 49
-0.25
 74
     0
  0
ENDTAB
  0
TABLE
  2
LAYER
  5
14
330
0
100
AcDbSymbolTable
 70
     1
  0
LAYER
  5
6
330
14
100
AcDbSymbolTableRecord
100
AcDbLayerTableRecord
  2
0
 70
     0
 62
     7
  6
CONTINUOUS
370
    -3
390
7
  0
ENDTAB
  0
TABLE
  2
STYLE
  5
15
330
0
100
AcDbSymbolTable
 70
     1
  0
STYLE
  5
16
330
15
100
AcDbSymbolTableRecord
100
AcDbTextStyleTableRecord
  2
STANDARD
 70
     0
 40
0.0
 41
1.0
 50
0.0
 71
     0
 42
0.36
  3
TXT
  4

  0
ENDTAB
  0
TABLE
  2
VIEW
  5
1B
330
0
100
AcDbSymbolTable
 70
     0
  0
ENDTAB
  0
TABLE
  2
UCS
  5
1C
330
0
100
AcDbSymbolTable
 70
     0
  0
ENDTAB
  0
TABLE
  2
APPID
  5
1F
330
0
100
AcDbSymbolTable
 70
     1
  0
APPID
  5
20
330
1F
100
AcDbSymbolTableRecord
100
AcDbRegAppTableRecord
  2
ACAD
 70
     0
  0
ENDTAB
  0
TABLE
  2
DIMSTYLE
  5
21
330
0
100
AcDbSymbolTable
 70
     1
100
AcDbDimStyleTable
  0
DIMSTYLE
105
27
330
21
100
AcDbSymbolTableRecord
100
AcDbDimStyleTableRecord
  2
STANDARD
 70
     0
  3

  4

340
16
  0
ENDTAB
  0
TABLE
  2
BLOCK_RECORD
  5
1
330
0
100
AcDbSymbolTable
 70
     0
  0
BLOCK_RECORD
  5
2
330
1
100
AcDbSymbolTableRecord
100
AcDbBlockTableRecord
  2
*MODEL_SPACE
340
C
  0
BLOCK_RECORD
  5
E
330
1
100
AcDbSymbolTableRecord
100
AcDbBlockTableRecord
  2
*PAPER_SPACE
340
13
  0
ENDTAB
  0
ENDSEC
  0
SECTION
  2
BLOCKS
  0
BLOCK
  5
5
330
2
100
AcDbEntity
  8
0
100
AcDbBlockBegin
  2
*MODEL_SPACE
 70
     0
 10
0.0
 20
0.0
 30
0.0
  3
*MODEL_SPACE
  1

  4

  0
ENDBLK
  5
B
330
2
100
AcDbEntity
  8
0
100
AcDbBlockEnd
  0
BLOCK
  5
11
330
E
100
AcDbEntity
 67
     1
  8
0
100
AcDbBlockBegin
  2
*PAPER_SPACE
 70
     0
 10
0.0
 20
0.0
 30
0.0
  3
*PAPER_SPACE
  1

  4

  0
ENDBLK
  5
12
330
E
100
AcDbEntity
 67
     1
  8
0
100
AcDbBlockEnd
  0
ENDSEC
  0
SECTION
  2
ENTITIES
  0
LINE
  5
197
330
2
100
AcDbEntity
  8
0
  6
Continuous
100
AcDbLine
 10
1.85537605319459
 20
0.3806779976197348
 30
0.0
 11
1.855376053194583
 21
10.56992372478266
 31
0.0
  0
LINE
  5
198
330
2
100
AcDbEntity
  8
0
  6
Continuous
100
AcDbLine
 10
1.76162605319459
 20
0.3057337165496961
 30
0.0
 11
1.76162605319459
 21
6.569923724782655
 31
0.0
  0
ARC
  5
199
330
2
100
AcDbEntity
  8
0
100
AcDbCircle
 10
0.2063309763478713
 20
6.066397300821382
 30
0.0
 40
0.125
100
AcDbArc
 50
180.0
 51
225.0000000000001
  0
ARC
  5
19A
330
2
100
AcDbEntity
  8
0
100
AcDbCircle
 10
-3.168669023652129
 20
4.048314683237312
 30
0.0
 40
3.25
100
AcDbArc
 50
314.9999999999995
 51
0.0
  0
LINE
  5
19B
330
2
100
AcDbEntity
  8
0
  6
Continuous
100
AcDbLine
 10
1.557360184627726
 20
-0.0238262752173384
 30
0.0
 11
-2.413869438521523
 21
-0.0238262752173384
 31
0.0
  0
LINE
  5
19C
330
2
100
AcDbEntity
  8
0
  6
DASHED
100
AcDbLine
 10
1.592673954688216
 20
0.0699237247826616
 30
0.0
 11
-2.397126883622043
 21
0.0699237247826616
 31
0.0
  0
LINE
  5
19D
330
2
100
AcDbEntity
  8
0
100
AcDbLine
 10
-0.8705719847958378
 20
1.750217644380985
 30
0.0
 11
-2.198999109542008
 21
0.4217905196348291
 31
0.0
  0
ARC
  5
19E
330
2
100
AcDbEntity
  8
0
100
AcDbCircle
 10
-1.6686690236521
 20
-0.1085395662550575
 30
0.0
 40
0.75
100
AcDbArc
 50
134.9999999999995
 51
173.5145409117434
  0
ARC
  5
19F
330
2
100
AcDbEntity
  8
0
100
AcDbCircle
 10
2.275308416657936
 20
-0.24073716965259
 30
0.0
 40
0.75
100
AcDbArc
 50
124.0495612829
 51
163.1890633163619
  0
LWPOLYLINE
  5
1A0
330
2
100
AcDbEntity
  8
0
100
AcDbPolyline
 90
        9
 70
     0
 43
0.0
 10
0.8241260531945898
 20
0.7421612247826559
 42
0.1432467981947568
 10
0.8493507040500461
 20
0.7495393216539057
 42
0.1071754848060475
 10
0.8740368700206318
 20
0.7740902467985578
 42
0.0783035184710328
 10
0.8889835376429929
 20
0.8077115011493561
 42
0.0656020556757086
 10
0.8947106072590998
 20
0.8511737247826616
 42
0.0656020556757101
 10
0.8889835376429929
 20
0.8946359484159601
 42
0.0783035184710357
 10
0.8740368700206318
 20
0.9282572027667584
 42
0.1071754848060445
 10
0.8493507040500461
 20
0.9528081279114105
 42
0.1432467981947535
 10
0.8241260531945898
 20
0.9601862247826603
 42
0.1432467981947515
  0
LWPOLYLINE
  5
1A1
330
2
100
AcDbEntity
  8
0
100
AcDbPolyline
 90
        9
 70
     0
 43
0.0
 10
0.8241260531945898
 20
0.7714862247826559
 42
0.147269582437036
 10
0.8418224763571303
 20
0.7768140664704504
 42
0.1071386913803464
 10
0.8593743700206318
 20
0.7948261531568548
 42
0.0765137470862007
 10
0.8699162840674006
 20
0.8193308911910151
 42
0.063469041210727
 10
0.8739747009008028
 20
0.8511737247826616
 42
0.0634690412107267
 10
0.8699162840674006
 20
0.883016558374301
 42
0.0765137470862059
 10
0.8593743700206318
 20
0.9075212964084614
 42
0.1071386913803463
 10
0.8418224763571303
 20
0.9255333830948658
 42
0.1472695824370325
 10
0.8241260531945898
 20
0.9308612247826602
 42
0.1472695824370333
  0
LINE
  5
1A2
330
2
100
AcDbEntity
  8
0
100
AcDbLine
 10
0.8241260531945898
 20
0.7128362247826559
 30
0.0
 11
0.8241260531945898
 21
0.9895112247826603
 31
0.0
  0
LWPOLYLINE
  5
1A3
330
2
100
AcDbEntity
  8
0
100
AcDbPolyline
 90
        9
 70
     0
 43
0.0
 10
0.8241260531945898
 20
0.7128362247826559
 42
0.0700628980345364
 10
0.9032448569946325
 20
0.723977500551527
 42
0.0818514225363451
 10
0.9651411751210759
 20
0.7533543404402607
 42
0.1069100077216601
 10
1.009739326186576
 20
0.8011012531952915
 42
0.135394011665182
 10
1.023551551122722
 20
0.8511737247826545
 42
0.1353940116651818
 10
1.009739326186576
 20
0.9012461963700247
 42
0.1069100077216599
 10
0.9651411751210759
 20
0.9489931091250483
 42
0.0818514225363446
 10
0.9032448569946325
 20
0.9783699490137892
 42
0.0700628980345367
 10
0.8241260531945898
 20
0.9895112247826603
 42
0.0700628980345371
  0
LWPOLYLINE
  5
1A4
330
2
100
AcDbEntity
  8
0
100
AcDbPolyline
 90
        9
 70
     0
 43
0.0
 10
0.8241260531945898
 20
1.712836224782656
 42
0.0700628980345364
 10
0.9032448569946325
 20
1.723977500551527
 42
0.0818514225363451
 10
0.9651411751210759
 20
1.753354340440261
 42
0.1069100077216601
 10
1.009739326186576
 20
1.801101253195292
 42
0.135394011665182
 10
1.023551551122722
 20
1.851173724782655
 42
0.1353940116651818
 10
1.009739326186576
 20
1.901246196370025
 42
0.1069100077216599
 10
0.9651411751210759
 20
1.948993109125048
 42
0.0818514225363446
 10
0.9032448569946325
 20
1.978369949013789
 42
0.0700628980345367
 10
0.8241260531945898
 20
1.98951122478266
 42
0.0700628980345371
  0
LWPOLYLINE
  5
1A5
330
2
100
AcDbEntity
  8
0
100
AcDbPolyline
 90
        9
 70
     0
 43
0.0
 10
0.8241260531945898
 20
1.771486224782656
 42
0.147269582437036
 10
0.8418224763571303
 20
1.77681406647045
 42
0.1071386913803464
 10
0.8593743700206318
 20
1.794826153156855
 42
0.0765137470862007
 10
0.8699162840674006
 20
1.819330891191015
 42
0.063469041210727
 10
0.8739747009008028
 20
1.851173724782662
 42
0.0634690412107267
 10
0.8699162840674006
 20
1.883016558374301
 42
0.0765137470862059
 10
0.8593743700206318
 20
1.907521296408461
 42
0.1071386913803463
 10
0.8418224763571303
 20
1.925533383094866
 42
0.1472695824370325
 10
0.8241260531945898
 20
1.93086122478266
 42
0.1472695824370333
  0
LWPOLYLINE
  5
1A6
330
2
100
AcDbEntity
  8
0
100
AcDbPolyline
 90
        9
 70
     0
 43
0.0
 10
0.8241260531945898
 20
1.742161224782656
 42
0.1432467981947568
 10
0.8493507040500461
 20
1.749539321653906
 42
0.1071754848060475
 10
0.8740368700206318
 20
1.774090246798558
 42
0.0783035184710328
 10
0.8889835376429929
 20
1.807711501149356
 42
0.0656020556757086
 10
0.8947106072590998
 20
1.851173724782662
 42
0.0656020556757101
 10
0.8889835376429929
 20
1.89463594841596
 42
0.0783035184710357
 10
0.8740368700206318
 20
1.928257202766758
 42
0.1071754848060445
 10
0.8493507040500461
 20
1.952808127911411
 42
0.1432467981947535
 10
0.8241260531945898
 20
1.96018622478266
 42
0.1432467981947515
  0
LINE
  5
1A7
330
2
100
AcDbEntity
  8
0
100
AcDbLine
 10
0.8241260531945898
 20
1.712836224782656
 30
0.0
 11
0.8241260531945898
 21
1.98951122478266
 31
0.0
  0
LWPOLYLINE
  5
1A8
330
2
100
AcDbEntity
  8
0
100
AcDbPolyline
 90
        9
 70
     0
 43
0.0
 10
0.8241260531945898
 20
2.771486224782656
 42
0.147269582437036
 10
0.8418224763571303
 20
2.77681406647045
 42
0.1071386913803464
 10
0.8593743700206318
 20
2.794826153156855
 42
0.0765137470862007
 10
0.8699162840674006
 20
2.819330891191015
 42
0.063469041210727
 10
0.8739747009008028
 20
2.851173724782662
 42
0.0634690412107267
 10
0.8699162840674006
 20
2.883016558374301
 42
0.0765137470862059
 10
0.8593743700206318
 20
2.907521296408461
 42
0.1071386913803463
 10
0.8418224763571303
 20
2.925533383094866
 42
0.1472695824370325
 10
0.8241260531945898
 20
2.93086122478266
 42
0.1472695824370333
  0
LWPOLYLINE
  5
1A9
330
2
100
AcDbEntity
  8
0
100
AcDbPolyline
 90
        9
 70
     0
 43
0.0
 10
0.8241260531945898
 20
2.712836224782656
 42
0.0700628980345364
 10
0.9032448569946325
 20
2.723977500551527
 42
0.0818514225363451
 10
0.9651411751210759
 20
2.753354340440261
 42
0.1069100077216601
 10
1.009739326186576
 20
2.801101253195292
 42
0.135394011665182
 10
1.023551551122722
 20
2.851173724782655
 42
0.1353940116651818
 10
1.009739326186576
 20
2.901246196370025
 42
0.1069100077216599
 10
0.9651411751210759
 20
2.948993109125048
 42
0.0818514225363446
 10
0.9032448569946325
 20
2.978369949013789
 42
0.0700628980345367
 10
0.8241260531945898
 20
2.98951122478266
 42
0.0700628980345371
  0
LWPOLYLINE
  5
1AA
330
2
100
AcDbEntity
  8
0
100
AcDbPolyline
 90
        9
 70
     0
 43
0.0
 10
0.8241260531945898
 20
2.742161224782656
 42
0.1432467981947568
 10
0.8493507040500461
 20
2.749539321653906
 42
0.1071754848060475
 10
0.8740368700206318
 20
2.774090246798558
 42
0.0783035184710328
 10
0.8889835376429929
 20
2.807711501149356
 42
0.0656020556757086
 10
0.8947106072590998
 20
2.851173724782662
 42
0.0656020556757101
 10
0.8889835376429929
 20
2.89463594841596
 42
0.0783035184710357
 10
0.8740368700206318
 20
2.928257202766758
 42
0.1071754848060445
 10
0.8493507040500461
 20
2.952808127911411
 42
0.1432467981947535
 10
0.8241260531945898
 20
2.96018622478266
 42
0.1432467981947515
  0
LINE
  5
1AB
330
2
100
AcDbEntity
  8
0
100
AcDbLine
 10
0.8241260531945898
 20
2.712836224782656
 30
0.0
 11
0.8241260531945898
 21
2.98951122478266
 31
0.0
  0
LINE
  5
1AC
330
2
100
AcDbEntity
  8
0
100
AcDbLine
 10
0.3572193239961905
 20
4.915508953173063
 30
0.0
 11
0.1179426286995522
 21
4.676232257876425
 31
0.0
  0
LINE
  5
1AD
330
2
100
AcDbEntity
  8
0
100
AcDbLine
 10
0.8241260531945898
 20
4.712836224782656
 30
0.0
 11
0.8241260531945898
 21
4.98951122478266
 31
0.0
  0
LWPOLYLINE
  5
1AE
330
2
100
AcDbEntity
  8
0
100
AcDbPolyline
 90
        9
 70
     0
 43
0.0
 10
0.8241260531945898
 20
4.742161224782656
 42
0.1432467981947568
 10
0.8493507040500461
 20
4.749539321653906
 42
0.1071754848060475
 10
0.8740368700206318
 20
4.774090246798558
 42
0.0783035184710328
 10
0.8889835376429929
 20
4.807711501149356
 42
0.0656020556757086
 10
0.8947106072590998
 20
4.851173724782662
 42
0.0656020556757101
 10
0.8889835376429929
 20
4.89463594841596
 42
0.0783035184710357
 10
0.8740368700206318
 20
4.928257202766758
 42
0.1071754848060445
 10
0.8493507040500461
 20
4.952808127911411
 42
0.1432467981947535
 10
0.8241260531945898
 20
4.96018622478266
 42
0.1432467981947515
  0
LWPOLYLINE
  5
1AF
330
2
100
AcDbEntity
  8
0
100
AcDbPolyline
 90
        9
 70
     0
 43
0.0
 10
0.8241260531945898
 20
4.712836224782656
 42
0.0700628980345364
 10
0.9032448569946325
 20
4.723977500551527
 42
0.0818514225363451
 10
0.9651411751210759
 20
4.753354340440261
 42
0.1069100077216601
 10
1.009739326186576
 20
4.801101253195292
 42
0.135394011665182
 10
1.023551551122722
 20
4.851173724782655
 42
0.1353940116651818
 10
1.009739326186576
 20
4.901246196370025
 42
0.1069100077216599
 10
0.9651411751210759
 20
4.948993109125048
 42
0.0818514225363446
 10
0.9032448569946325
 20
4.978369949013789
 42
0.0700628980345367
 10
0.8241260531945898
 20
4.98951122478266
 42
0.0700628980345371
  0
LINE
  5
1B0
330
2
100
AcDbEntity
  8
0
100
AcDbLine
 10
0.0813309763478784
 20
4.048314683237312
 30
0.0
 11
0.0813309763478784
 21
4.587843910228106
 31
0.0
  0
ARC
  5
1B1
330
2
100
AcDbEntity
  8
0
100
AcDbCircle
 10
0.2063309763478713
 20
4.587843910228106
 30
0.0
 40
0.125
100
AcDbArc
 50
134.9999999999999
 51
180.0
  0
LINE
  5
1B2
330
2
100
AcDbEntity
  8
0
100
AcDbLine
 10
0.8241260531945898
 20
3.712836224782656
 30
0.0
 11
0.8241260531945898
 21
3.98951122478266
 31
0.0
  0
LWPOLYLINE
  5
1B3
330
2
100
AcDbEntity
  8
0
100
AcDbPolyline
 90
        9
 70
     0
 43
0.0
 10
0.8241260531945898
 20
3.742161224782656
 42
0.1432467981947568
 10
0.8493507040500461
 20
3.749539321653906
 42
0.1071754848060475
 10
0.8740368700206318
 20
3.774090246798558
 42
0.0783035184710328
 10
0.8889835376429929
 20
3.807711501149356
 42
0.0656020556757086
 10
0.8947106072590998
 20
3.851173724782662
 42
0.0656020556757101
 10
0.8889835376429929
 20
3.89463594841596
 42
0.0783035184710357
 10
0.8740368700206318
 20
3.928257202766758
 42
0.1071754848060445
 10
0.8493507040500461
 20
3.952808127911411
 42
0.1432467981947535
 10
0.8241260531945898
 20
3.96018622478266
 42
0.1432467981947515
  0
LWPOLYLINE
  5
1B4
330
2
100
AcDbEntity
  8
0
100
AcDbPolyline
 90
        9
 70
     0
 43
0.0
 10
0.8241260531945898
 20
3.712836224782656
 42
0.0700628980345364
 10
0.9032448569946325
 20
3.723977500551527
 42
0.0818514225363451
 10
0.9651411751210759
 20
3.753354340440261
 42
0.1069100077216601
 10
1.009739326186576
 20
3.801101253195292
 42
0.135394011665182
 10
1.023551551122722
 20
3.851173724782655
 42
0.1353940116651818
 10
1.009739326186576
 20
3.901246196370025
 42
0.1069100077216599
 10
0.9651411751210759
 20
3.948993109125048
 42
0.0818514225363446
 10
0.9032448569946325
 20
3.978369949013789
 42
0.0700628980345367
 10
0.8241260531945898
 20
3.98951122478266
 42
0.0700628980345371
  0
LWPOLYLINE
  5
1B5
330
2
100
AcDbEntity
  8
0
100
AcDbPolyline
 90
        9
 70
     0
 43
0.0
 10
0.8241260531945898
 20
3.771486224782656
 42
0.147269582437036
 10
0.8418224763571303
 20
3.77681406647045
 42
0.1071386913803464
 10
0.8593743700206318
 20
3.794826153156855
 42
0.0765137470862007
 10
0.8699162840674006
 20
3.819330891191015
 42
0.063469041210727
 10
0.8739747009008028
 20
3.851173724782662
 42
0.0634690412107267
 10
0.8699162840674006
 20
3.883016558374301
 42
0.0765137470862059
 10
0.8593743700206318
 20
3.907521296408461
 42
0.1071386913803463
 10
0.8418224763571303
 20
3.925533383094866
 42
0.1472695824370325
 10
0.8241260531945898
 20
3.93086122478266
 42
0.1472695824370333
  0
LINE
  5
1B6
330
2
100
AcDbEntity
  8
0
100
AcDbLine
 10
0.3938309763478713
 20
5.650343910228106
 30
0.0
 11
0.3938309763478713
 21
5.003897300821382
 31
0.0
  0
ARC
  5
1B7
330
2
100
AcDbEntity
  8
0
100
AcDbCircle
 10
0.2688309763478713
 20
5.003897300821382
 30
0.0
 40
0.125
100
AcDbArc
 50
314.9999999999997
 51
0.0
  0
LINE
  5
1B8
330
2
100
AcDbEntity
  8
0
100
AcDbLine
 10
0.1179426286995522
 20
5.978008953173063
 30
0.0
 11
0.3572193239961905
 21
5.738732257876425
 31
0.0
  0
ARC
  5
1B9
330
2
100
AcDbEntity
  8
0
100
AcDbCircle
 10
0.2688309763478713
 20
5.650343910228106
 30
0.0
 40
0.125
100
AcDbArc
 50
0.0
 51
45.00000000000014
  0
LWPOLYLINE
  5
1BA
330
2
100
AcDbEntity
  8
0
100
AcDbPolyline
 90
        9
 70
     0
 43
0.0
 10
0.8241260531945898
 20
4.771486224782656
 42
0.147269582437036
 10
0.8418224763571303
 20
4.77681406647045
 42
0.1071386913803464
 10
0.8593743700206318
 20
4.794826153156855
 42
0.0765137470862007
 10
0.8699162840674006
 20
4.819330891191015
 42
0.063469041210727
 10
0.8739747009008028
 20
4.851173724782662
 42
0.0634690412107267
 10
0.8699162840674006
 20
4.883016558374301
 42
0.0765137470862059
 10
0.8593743700206318
 20
4.907521296408461
 42
0.1071386913803463
 10
0.8418224763571303
 20
4.925533383094866
 42
0.1472695824370325
 10
0.8241260531945898
 20
4.93086122478266
 42
0.1472695824370333
  0
LWPOLYLINE
  5
1BB
330
2
100
AcDbEntity
  8
0
100
AcDbPolyline
 90
        9
 70
     0
 43
0.0
 10
0.8241260531945898
 20
5.712836224782656
 42
0.0700628980345364
 10
0.9032448569946325
 20
5.723977500551527
 42
0.0818514225363451
 10
0.9651411751210759
 20
5.753354340440261
 42
0.1069100077216601
 10
1.009739326186576
 20
5.801101253195292
 42
0.135394011665182
 10
1.023551551122722
 20
5.851173724782655
 42
0.1353940116651818
 10
1.009739326186576
 20
5.901246196370025
 42
0.1069100077216599
 10
0.9651411751210759
 20
5.948993109125048
 42
0.0818514225363446
 10
0.9032448569946325
 20
5.978369949013789
 42
0.0700628980345367
 10
0.8241260531945898
 20
5.98951122478266
 42
0.0700628980345371
  0
LWPOLYLINE
  5
1BC
330
2
100
AcDbEntity
  8
0
100
AcDbPolyline
 90
        9
 70
     0
 43
0.0
 10
0.8241260531945898
 20
5.771486224782656
 42
0.147269582437036
 10
0.8418224763571303
 20
5.77681406647045
 42
0.1071386913803464
 10
0.8593743700206318
 20
5.794826153156855
 42
0.0765137470862007
 10
0.8699162840674006
 20
5.819330891191015
 42
0.063469041210727
 10
0.8739747009008028
 20
5.851173724782662
 42
0.0634690412107267
 10
0.8699162840674006
 20
5.883016558374301
 42
0.0765137470862059
 10
0.8593743700206318
 20
5.907521296408461
 42
0.1071386913803463
 10
0.8418224763571303
 20
5.925533383094866
 42
0.1472695824370325
 10
0.8241260531945898
 20
5.93086122478266
 42
0.1472695824370333
  0
LWPOLYLINE
  5
1BD
330
2
100
AcDbEntity
  8
0
100
AcDbPolyline
 90
        9
 70
     0
 43
0.0
 10
0.8241260531945898
 20
5.742161224782656
 42
0.1432467981947568
 10
0.8493507040500461
 20
5.749539321653906
 42
0.1071754848060475
 10
0.8740368700206318
 20
5.774090246798558
 42
0.0783035184710328
 10
0.8889835376429929
 20
5.807711501149356
 42
0.0656020556757086
 10
0.8947106072590998
 20
5.851173724782662
 42
0.0656020556757101
 10
0.8889835376429929
 20
5.89463594841596
 42
0.0783035184710357
 10
0.8740368700206318
 20
5.928257202766758
 42
0.1071754848060445
 10
0.8493507040500461
 20
5.952808127911411
 42
0.1432467981947535
 10
0.8241260531945898
 20
5.96018622478266
 42
0.1432467981947515
  0
LINE
  5
1BE
330
2
100
AcDbEntity
  8
0
100
AcDbLine
 10
0.8241260531945898
 20
5.712836224782656
 30
0.0
 11
0.8241260531945898
 21
5.98951122478266
 31
0.0
  0
LINE
  5
1BF
330
2
100
AcDbEntity
  8
0
100
AcDbLine
 10
0.0813309763478713
 20
8.066397300821382
 30
0.0
 11
0.0813309763478713
 21
8.569923724782658
 31
0.0
  0
LINE
  5
1C0
330
2
100
AcDbEntity
  8
0
100
AcDbLine
 10
0.0813309763478713
 20
8.569923724782658
 30
0.0
 11
0.0813309763478713
 21
8.066397044777109
 31
0.0
  0
LINE
  5
1C1
330
2
100
AcDbEntity
  8
0
100
AcDbLine
 10
0.0813309763478713
 20
8.066397300821382
 30
0.0
 11
0.0813309763478713
 21
8.569923724782658
 31
0.0
  0
LINE
  5
1C2
330
2
100
AcDbEntity
  8
0
100
AcDbLine
 10
0.0813309763478713
 20
8.569923724782658
 30
0.0
 11
0.0813309763478713
 21
8.066397044777109
 31
0.0
  0
LINE
  5
1C3
330
2
100
AcDbEntity
  8
0
100
AcDbLine
 10
1.76162605319459
 20
10.56992372478266
 30
0.0
 11
1.76162605319459
 21
6.269923724782654
 31
0.0
  0
LINE
  5
1C4
330
2
100
AcDbEntity
  8
0
100
AcDbLine
 10
0.3938309763478713
 20
7.650343910228106
 30
0.0
 11
0.3938309763478713
 21
7.003897300821382
 31
0.0
  0
ARC
  5
1C5
330
2
100
AcDbEntity
  8
0
100
AcDbCircle
 10
0.2063309763478713
 20
6.587843910228106
 30
0.0
 40
0.125
100
AcDbArc
 50
134.9999999999999
 51
180.0
  0
LINE
  5
1C6
330
2
100
AcDbEntity
  8
0
100
AcDbLine
 10
0.0813309763478713
 20
6.569923724782658
 30
0.0
 11
0.0813309763478713
 21
6.066397044777109
 31
0.0
  0
LINE
  5
1C7
330
2
100
AcDbEntity
  8
0
100
AcDbLine
 10
0.0813309763478713
 20
6.066397300821382
 30
0.0
 11
0.0813309763478713
 21
6.569923724782658
 31
0.0
  0
LINE
  5
1C8
330
2
100
AcDbEntity
  8
0
100
AcDbLine
 10
0.3572193239961905
 20
6.915508953173063
 30
0.0
 11
0.1179426286995522
 21
6.676232257876425
 31
0.0
  0
ARC
  5
1C9
330
2
100
AcDbEntity
  8
0
100
AcDbCircle
 10
0.2688309763478713
 20
7.003897300821382
 30
0.0
 40
0.125
100
AcDbArc
 50
314.9999999999997
 51
0.0
  0
LWPOLYLINE
  5
1CA
330
2
100
AcDbEntity
  8
0
100
AcDbPolyline
 90
        9
 70
     0
 43
0.0
 10
0.8241260531945898
 20
6.771486224782656
 42
0.147269582437036
 10
0.8418224763571303
 20
6.77681406647045
 42
0.1071386913803464
 10
0.8593743700206318
 20
6.794826153156855
 42
0.0765137470862007
 10
0.8699162840674006
 20
6.819330891191015
 42
0.063469041210727
 10
0.8739747009008028
 20
6.851173724782662
 42
0.0634690412107267
 10
0.8699162840674006
 20
6.883016558374301
 42
0.0765137470862059
 10
0.8593743700206318
 20
6.907521296408461
 42
0.1071386913803463
 10
0.8418224763571303
 20
6.925533383094866
 42
0.1472695824370325
 10
0.8241260531945898
 20
6.93086122478266
 42
0.1472695824370333
  0
LWPOLYLINE
  5
1CB
330
2
100
AcDbEntity
  8
0
100
AcDbPolyline
 90
        9
 70
     0
 43
0.0
 10
0.8241260531945898
 20
6.712836224782656
 42
0.0700628980345364
 10
0.9032448569946325
 20
6.723977500551527
 42
0.0818514225363451
 10
0.9651411751210759
 20
6.753354340440261
 42
0.1069100077216601
 10
1.009739326186576
 20
6.801101253195292
 42
0.135394011665182
 10
1.023551551122722
 20
6.851173724782655
 42
0.1353940116651818
 10
1.009739326186576
 20
6.901246196370025
 42
0.1069100077216599
 10
0.9651411751210759
 20
6.948993109125048
 42
0.0818514225363446
 10
0.9032448569946325
 20
6.978369949013789
 42
0.0700628980345367
 10
0.8241260531945898
 20
6.98951122478266
 42
0.0700628980345371
  0
LWPOLYLINE
  5
1CC
330
2
100
AcDbEntity
  8
0
100
AcDbPolyline
 90
        9
 70
     0
 43
0.0
 10
0.8241260531945898
 20
6.742161224782656
 42
0.1432467981947568
 10
0.8493507040500461
 20
6.749539321653906
 42
0.1071754848060475
 10
0.8740368700206318
 20
6.774090246798558
 42
0.0783035184710328
 10
0.8889835376429929
 20
6.807711501149356
 42
0.0656020556757086
 10
0.8947106072590998
 20
6.851173724782662
 42
0.0656020556757101
 10
0.8889835376429929
 20
6.89463594841596
 42
0.0783035184710357
 10
0.8740368700206318
 20
6.928257202766758
 42
0.1071754848060445
 10
0.8493507040500461
 20
6.952808127911411
 42
0.1432467981947535
 10
0.8241260531945898
 20
6.96018622478266
 42
0.1432467981947515
  0
LINE
  5
1CD
330
2
100
AcDbEntity
  8
0
100
AcDbLine
 10
0.8241260531945898
 20
6.712836224782656
 30
0.0
 11
0.8241260531945898
 21
6.98951122478266
 31
0.0
  0
LINE
  5
1CE
330
2
100
AcDbEntity
  8
0
100
AcDbLine
 10
0.1179426286995522
 20
7.978008953173063
 30
0.0
 11
0.3572193239961905
 21
7.738732257876425
 31
0.0
  0
ARC
  5
1CF
330
2
100
AcDbEntity
  8
0
100
AcDbCircle
 10
0.2688309763478713
 20
7.650343910228106
 30
0.0
 40
0.125
100
AcDbArc
 50
0.0
 51
45.00000000000014
  0
ARC
  5
1D0
330
2
100
AcDbEntity
  8
0
100
AcDbCircle
 10
0.2063309763478713
 20
8.066397300821382
 30
0.0
 40
0.125
100
AcDbArc
 50
180.0
 51
225.0000000000001
  0
LINE
  5
1D1
330
2
100
AcDbEntity
  8
0
100
AcDbLine
 10
0.8241260531945898
 20
7.712836224782656
 30
0.0
 11
0.8241260531945898
 21
7.98951122478266
 31
0.0
  0
LWPOLYLINE
  5
1D2
330
2
100
AcDbEntity
  8
0
100
AcDbPolyline
 90
        9
 70
     0
 43
0.0
 10
0.8241260531945898
 20
7.742161224782656
 42
0.1432467981947568
 10
0.8493507040500461
 20
7.749539321653906
 42
0.1071754848060475
 10
0.8740368700206318
 20
7.774090246798558
 42
0.0783035184710328
 10
0.8889835376429929
 20
7.807711501149356
 42
0.0656020556757086
 10
0.8947106072590998
 20
7.851173724782662
 42
0.0656020556757101
 10
0.8889835376429929
 20
7.89463594841596
 42
0.0783035184710357
 10
0.8740368700206318
 20
7.928257202766758
 42
0.1071754848060445
 10
0.8493507040500461
 20
7.952808127911411
 42
0.1432467981947535
 10
0.8241260531945898
 20
7.96018622478266
 42
0.1432467981947515
  0
LWPOLYLINE
  5
1D3
330
2
100
AcDbEntity
  8
0
100
AcDbPolyline
 90
        9
 70
     0
 43
0.0
 10
0.8241260531945898
 20
7.771486224782656
 42
0.147269582437036
 10
0.8418224763571303
 20
7.77681406647045
 42
0.1071386913803464
 10
0.8593743700206318
 20
7.794826153156855
 42
0.0765137470862007
 10
0.8699162840674006
 20
7.819330891191015
 42
0.063469041210727
 10
0.8739747009008028
 20
7.851173724782662
 42
0.0634690412107267
 10
0.8699162840674006
 20
7.883016558374301
 42
0.0765137470862059
 10
0.8593743700206318
 20
7.907521296408461
 42
0.1071386913803463
 10
0.8418224763571303
 20
7.925533383094866
 42
0.1472695824370325
 10
0.8241260531945898
 20
7.93086122478266
 42
0.1472695824370333
  0
LWPOLYLINE
  5
1D4
330
2
100
AcDbEntity
  8
0
100
AcDbPolyline
 90
        9
 70
     0
 43
0.0
 10
0.8241260531945898
 20
7.712836224782656
 42
0.0700628980345364
 10
0.9032448569946325
 20
7.723977500551527
 42
0.0818514225363451
 10
0.9651411751210759
 20
7.753354340440261
 42
0.1069100077216601
 10
1.009739326186576
 20
7.801101253195292
 42
0.135394011665182
 10
1.023551551122722
 20
7.851173724782655
 42
0.1353940116651818
 10
1.009739326186576
 20
7.901246196370025
 42
0.1069100077216599
 10
0.9651411751210759
 20
7.948993109125048
 42
0.0818514225363446
 10
0.9032448569946325
 20
7.978369949013789
 42
0.0700628980345367
 10
0.8241260531945898
 20
7.98951122478266
 42
0.0700628980345371
  0
LINE
  5
1D5
330
2
100
AcDbEntity
  8
0
100
AcDbLine
 10
0.1179426286995522
 20
9.978008953173063
 30
0.0
 11
0.3572193239961905
 21
9.738732257876425
 31
0.0
  0
LINE
  5
1D6
330
2
100
AcDbEntity
  8
0
100
AcDbLine
 10
0.8241260531945898
 20
9.712836224782656
 30
0.0
 11
0.8241260531945898
 21
9.98951122478266
 31
0.0
  0
LWPOLYLINE
  5
1D7
330
2
100
AcDbEntity
  8
0
100
AcDbPolyline
 90
        9
 70
     0
 43
0.0
 10
0.8241260531945898
 20
9.742161224782656
 42
0.1432467981947568
 10
0.8493507040500461
 20
9.749539321653906
 42
0.1071754848060475
 10
0.8740368700206318
 20
9.774090246798558
 42
0.0783035184710328
 10
0.8889835376429929
 20
9.807711501149356
 42
0.0656020556757086
 10
0.8947106072590998
 20
9.851173724782662
 42
0.0656020556757101
 10
0.8889835376429929
 20
9.89463594841596
 42
0.0783035184710357
 10
0.8740368700206318
 20
9.928257202766758
 42
0.1071754848060445
 10
0.8493507040500461
 20
9.952808127911411
 42
0.1432467981947535
 10
0.8241260531945898
 20
9.96018622478266
 42
0.1432467981947515
  0
LWPOLYLINE
  5
1D8
330
2
100
AcDbEntity
  8
0
100
AcDbPolyline
 90
        9
 70
     0
 43
0.0
 10
0.8241260531945898
 20
9.712836224782656
 42
0.0700628980345364
 10
0.9032448569946325
 20
9.723977500551527
 42
0.0818514225363451
 10
0.9651411751210759
 20
9.753354340440261
 42
0.1069100077216601
 10
1.009739326186576
 20
9.801101253195292
 42
0.135394011665182
 10
1.023551551122722
 20
9.851173724782655
 42
0.1353940116651818
 10
1.009739326186576
 20
9.901246196370025
 42
0.1069100077216599
 10
0.9651411751210759
 20
9.948993109125048
 42
0.0818514225363446
 10
0.9032448569946325
 20
9.978369949013789
 42
0.0700628980345367
 10
0.8241260531945898
 20
9.98951122478266
 42
0.0700628980345371
  0
LINE
  5
1D9
330
2
100
AcDbEntity
  8
0
100
AcDbLine
 10
0.3938309763478713
 20
9.650343910228106
 30
0.0
 11
0.3938309763478713
 21
9.003897300821382
 31
0.0
  0
LINE
  5
1DA
330
2
100
AcDbEntity
  8
0
100
AcDbLine
 10
0.3572193239961905
 20
8.915508953173063
 30
0.0
 11
0.1179426286995522
 21
8.676232257876425
 31
0.0
  0
ARC
  5
1DB
330
2
100
AcDbEntity
  8
0
100
AcDbCircle
 10
0.2063309763478713
 20
8.587843910228106
 30
0.0
 40
0.125
100
AcDbArc
 50
134.9999999999999
 51
180.0
  0
ARC
  5
1DC
330
2
100
AcDbEntity
  8
0
100
AcDbCircle
 10
0.2688309763478713
 20
9.003897300821382
 30
0.0
 40
0.125
100
AcDbArc
 50
314.9999999999997
 51
0.0
  0
ARC
  5
1DD
330
2
100
AcDbEntity
  8
0
100
AcDbCircle
 10
0.2688309763478713
 20
9.650343910228106
 30
0.0
 40
0.125
100
AcDbArc
 50
0.0
 51
45.00000000000014
  0
LINE
  5
1DE
330
2
100
AcDbEntity
  8
0
100
AcDbLine
 10
0.8241260531945898
 20
8.712836224782656
 30
0.0
 11
0.8241260531945898
 21
8.98951122478266
 31
0.0
  0
LWPOLYLINE
  5
1DF
330
2
100
AcDbEntity
  8
0
100
AcDbPolyline
 90
        9
 70
     0
 43
0.0
 10
0.8241260531945898
 20
8.742161224782656
 42
0.1432467981947568
 10
0.8493507040500461
 20
8.749539321653906
 42
0.1071754848060475
 10
0.8740368700206318
 20
8.774090246798558
 42
0.0783035184710328
 10
0.8889835376429929
 20
8.807711501149356
 42
0.0656020556757086
 10
0.8947106072590998
 20
8.851173724782662
 42
0.0656020556757101
 10
0.8889835376429929
 20
8.89463594841596
 42
0.0783035184710357
 10
0.8740368700206318
 20
8.928257202766758
 42
0.1071754848060445
 10
0.8493507040500461
 20
8.952808127911411
 42
0.1432467981947535
 10
0.8241260531945898
 20
8.96018622478266
 42
0.1432467981947515
  0
LWPOLYLINE
  5
1E0
330
2
100
AcDbEntity
  8
0
100
AcDbPolyline
 90
        9
 70
     0
 43
0.0
 10
0.8241260531945898
 20
8.712836224782656
 42
0.0700628980345364
 10
0.9032448569946325
 20
8.723977500551527
 42
0.0818514225363451
 10
0.9651411751210759
 20
8.753354340440261
 42
0.1069100077216601
 10
1.009739326186576
 20
8.801101253195292
 42
0.135394011665182
 10
1.023551551122722
 20
8.851173724782655
 42
0.1353940116651818
 10
1.009739326186576
 20
8.901246196370025
 42
0.1069100077216599
 10
0.9651411751210759
 20
8.948993109125048
 42
0.0818514225363446
 10
0.9032448569946325
 20
8.978369949013789
 42
0.0700628980345367
 10
0.8241260531945898
 20
8.98951122478266
 42
0.0700628980345371
  0
LWPOLYLINE
  5
1E1
330
2
100
AcDbEntity
  8
0
100
AcDbPolyline
 90
        9
 70
     0
 43
0.0
 10
0.8241260531945898
 20
8.771486224782656
 42
0.147269582437036
 10
0.8418224763571303
 20
8.77681406647045
 42
0.1071386913803464
 10
0.8593743700206318
 20
8.794826153156855
 42
0.0765137470862007
 10
0.8699162840674006
 20
8.819330891191015
 42
0.063469041210727
 10
0.8739747009008028
 20
8.851173724782662
 42
0.0634690412107267
 10
0.8699162840674006
 20
8.883016558374301
 42
0.0765137470862059
 10
0.8593743700206318
 20
8.907521296408461
 42
0.1071386913803463
 10
0.8418224763571303
 20
8.925533383094866
 42
0.1472695824370325
 10
0.8241260531945898
 20
8.93086122478266
 42
0.1472695824370333
  0
LINE
  5
1E2
330
2
100
AcDbEntity
  8
0
100
AcDbLine
 10
0.0813309763478713
 20
10.56992372478266
 30
0.0
 11
1.85537605319459
 21
10.56992372478266
 31
0.0
  0
LINE
  5
1E3
330
2
100
AcDbEntity
  8
0
100
AcDbLine
 10
0.0813309763478713
 20
10.56992372478266
 30
0.0
 11
0.0813309763478713
 21
10.06639704477711
 31
0.0
  0
LINE
  5
1E4
330
2
100
AcDbEntity
  8
0
100
AcDbLine
 10
0.0813309763478713
 20
10.06639730082138
 30
0.0
 11
0.0813309763478713
 21
10.56992372478266
 31
0.0
  0
ARC
  5
1E5
330
2
100
AcDbEntity
  8
0
100
AcDbCircle
 10
0.2063309763478713
 20
10.06639730082138
 30
0.0
 40
0.125
100
AcDbArc
 50
180.0
 51
225.0000000000001
  0
LWPOLYLINE
  5
1E6
330
2
100
AcDbEntity
  8
0
100
AcDbPolyline
 90
        9
 70
     0
 43
0.0
 10
0.8241260531945898
 20
9.771486224782656
 42
0.147269582437036
 10
0.8418224763571303
 20
9.77681406647045
 42
0.1071386913803464
 10
0.8593743700206318
 20
9.794826153156855
 42
0.0765137470862007
 10
0.8699162840674006
 20
9.819330891191015
 42
0.063469041210727
 10
0.8739747009008028
 20
9.851173724782662
 42
0.0634690412107267
 10
0.8699162840674006
 20
9.883016558374301
 42
0.0765137470862059
 10
0.8593743700206318
 20
9.907521296408461
 42
0.1071386913803463
 10
0.8418224763571303
 20
9.925533383094866
 42
0.1472695824370325
 10
0.8241260531945898
 20
9.93086122478266
 42
0.1472695824370333
  0
ENDSEC
  0
SECTION
  2
OBJECTS
  0
DICTIONARY
  5
9
330
0
100
AcDbDictionary
281
     1
  3
ACAD_COLOR
350
212
  3
ACAD_GROUP
350
23
  3
ACAD_LAYOUT
350
D
  3
ACAD_MATERIAL
350
211
  3
ACAD_MLINESTYLE
350
24
  3
ACAD_PLOTSETTINGS
350
25
  3
ACAD_PLOTSTYLENAME
350
8
  3
ACAD_TABLESTYLE
350
213
  3
ACDBHEADERROUNDTRIPXREC
350
237
  3
AcDbVariableDictionary
350
207
  0
DICTIONARY
  5
212
102
{ACAD_REACTORS
330
9
102
}
330
9
100
AcDbDictionary
281
     1
  0
DICTIONARY
  5
23
102
{ACAD_REACTORS
330
9
102
}
330
9
100
AcDbDictionary
281
     1
  0
DICTIONARY
  5
D
102
{ACAD_REACTORS
330
9
102
}
330
9
100
AcDbDictionary
281
     1
  3
Layout1
350
13
  3
Model
350
C
  0
DICTIONARY
  5
211
102
{ACAD_REACTORS
330
9
102
}
330
9
100
AcDbDictionary
281
     1
  0
DICTIONARY
  5
24
102
{ACAD_REACTORS
330
9
102
}
330
9
100
AcDbDictionary
281
     1
  3
STANDARD
350
26
  0
DICTIONARY
  5
25
102
{ACAD_REACTORS
330
9
102
}
330
9
100
AcDbDictionary
281
     1
  0
ACDBDICTIONARYWDFLT
  5
8
102
{ACAD_REACTORS
330
9
102
}
330
9
100
AcDbDictionary
281
     1
  3
Normal
350
7
100
AcDbDictionaryWithDefault
340
7
  0
DICTIONARY
  5
213
102
{ACAD_REACTORS
330
9
102
}
330
9
100
AcDbDictionary
281
     1
  3
Standard
350
214
  0
DICTIONARY
  5
237
102
{ACAD_REACTORS
330
9
102
}
330
9
100
AcDbDictionary
281
     1
  3
COLORDICT
350
238
  3
MATERIALDICT
350
239
  0
DICTIONARY
  5
207
102
{ACAD_REACTORS
330
9
102
}
330
9
100
AcDbDictionary
281
     1
  3
CTABLESTYLE
350
225
  3
HIDETEXT
350
236
  0
LAYOUT
  5
13
102
{ACAD_REACTORS
330
D
102
}
102
{ACAD_XDICTIONARY
360
23A
102
}
330
D
100
AcDbPlotSettings
  1

  2
HP LaserJet 2100 Series PS
  4

  6

 40
0.0
 41
0.0
 42
0.0
 43
0.0
 44
0.0
 45
0.0
 46
0.0
 47
0.0
 48
0.0
 49
0.0
140
0.0
141
0.0
142
1.0
143
1.0
 70
   688
 72
     0
 73
     0
 74
     5
  7

 75
    16
147
1.0
148
0.0
149
0.0
100
AcDbLayout
  1
Layout1
 70
     0
 71
     1
 10
0.0
 20
0.0
 11
12.0
 21
9.0
 12
0.0
 22
0.0
 32
0.0
 14
1.000000000000000E+20
 24
1.000000000000000E+20
 34
1.000000000000000E+20
 15
-1.000000000000000E+20
 25
-1.000000000000000E+20
 35
-1.000000000000000E+20
146
0.0
 13
0.0
 23
0.0
 33
0.0
 16
1.0
 26
0.0
 36
0.0
 17
0.0
 27
1.0
 37
0.0
 76
     0
330
E
  0
LAYOUT
  5
C
102
{ACAD_REACTORS
330
D
102
}
102
{ACAD_XDICTIONARY
360
23C
102
}
330
D
100
AcDbPlotSettings
  1

  2
HP LaserJet 2100 Series PS
  4
Letter
  6

 40
5.365749835968018
 41
5.408084392547607
 42
5.4080810546875
 43
5.365753173828125
 44
215.8999938964844
 45
279.3999938964844
 46
0.0
 47
0.0
 48
0.0
 49
0.0
140
0.0
141
0.0
142
1.0
143
3.971318409846261
 70
 11952
 72
     0
 73
     1
 74
     2
  7

 75
     0
147
0.2518055458662435
148
0.0
149
0.0
100
AcDbLayout
  1
Model
 70
     1
 71
     0
 10
0.0
 20
0.0
 11
12.0
 21
9.0
 12
0.0
 22
0.0
 32
0.0
 14
0.0
 24
0.0
 34
0.0
 15
0.0
 25
0.0
 35
0.0
146
0.0
 13
0.0
 23
0.0
 33
0.0
 16
1.0
 26
0.0
 36
0.0
 17
0.0
 27
1.0
 37
0.0
 76
     0
330
2
  0
MLINESTYLE
  5
26
102
{ACAD_REACTORS
330
24
102
}
330
24
100
AcDbMlineStyle
  2
STANDARD
 70
     0
  3

 62
   256
 51
90.0
 52
90.0
 71
     2
 49
0.5
 62
   256
  6
BYLAYER
 49
-0.5
 62
   256
  6
BYLAYER
  0
ACDBPLACEHOLDER
  5
7
102
{ACAD_REACTORS
330
8
102
}
330
8
  0
ACAD_PROXY_OBJECT
  5
214
102
{ACAD_REACTORS
330
213
102
}
330
213
100
AcDbProxyObject
 90
      499
 91
      565
 95
   983063
 70
     0
 93
     1841
310
4214DD185B99185C9928B81E85EB51B8AE3F2E07A17AD46E2B8FC02B5E8DC0F42B1CFD028000000C1008070000C3001FDFF8000000C1003FBFF000000182007F7FE00000030400FEFFC00000060801FDFF8000000C1003FBFF00000018200000000000000681FA0B0000001820100E000186003FBFF000000182007F7FE000
310
00030400FEFFC00000060801FDFF8000000C1003FBFF000000182007F7FE000000304000AD7A3703D0AC73F4160000003040201C00030C007F7FE00000030400FEFFC00000060801FDFF8000000C1003FBFF000000182007F7FE00000030400FEFFC000000608000
340
16
340
16
340
16
 94
        0
  0
XRECORD
  5
238
102
{ACAD_REACTORS
330
237
102
}
330
237
100
AcDbXrecord
340
212
  0
XRECORD
  5
239
102
{ACAD_REACTORS
330
237
102
}
330
237
100
AcDbXrecord
340
211
  0
DICTIONARYVAR
  5
225
102
{ACAD_REACTORS
330
207
102
}
330
207
100
DictionaryVariables
280
     0
  1
STANDARD
  0
DICTIONARYVAR
  5
236
102
{ACAD_REACTORS
330
207
102
}
330
207
100
DictionaryVariables
280
     0
  1
0
  0
DICTIONARY
  5
23A
330
13
100
AcDbDictionary
280
     1
281
     1
  3
ACAD_XREC_ROUNDTRIP
360
23B
  0
DICTIONARY
  5
23C
330
C
100
AcDbDictionary
280
     1
281
     1
  3
ACAD_XREC_ROUNDTRIP
360
23D
  0
XRECORD
  5
23B
102
{ACAD_REACTORS
330
23A
102
}
330
23A
100
AcDbXrecord
102
SHADEPLOT
 70
     0
102
SHADEPLOTRESLEVEL
 70
     2
102
SHADEPLOTCUSTOMDPI
 70
   300
  0
XRECORD
  5
23D
102
{ACAD_REACTORS
330
23C
102
}
330
23C
100
AcDbXrecord
102
SHADEPLOT
 70
     0
102
SHADEPLOTRESLEVEL
 70
     2
102
SHADEPLOTCUSTOMDPI
 70
   300
  0
ENDSEC
  0
EOF
