  0
SECTION
  2
HEADER
  9
$ACADVER
  1
AC1015
  9
$ACADMAINTVER
 70
     6
  9
$DWGCODEPAGE
  3
ANSI_1252
  9
$INSBASE
 10
0.0
 20
0.0
 30
0.0
  9
$EXTMIN
 10
-15.08073150213906
 20
-0.0410166978358575
 30
-0.0000000349181948
  9
$EXTMAX
 10
13.67053288130705
 20
19.5000043806308
 30
0.0000000814935746
  9
$LIMMIN
 10
0.0
 20
0.0
  9
$LIMMAX
 10
42.0
 20
32.0
  9
$ORTHOMODE
 70
     1
  9
$REGENMODE
 70
     1
  9
$FILLMODE
 70
     1
  9
$QTEXTMODE
 70
     0
  9
$MIRRTEXT
 70
     0
  9
$LTSCALE
 40
1.0
  9
$ATTMODE
 70
     1
  9
$TEXTSIZE
 40
0.36
  9
$TRACEWID
 40
0.05
  9
$TEXTSTYLE
  7
STANDARD
  9
$CLAYER
  8
0
  9
$CELTYPE
  6
BYLAYER
  9
$CECOLOR
 62
   256
  9
$CELTSCALE
 40
1.0
  9
$DISPSILH
 70
     0
  9
$DIMSCALE
 40
4.0
  9
$DIMASZ
 40
0.125
  9
$DIMEXO
 40
0.062
  9
$DIMDLI
 40
0.375
  9
$DIMRND
 40
0.0
  9
$DIMDLE
 40
0.0
  9
$DIMEXE
 40
0.08
  9
$DIMTP
 40
0.0
  9
$DIMTM
 40
0.0
  9
$DIMTXT
 40
0.09
  9
$DIMCEN
 40
-0.06
  9
$DIMTSZ
 40
0.0
  9
$DIMTOL
 70
     0
  9
$DIMLIM
 70
     0
  9
$DIMTIH
 70
     1
  9
$DIMTOH
 70
     1
  9
$DIMSE1
 70
     0
  9
$DIMSE2
 70
     0
  9
$DIMTAD
 70
     0
  9
$DIMZIN
 70
     0
  9
$DIMBLK
  1

  9
$DIMASO
 70
     0
  9
$DIMSHO
 70
     0
  9
$DIMPOST
  1

  9
$DIMAPOST
  1

  9
$DIMALT
 70
     0
  9
$DIMALTD
 70
     2
  9
$DIMALTF
 40
25.4
  9
$DIMLFAC
 40
1.0
  9
$DIMTOFL
 70
     0
  9
$DIMTVP
 40
0.0
  9
$DIMTIX
 70
     0
  9
$DIMSOXD
 70
     0
  9
$DIMSAH
 70
     0
  9
$DIMBLK1
  1

  9
$DIMBLK2
  1

  9
$DIMSTYLE
  2
STANDARD
  9
$DIMCLRD
 70
     0
  9
$DIMCLRE
 70
     0
  9
$DIMCLRT
 70
     0
  9
$DIMTFAC
 40
1.0
  9
$DIMGAP
 40
0.09375
  9
$DIMJUST
 70
     0
  9
$DIMSD1
 70
     0
  9
$DIMSD2
 70
     0
  9
$DIMTOLJ
 70
     1
  9
$DIMTZIN
 70
     0
  9
$DIMALTZ
 70
     0
  9
$DIMALTTZ
 70
     0
  9
$DIMUPT
 70
     0
  9
$DIMDEC
 70
     5
  9
$DIMTDEC
 70
     5
  9
$DIMALTU
 70
     5
  9
$DIMALTTD
 70
     2
  9
$DIMTXSTY
  7
STANDARD
  9
$DIMAUNIT
 70
     0
  9
$DIMADEC
 70
     0
  9
$DIMALTRND
 40
0.0
  9
$DIMAZIN
 70
     0
  9
$DIMDSEP
 70
    46
  9
$DIMATFIT
 70
     3
  9
$DIMFRAC
 70
     2
  9
$DIMLDRBLK
  1

  9
$DIMLUNIT
 70
     5
  9
$DIMLWD
 70
    -2
  9
$DIMLWE
 70
    -2
  9
$DIMTMOVE
 70
     2
  9
$LUNITS
 70
     5
  9
$LUPREC
 70
     5
  9
$SKETCHINC
 40
0.1
  9
$FILLETRAD
 40
0.0
  9
$AUNITS
 70
     0
  9
$AUPREC
 70
     0
  9
$MENU
  1
SIMPSON
  9
$ELEVATION
 40
0.0
  9
$PELEVATION
 40
0.0
  9
$THICKNESS
 40
0.0
  9
$LIMCHECK
 70
     0
  9
$CHAMFERA
 40
0.0
  9
$CHAMFERB
 40
0.0
  9
$CHAMFERC
 40
0.0
  9
$CHAMFERD
 40
0.0
  9
$SKPOLY
 70
     0
  9
$TDCREATE
 40
2448957.754094329
  9
$TDUCREATE
 40
2448958.087427662
  9
$TDUPDATE
 40
2454165.948392361
  9
$TDUUPDATE
 40
2454166.281725694
  9
$TDINDWG
 40
0.2082411921
  9
$TDUSRTIMER
 40
0.2082411921
  9
$USRTIMER
 70
     1
  9
$ANGBASE
 50
0.0
  9
$ANGDIR
 70
     0
  9
$PDMODE
 70
     0
  9
$PDSIZE
 40
0.0
  9
$PLINEWID
 40
0.0
  9
$SPLFRAME
 70
     0
  9
$SPLINETYPE
 70
     6
  9
$SPLINESEGS
 70
     8
  9
$HANDSEED
  5
22F
  9
$SURFTAB1
 70
     6
  9
$SURFTAB2
 70
     6
  9
$SURFTYPE
 70
     6
  9
$SURFU
 70
     6
  9
$SURFV
 70
     6
  9
$UCSBASE
  2

  9
$UCSNAME
  2

  9
$UCSORG
 10
0.0
 20
0.0
 30
0.0
  9
$UCSXDIR
 10
1.0
 20
0.0
 30
0.0
  9
$UCSYDIR
 10
0.0
 20
1.0
 30
0.0
  9
$UCSORTHOREF
  2

  9
$UCSORTHOVIEW
 70
     0
  9
$UCSORGTOP
 10
0.0
 20
0.0
 30
0.0
  9
$UCSORGBOTTOM
 10
0.0
 20
0.0
 30
0.0
  9
$UCSORGLEFT
 10
0.0
 20
0.0
 30
0.0
  9
$UCSORGRIGHT
 10
0.0
 20
0.0
 30
0.0
  9
$UCSORGFRONT
 10
0.0
 20
0.0
 30
0.0
  9
$UCSORGBACK
 10
0.0
 20
0.0
 30
0.0
  9
$PUCSBASE
  2

  9
$PUCSNAME
  2

  9
$PUCSORG
 10
0.0
 20
0.0
 30
0.0
  9
$PUCSXDIR
 10
1.0
 20
0.0
 30
0.0
  9
$PUCSYDIR
 10
0.0
 20
1.0
 30
0.0
  9
$PUCSORTHOREF
  2

  9
$PUCSORTHOVIEW
 70
     0
  9
$PUCSORGTOP
 10
0.0
 20
0.0
 30
0.0
  9
$PUCSORGBOTTOM
 10
0.0
 20
0.0
 30
0.0
  9
$PUCSORGLEFT
 10
0.0
 20
0.0
 30
0.0
  9
$PUCSORGRIGHT
 10
0.0
 20
0.0
 30
0.0
  9
$PUCSORGFRONT
 10
0.0
 20
0.0
 30
0.0
  9
$PUCSORGBACK
 10
0.0
 20
0.0
 30
0.0
  9
$USERI1
 70
     0
  9
$USERI2
 70
     0
  9
$USERI3
 70
     0
  9
$USERI4
 70
     0
  9
$USERI5
 70
     0
  9
$USERR1
 40
0.0
  9
$USERR2
 40
0.0
  9
$USERR3
 40
0.0
  9
$USERR4
 40
0.0
  9
$USERR5
 40
0.0
  9
$WORLDVIEW
 70
     1
  9
$SHADEDGE
 70
     3
  9
$SHADEDIF
 70
    70
  9
$TILEMODE
 70
     1
  9
$MAXACTVP
 70
    16
  9
$PINSBASE
 10
0.0
 20
0.0
 30
0.0
  9
$PLIMCHECK
 70
     0
  9
$PEXTMIN
 10
1.000000000000000E+20
 20
1.000000000000000E+20
 30
1.000000000000000E+20
  9
$PEXTMAX
 10
-1.000000000000000E+20
 20
-1.000000000000000E+20
 30
-1.000000000000000E+20
  9
$PLIMMIN
 10
0.0
 20
0.0
  9
$PLIMMAX
 10
12.0
 20
9.0
  9
$UNITMODE
 70
     0
  9
$VISRETAIN
 70
     0
  9
$PLINEGEN
 70
     0
  9
$PSLTSCALE
 70
     0
  9
$TREEDEPTH
 70
  3020
  9
$CMLSTYLE
  2
STANDARD
  9
$CMLJUST
 70
     0
  9
$CMLSCALE
 40
1.0
  9
$PROXYGRAPHICS
 70
     1
  9
$MEASUREMENT
 70
     0
  9
$CELWEIGHT
370
    -1
  9
$ENDCAPS
280
     0
  9
$JOINSTYLE
280
     0
  9
$LWDISPLAY
290
     0
  9
$INSUNITS
 70
     0
  9
$HYPERLINKBASE
  1

  9
$STYLESHEET
  1

  9
$XEDIT
290
     1
  9
$CEPSNTYPE
380
     0
  9
$PSTYLEMODE
290
     1
  9
$FINGERPRINTGUID
  2
{41B22419-8B17-11D5-BE3F-00508B5FCD51}
  9
$VERSIONGUID
  2
{FA1A287B-6B13-4A63-AF7E-52309D6BEB1B}
  9
$EXTNAMES
290
     1
  9
$PSVPSCALE
 40
0.0
  9
$OLESTARTUP
290
     0
  0
ENDSEC
  0
SECTION
  2
CLASSES
  0
CLASS
  1
DICTIONARYVAR
  2
AcDbDictionaryVar
  3
AutoCAD 2000
 90
        0
280
     0
281
     0
  0
CLASS
  1
LWPOLYLINE
  2
AcDbPolyline
  3
AutoCAD 2000
 90
        0
280
     0
281
     1
  0
CLASS
  1
ACDBDICTIONARYWDFLT
  2
AcDbDictionaryWithDefault
  3
AutoCAD 2000
 90
        0
280
     0
281
     0
  0
CLASS
  1
ACDBPLACEHOLDER
  2
AcDbPlaceHolder
  3
ObjectDBX Classes
 90
        0
280
     0
281
     0
  0
CLASS
  1
LAYOUT
  2
AcDbLayout
  3
ObjectDBX Classes
 90
        0
280
     0
281
     0
  0
CLASS
  1
LONG_TRANSACTION
  2
AcDbLongTransaction
  3
ObjectDBX Classes
 90
   -65536
280
     1
281
     0
  0
CLASS
  1
LWPOLYLINE
  2
AcDbPolyline
  3
AutoCAD 2000
 90
        0
280
     0
281
     1
  0
CLASS
  1
HATCH
  2
AcDbHatch
  3
AutoCAD 2000
 90
        0
280
     0
281
     1
  0
CLASS
  1
XRECORD
  2
AcDbXrecord
  3
AutoCAD 2000
 90
        0
280
     0
281
     0
  0
CLASS
  1
LONG_TRANSACTION
  2
AcDbLongTransaction
  3
ObjectDBX Classes
 90
   -65536
280
     1
281
     0
  0
CLASS
  1
LWPOLYLINE
  2
AcDbPolyline
  3
AutoCAD 2000
 90
        0
280
     0
281
     1
  0
CLASS
  1
HATCH
  2
AcDbHatch
  3
AutoCAD 2000
 90
        0
280
     0
281
     1
  0
CLASS
  1
XRECORD
  2
AcDbXrecord
  3
AutoCAD 2000
 90
        0
280
     0
281
     0
  0
CLASS
  1
LONG_TRANSACTION
  2
AcDbLongTransaction
  3
ObjectDBX Classes
 90
   -65536
280
     1
281
     0
  0
CLASS
  1
LWPOLYLINE
  2
AcDbPolyline
  3
AutoCAD 2000
 90
        0
280
     0
281
     1
  0
CLASS
  1
HATCH
  2
AcDbHatch
  3
AutoCAD 2000
 90
        0
280
     0
281
     1
  0
CLASS
  1
XRECORD
  2
AcDbXrecord
  3
AutoCAD 2000
 90
        0
280
     0
281
     0
  0
CLASS
  1
LONG_TRANSACTION
  2
AcDbLongTransaction
  3
ObjectDBX Classes
 90
   -65536
280
     1
281
     0
  0
CLASS
  1
LWPOLYLINE
  2
AcDbPolyline
  3
AutoCAD 2000
 90
        0
280
     0
281
     1
  0
CLASS
  1
HATCH
  2
AcDbHatch
  3
AutoCAD 2000
 90
        0
280
     0
281
     1
  0
CLASS
  1
XRECORD
  2
AcDbXrecord
  3
AutoCAD 2000
 90
        0
280
     0
281
     0
  0
CLASS
  1
LONG_TRANSACTION
  2
AcDbLongTransaction
  3
ObjectDBX Classes
 90
   -65536
280
     1
281
     0
  0
CLASS
  1
LWPOLYLINE
  2
AcDbPolyline
  3
AutoCAD 2000
 90
        0
280
     0
281
     1
  0
CLASS
  1
HATCH
  2
AcDbHatch
  3
AutoCAD 2000
 90
        0
280
     0
281
     1
  0
CLASS
  1
XRECORD
  2
AcDbXrecord
  3
AutoCAD 2000
 90
        0
280
     0
281
     0
  0
CLASS
  1
LONG_TRANSACTION
  2
AcDbLongTransaction
  3
ObjectDBX Classes
 90
   -65536
280
     1
281
     0
  0
CLASS
  1
LWPOLYLINE
  2
AcDbPolyline
  3
AutoCAD 2000
 90
        0
280
     0
281
     1
  0
CLASS
  1
HATCH
  2
AcDbHatch
  3
AutoCAD 2000
 90
        0
280
     0
281
     1
  0
CLASS
  1
XRECORD
  2
AcDbXrecord
  3
AutoCAD 2000
 90
        0
280
     0
281
     0
  0
CLASS
  1
LONG_TRANSACTION
  2
AcDbLongTransaction
  3
ObjectDBX Classes
 90
   -65536
280
     1
281
     0
  0
CLASS
  1
LWPOLYLINE
  2
AcDbPolyline
  3
AutoCAD 2000
 90
        0
280
     0
281
     1
  0
CLASS
  1
HATCH
  2
AcDbHatch
  3
AutoCAD 2000
 90
        0
280
     0
281
     1
  0
CLASS
  1
XRECORD
  2
AcDbXrecord
  3
AutoCAD 2000
 90
        0
280
     0
281
     0
  0
CLASS
  1
LONG_TRANSACTION
  2
AcDbLongTransaction
  3
ObjectDBX Classes
 90
   -65536
280
     1
281
     0
  0
CLASS
  1
LWPOLYLINE
  2
AcDbPolyline
  3
AutoCAD 2000
 90
        0
280
     0
281
     1
  0
CLASS
  1
HATCH
  2
AcDbHatch
  3
AutoCAD 2000
 90
        0
280
     0
281
     1
  0
CLASS
  1
XRECORD
  2
AcDbXrecord
  3
AutoCAD 2000
 90
        0
280
     0
281
     0
  0
CLASS
  1
LONG_TRANSACTION
  2
AcDbLongTransaction
  3
ObjectDBX Classes
 90
   -65536
280
     1
281
     0
  0
CLASS
  1
LWPOLYLINE
  2
AcDbPolyline
  3
AutoCAD 2000
 90
        0
280
     0
281
     1
  0
CLASS
  1
HATCH
  2
AcDbHatch
  3
AutoCAD 2000
 90
        0
280
     0
281
     1
  0
CLASS
  1
XRECORD
  2
AcDbXrecord
  3
AutoCAD 2000
 90
        0
280
     0
281
     0
  0
CLASS
  1
LONG_TRANSACTION
  2
AcDbLongTransaction
  3
ObjectDBX Classes
 90
   -65536
280
     1
281
     0
  0
CLASS
  1
LWPOLYLINE
  2
AcDbPolyline
  3
AutoCAD 2000
 90
        0
280
     0
281
     1
  0
CLASS
  1
HATCH
  2
AcDbHatch
  3
AutoCAD 2000
 90
        0
280
     0
281
     1
  0
CLASS
  1
XRECORD
  2
AcDbXrecord
  3
AutoCAD 2000
 90
        0
280
     0
281
     0
  0
CLASS
  1
LONG_TRANSACTION
  2
AcDbLongTransaction
  3
ObjectDBX Classes
 90
   -65536
280
     1
281
     0
  0
CLASS
  1
LWPOLYLINE
  2
AcDbPolyline
  3
AutoCAD 2000
 90
        0
280
     0
281
     1
  0
CLASS
  1
HATCH
  2
AcDbHatch
  3
AutoCAD 2000
 90
        0
280
     0
281
     1
  0
CLASS
  1
XRECORD
  2
AcDbXrecord
  3
AutoCAD 2000
 90
        0
280
     0
281
     0
  0
CLASS
  1
LONG_TRANSACTION
  2
AcDbLongTransaction
  3
ObjectDBX Classes
 90
   -65536
280
     1
281
     0
  0
CLASS
  1
LWPOLYLINE
  2
AcDbPolyline
  3
AutoCAD 2000
 90
        0
280
     0
281
     1
  0
CLASS
  1
HATCH
  2
AcDbHatch
  3
AutoCAD 2000
 90
        0
280
     0
281
     1
  0
CLASS
  1
XRECORD
  2
AcDbXrecord
  3
AutoCAD 2000
 90
        0
280
     0
281
     0
  0
CLASS
  1
LONG_TRANSACTION
  2
AcDbLongTransaction
  3
ObjectDBX Classes
 90
   -65536
280
     1
281
     0
  0
CLASS
  1
LWPOLYLINE
  2
AcDbPolyline
  3
AutoCAD 2000
 90
        0
280
     0
281
     1
  0
CLASS
  1
HATCH
  2
AcDbHatch
  3
AutoCAD 2000
 90
        0
280
     0
281
     1
  0
CLASS
  1
XRECORD
  2
AcDbXrecord
  3
AutoCAD 2000
 90
        0
280
     0
281
     0
  0
CLASS
  1
LONG_TRANSACTION
  2
AcDbLongTransaction
  3
ObjectDBX Classes
 90
   -65536
280
     1
281
     0
  0
CLASS
  1
LWPOLYLINE
  2
AcDbPolyline
  3
AutoCAD 2000
 90
        0
280
     0
281
     1
  0
CLASS
  1
HATCH
  2
AcDbHatch
  3
AutoCAD 2000
 90
        0
280
     0
281
     1
  0
CLASS
  1
XRECORD
  2
AcDbXrecord
  3
AutoCAD 2000
 90
        0
280
     0
281
     0
  0
CLASS
  1
LONG_TRANSACTION
  2
AcDbLongTransaction
  3
ObjectDBX Classes
 90
   -65536
280
     1
281
     0
  0
CLASS
  1
LWPOLYLINE
  2
AcDbPolyline
  3
AutoCAD 2000
 90
        0
280
     0
281
     1
  0
CLASS
  1
HATCH
  2
AcDbHatch
  3
AutoCAD 2000
 90
        0
280
     0
281
     1
  0
CLASS
  1
XRECORD
  2
AcDbXrecord
  3
AutoCAD 2000
 90
        0
280
     0
281
     0
  0
CLASS
  1
TABLESTYLE
  2
AcDbTableStyle
  3
ObjectDBX Classes
 90
     2047
280
     1
281
     0
  0
ENDSEC
  0
SECTION
  2
TABLES
  0
TABLE
  2
VPORT
  5
1D
330
0
100
AcDbSymbolTable
 70
     3
  0
VPORT
  5
21F
330
1D
100
AcDbSymbolTableRecord
100
AcDbViewportTableRecord
  2
*Active
 70
     0
 10
0.0
 20
0.0
 11
1.0
 21
1.0
 12
13.45963424893047
 22
15.97949165108207
 13
0.0
 23
0.0
 14
0.063
 24
0.063
 15
0.25
 25
0.25
 16
0.0
 26
0.0
 36
1.0
 17
0.0
 27
0.0
 37
0.0
 40
32.44069673980471
 41
1.814583333333333
 42
50.0
 43
0.0
 44
0.0
 50
0.0
 51
0.0
 71
     0
 72
   100
 73
     1
 74
     1
 75
     0
 76
     0
 77
     0
 78
     0
281
     0
 65
     1
110
0.0
120
0.0
130
0.0
111
1.0
121
0.0
131
0.0
112
0.0
122
1.0
132
0.0
 79
     0
146
0.0
  0
ENDTAB
  0
TABLE
  2
LTYPE
  5
18
330
0
100
AcDbSymbolTable
 70
     2
  0
LTYPE
  5
19
330
18
100
AcDbSymbolTableRecord
100
AcDbLinetypeTableRecord
  2
BYBLOCK
 70
     0
  3

 72
    65
 73
     0
 40
0.0
  0
LTYPE
  5
1A
330
18
100
AcDbSymbolTableRecord
100
AcDbLinetypeTableRecord
  2
BYLAYER
 70
     0
  3

 72
    65
 73
     0
 40
0.0
  0
LTYPE
  5
A
330
18
100
AcDbSymbolTableRecord
100
AcDbLinetypeTableRecord
  2
CONTINUOUS
 70
     0
  3
Solid line
 72
    65
 73
     0
 40
0.0
  0
LTYPE
  5
30
330
18
100
AcDbSymbolTableRecord
100
AcDbLinetypeTableRecord
  2
DASHED
 70
     0
  3
__ __ __ __ __ __ __ __ __ __ __ __ __ __ __
 72
    65
 73
     2
 40
0.75
 49
0.5
 74
     0
 49
-0.25
 74
     0
  0
ENDTAB
  0
TABLE
  2
LAYER
  5
14
330
0
100
AcDbSymbolTable
 70
     1
  0
LAYER
  5
6
330
14
100
AcDbSymbolTableRecord
100
AcDbLayerTableRecord
  2
0
 70
     0
 62
     7
  6
CONTINUOUS
370
    -3
390
7
  0
ENDTAB
  0
TABLE
  2
STYLE
  5
15
330
0
100
AcDbSymbolTable
 70
     1
  0
STYLE
  5
16
330
15
100
AcDbSymbolTableRecord
100
AcDbTextStyleTableRecord
  2
STANDARD
 70
     0
 40
0.0
 41
1.0
 50
0.0
 71
     0
 42
0.36
  3
TXT
  4

  0
ENDTAB
  0
TABLE
  2
VIEW
  5
1B
330
0
100
AcDbSymbolTable
 70
     0
  0
ENDTAB
  0
TABLE
  2
UCS
  5
1C
330
0
100
AcDbSymbolTable
 70
     0
  0
ENDTAB
  0
TABLE
  2
APPID
  5
1F
330
0
100
AcDbSymbolTable
 70
     1
  0
APPID
  5
20
330
1F
100
AcDbSymbolTableRecord
100
AcDbRegAppTableRecord
  2
ACAD
 70
     0
  0
ENDTAB
  0
TABLE
  2
DIMSTYLE
  5
21
330
0
100
AcDbSymbolTable
 70
     1
100
AcDbDimStyleTable
  0
DIMSTYLE
105
27
330
21
100
AcDbSymbolTableRecord
100
AcDbDimStyleTableRecord
  2
STANDARD
 70
     0
  3

  4

340
16
  0
ENDTAB
  0
TABLE
  2
BLOCK_RECORD
  5
1
330
0
100
AcDbSymbolTable
 70
     0
  0
BLOCK_RECORD
  5
2
330
1
100
AcDbSymbolTableRecord
100
AcDbBlockTableRecord
  2
*MODEL_SPACE
340
C
  0
BLOCK_RECORD
  5
E
330
1
100
AcDbSymbolTableRecord
100
AcDbBlockTableRecord
  2
*PAPER_SPACE
340
13
  0
ENDTAB
  0
ENDSEC
  0
SECTION
  2
BLOCKS
  0
BLOCK
  5
5
330
2
100
AcDbEntity
  8
0
100
AcDbBlockBegin
  2
*MODEL_SPACE
 70
     0
 10
0.0
 20
0.0
 30
0.0
  3
*MODEL_SPACE
  1

  4

  0
ENDBLK
  5
B
330
2
100
AcDbEntity
  8
0
100
AcDbBlockEnd
  0
BLOCK
  5
11
330
E
100
AcDbEntity
 67
     1
  8
0
100
AcDbBlockBegin
  2
*PAPER_SPACE
 70
     0
 10
0.0
 20
0.0
 30
0.0
  3
*PAPER_SPACE
  1

  4

  0
ENDBLK
  5
12
330
E
100
AcDbEntity
 67
     1
  8
0
100
AcDbBlockEnd
  0
ENDSEC
  0
SECTION
  2
ENTITIES
  0
LINE
  5
28
330
2
100
AcDbEntity
  8
0
  6
Continuous
100
AcDbLine
 10
1.771836571357705
 20
19.27215940499987
 30
0.0
 11
1.771836571357705
 21
15.24090940499987
 31
0.0
  0
LINE
  5
29
330
2
100
AcDbEntity
  8
0
  6
Continuous
100
AcDbLine
 10
1.865586571357705
 20
19.27215940499987
 30
0.0
 11
1.865586571357705
 21
15.24090940499987
 31
0.0
  0
LINE
  5
2A
330
2
100
AcDbEntity
  8
0
  6
Continuous
100
AcDbLine
 10
-1.790663051973375
 20
19.27215940499987
 30
0.0
 11
-1.790663051973374
 21
15.24090940499988
 31
0.0
  0
LINE
  5
2B
330
2
100
AcDbEntity
  8
0
  6
Continuous
100
AcDbLine
 10
-1.884413051973374
 20
19.27215940499987
 30
0.0
 11
-1.884413051973372
 21
15.24090940499988
 31
0.0
  0
ARC
  5
2C
330
2
100
AcDbEntity
  8
0
100
AcDbCircle
 10
-13.43101717488499
 20
6.066397300821382
 30
0.0
 40
0.125
100
AcDbArc
 50
314.9999999999999
 51
0.000000000000007
  0
LINE
  5
2D
330
2
100
AcDbEntity
  8
0
  6
Continuous
100
AcDbLine
 10
-14.9863122517317
 20
0.3057337165496961
 30
0.0
 11
-14.9863122517317
 21
6.569923724782655
 31
0.0
  0
LINE
  5
2E
330
2
100
AcDbEntity
  8
0
  6
Continuous
100
AcDbLine
 10
-15.0800622517317
 20
0.380677997619733
 30
0.0
 11
-15.0800622517317
 21
10.56992372478266
 31
0.0
  0
LINE
  5
2F
330
2
100
AcDbEntity
  8
0
  6
DASHED
100
AcDbLine
 10
-14.81736015322533
 20
0.0699237247826598
 30
0.0
 11
-10.82755931491507
 21
0.0699237247826598
 31
0.0
  0
LINE
  5
31
330
2
100
AcDbEntity
  8
0
  6
Continuous
100
AcDbLine
 10
-14.78204638316484
 20
-0.0238262752173402
 30
0.0
 11
-10.81081676001559
 21
-0.0238262752173402
 31
0.0
  0
LINE
  5
32
330
2
100
AcDbEntity
  8
0
100
AcDbLine
 10
-12.35411421374128
 20
1.750217644380985
 30
0.0
 11
-11.02568708899511
 21
0.4217905196348291
 31
0.0
  0
ARC
  5
33
330
2
100
AcDbEntity
  8
0
100
AcDbCircle
 10
-15.49999461519505
 20
-0.2407371696525882
 30
0.0
 40
0.75
100
AcDbArc
 50
16.81093668363816
 51
55.95043871709996
  0
LWPOLYLINE
  5
34
330
2
100
AcDbEntity
  8
0
100
AcDbPolyline
 90
        9
 70
     0
 43
0.0
 10
-14.0488122517317
 20
0.7128362247826559
 42
-0.0700628980345364
 10
-14.12793105553175
 20
0.723977500551527
 42
-0.0818514225363451
 10
-14.18982737365819
 20
0.7533543404402607
 42
-0.1069100077216601
 10
-14.23442552472369
 20
0.8011012531952915
 42
-0.135394011665182
 10
-14.24823774965984
 20
0.8511737247826545
 42
-0.1353940116651818
 10
-14.23442552472369
 20
0.9012461963700247
 42
-0.1069100077216599
 10
-14.18982737365819
 20
0.9489931091250483
 42
-0.0818514225363446
 10
-14.12793105553175
 20
0.9783699490137892
 42
-0.0700628980345367
 10
-14.0488122517317
 20
0.9895112247826603
 42
-0.0700628980345371
  0
LINE
  5
35
330
2
100
AcDbEntity
  8
0
100
AcDbLine
 10
-14.0488122517317
 20
0.7128362247826559
 30
0.0
 11
-14.0488122517317
 21
0.9895112247826603
 31
0.0
  0
LWPOLYLINE
  5
36
330
2
100
AcDbEntity
  8
0
100
AcDbPolyline
 90
        9
 70
     0
 43
0.0
 10
-14.0488122517317
 20
0.7714862247826559
 42
-0.147269582437036
 10
-14.06650867489424
 20
0.7768140664704504
 42
-0.1071386913803464
 10
-14.08406056855775
 20
0.7948261531568548
 42
-0.0765137470862007
 10
-14.09460248260452
 20
0.8193308911910151
 42
-0.063469041210727
 10
-14.09866089943792
 20
0.8511737247826616
 42
-0.0634690412107267
 10
-14.09460248260452
 20
0.883016558374301
 42
-0.0765137470862059
 10
-14.08406056855775
 20
0.9075212964084614
 42
-0.1071386913803463
 10
-14.06650867489424
 20
0.9255333830948658
 42
-0.1472695824370325
 10
-14.0488122517317
 20
0.9308612247826602
 42
-0.1472695824370333
  0
LWPOLYLINE
  5
37
330
2
100
AcDbEntity
  8
0
100
AcDbPolyline
 90
        9
 70
     0
 43
0.0
 10
-14.0488122517317
 20
0.7421612247826559
 42
-0.1432467981947568
 10
-14.07403690258716
 20
0.7495393216539057
 42
-0.1071754848060475
 10
-14.09872306855775
 20
0.7740902467985578
 42
-0.0783035184710328
 10
-14.11366973618011
 20
0.8077115011493561
 42
-0.0656020556757086
 10
-14.11939680579621
 20
0.8511737247826616
 42
-0.0656020556757101
 10
-14.11366973618011
 20
0.8946359484159601
 42
-0.0783035184710357
 10
-14.09872306855775
 20
0.9282572027667584
 42
-0.1071754848060445
 10
-14.07403690258716
 20
0.9528081279114105
 42
-0.1432467981947535
 10
-14.0488122517317
 20
0.9601862247826603
 42
-0.1432467981947515
  0
ARC
  5
38
330
2
100
AcDbEntity
  8
0
100
AcDbCircle
 10
-10.05601717488499
 20
4.048314683237312
 30
0.0
 40
3.25
100
AcDbArc
 50
180.0
 51
225.0000000000005
  0
LINE
  5
39
330
2
100
AcDbEntity
  8
0
100
AcDbLine
 10
-14.0488122517317
 20
1.712836224782656
 30
0.0
 11
-14.0488122517317
 21
1.98951122478266
 31
0.0
  0
LWPOLYLINE
  5
3A
330
2
100
AcDbEntity
  8
0
100
AcDbPolyline
 90
        9
 70
     0
 43
0.0
 10
-14.0488122517317
 20
1.742161224782656
 42
-0.1432467981947568
 10
-14.07403690258716
 20
1.749539321653906
 42
-0.1071754848060475
 10
-14.09872306855775
 20
1.774090246798558
 42
-0.0783035184710328
 10
-14.11366973618011
 20
1.807711501149356
 42
-0.0656020556757086
 10
-14.11939680579621
 20
1.851173724782662
 42
-0.0656020556757101
 10
-14.11366973618011
 20
1.89463594841596
 42
-0.0783035184710357
 10
-14.09872306855775
 20
1.928257202766758
 42
-0.1071754848060445
 10
-14.07403690258716
 20
1.952808127911411
 42
-0.1432467981947535
 10
-14.0488122517317
 20
1.96018622478266
 42
-0.1432467981947515
  0
LWPOLYLINE
  5
3B
330
2
100
AcDbEntity
  8
0
100
AcDbPolyline
 90
        9
 70
     0
 43
0.0
 10
-14.0488122517317
 20
1.771486224782656
 42
-0.147269582437036
 10
-14.06650867489424
 20
1.77681406647045
 42
-0.1071386913803464
 10
-14.08406056855775
 20
1.794826153156855
 42
-0.0765137470862007
 10
-14.09460248260452
 20
1.819330891191015
 42
-0.063469041210727
 10
-14.09866089943792
 20
1.851173724782662
 42
-0.0634690412107267
 10
-14.09460248260452
 20
1.883016558374301
 42
-0.0765137470862059
 10
-14.08406056855775
 20
1.907521296408461
 42
-0.1071386913803463
 10
-14.06650867489424
 20
1.925533383094866
 42
-0.1472695824370325
 10
-14.0488122517317
 20
1.93086122478266
 42
-0.1472695824370333
  0
LWPOLYLINE
  5
3C
330
2
100
AcDbEntity
  8
0
100
AcDbPolyline
 90
        9
 70
     0
 43
0.0
 10
-14.0488122517317
 20
1.712836224782656
 42
-0.0700628980345364
 10
-14.12793105553175
 20
1.723977500551527
 42
-0.0818514225363451
 10
-14.18982737365819
 20
1.753354340440261
 42
-0.1069100077216601
 10
-14.23442552472369
 20
1.801101253195292
 42
-0.135394011665182
 10
-14.24823774965984
 20
1.851173724782655
 42
-0.1353940116651818
 10
-14.23442552472369
 20
1.901246196370025
 42
-0.1069100077216599
 10
-14.18982737365819
 20
1.948993109125048
 42
-0.0818514225363446
 10
-14.12793105553175
 20
1.978369949013789
 42
-0.0700628980345367
 10
-14.0488122517317
 20
1.98951122478266
 42
-0.0700628980345371
  0
LINE
  5
3D
330
2
100
AcDbEntity
  8
0
100
AcDbLine
 10
-14.0488122517317
 20
2.712836224782656
 30
0.0
 11
-14.0488122517317
 21
2.98951122478266
 31
0.0
  0
LWPOLYLINE
  5
3E
330
2
100
AcDbEntity
  8
0
100
AcDbPolyline
 90
        9
 70
     0
 43
0.0
 10
-14.0488122517317
 20
2.742161224782656
 42
-0.1432467981947568
 10
-14.07403690258716
 20
2.749539321653906
 42
-0.1071754848060475
 10
-14.09872306855775
 20
2.774090246798558
 42
-0.0783035184710328
 10
-14.11366973618011
 20
2.807711501149356
 42
-0.0656020556757086
 10
-14.11939680579621
 20
2.851173724782662
 42
-0.0656020556757101
 10
-14.11366973618011
 20
2.89463594841596
 42
-0.0783035184710357
 10
-14.09872306855775
 20
2.928257202766758
 42
-0.1071754848060445
 10
-14.07403690258716
 20
2.952808127911411
 42
-0.1432467981947535
 10
-14.0488122517317
 20
2.96018622478266
 42
-0.1432467981947515
  0
LWPOLYLINE
  5
3F
330
2
100
AcDbEntity
  8
0
100
AcDbPolyline
 90
        9
 70
     0
 43
0.0
 10
-14.0488122517317
 20
2.712836224782656
 42
-0.0700628980345364
 10
-14.12793105553175
 20
2.723977500551527
 42
-0.0818514225363451
 10
-14.18982737365819
 20
2.753354340440261
 42
-0.1069100077216601
 10
-14.23442552472369
 20
2.801101253195292
 42
-0.135394011665182
 10
-14.24823774965984
 20
2.851173724782655
 42
-0.1353940116651818
 10
-14.23442552472369
 20
2.901246196370025
 42
-0.1069100077216599
 10
-14.18982737365819
 20
2.948993109125048
 42
-0.0818514225363446
 10
-14.12793105553175
 20
2.978369949013789
 42
-0.0700628980345367
 10
-14.0488122517317
 20
2.98951122478266
 42
-0.0700628980345371
  0
LWPOLYLINE
  5
40
330
2
100
AcDbEntity
  8
0
100
AcDbPolyline
 90
        9
 70
     0
 43
0.0
 10
-14.0488122517317
 20
2.771486224782656
 42
-0.147269582437036
 10
-14.06650867489424
 20
2.77681406647045
 42
-0.1071386913803464
 10
-14.08406056855775
 20
2.794826153156855
 42
-0.0765137470862007
 10
-14.09460248260452
 20
2.819330891191015
 42
-0.063469041210727
 10
-14.09866089943792
 20
2.851173724782662
 42
-0.0634690412107267
 10
-14.09460248260452
 20
2.883016558374301
 42
-0.0765137470862059
 10
-14.08406056855775
 20
2.907521296408461
 42
-0.1071386913803463
 10
-14.06650867489424
 20
2.925533383094866
 42
-0.1472695824370325
 10
-14.0488122517317
 20
2.93086122478266
 42
-0.1472695824370333
  0
LWPOLYLINE
  5
41
330
2
100
AcDbEntity
  8
0
100
AcDbPolyline
 90
        9
 70
     0
 43
0.0
 10
-14.0488122517317
 20
4.712836224782656
 42
-0.0700628980345364
 10
-14.12793105553175
 20
4.723977500551527
 42
-0.0818514225363451
 10
-14.18982737365819
 20
4.753354340440261
 42
-0.1069100077216601
 10
-14.23442552472369
 20
4.801101253195292
 42
-0.135394011665182
 10
-14.24823774965984
 20
4.851173724782655
 42
-0.1353940116651818
 10
-14.23442552472369
 20
4.901246196370025
 42
-0.1069100077216599
 10
-14.18982737365819
 20
4.948993109125048
 42
-0.0818514225363446
 10
-14.12793105553175
 20
4.978369949013789
 42
-0.0700628980345367
 10
-14.0488122517317
 20
4.98951122478266
 42
-0.0700628980345371
  0
LWPOLYLINE
  5
42
330
2
100
AcDbEntity
  8
0
100
AcDbPolyline
 90
        9
 70
     0
 43
0.0
 10
-14.0488122517317
 20
4.742161224782656
 42
-0.1432467981947568
 10
-14.07403690258716
 20
4.749539321653906
 42
-0.1071754848060475
 10
-14.09872306855775
 20
4.774090246798558
 42
-0.0783035184710328
 10
-14.11366973618011
 20
4.807711501149356
 42
-0.0656020556757086
 10
-14.11939680579621
 20
4.851173724782662
 42
-0.0656020556757101
 10
-14.11366973618011
 20
4.89463594841596
 42
-0.0783035184710357
 10
-14.09872306855775
 20
4.928257202766758
 42
-0.1071754848060445
 10
-14.07403690258716
 20
4.952808127911411
 42
-0.1432467981947535
 10
-14.0488122517317
 20
4.96018622478266
 42
-0.1432467981947515
  0
LINE
  5
43
330
2
100
AcDbEntity
  8
0
100
AcDbLine
 10
-14.0488122517317
 20
4.712836224782656
 30
0.0
 11
-14.0488122517317
 21
4.98951122478266
 31
0.0
  0
LWPOLYLINE
  5
44
330
2
100
AcDbEntity
  8
0
100
AcDbPolyline
 90
        9
 70
     0
 43
0.0
 10
-14.0488122517317
 20
3.771486224782656
 42
-0.147269582437036
 10
-14.06650867489424
 20
3.77681406647045
 42
-0.1071386913803464
 10
-14.08406056855775
 20
3.794826153156855
 42
-0.0765137470862007
 10
-14.09460248260452
 20
3.819330891191015
 42
-0.063469041210727
 10
-14.09866089943792
 20
3.851173724782662
 42
-0.0634690412107267
 10
-14.09460248260452
 20
3.883016558374301
 42
-0.0765137470862059
 10
-14.08406056855775
 20
3.907521296408461
 42
-0.1071386913803463
 10
-14.06650867489424
 20
3.925533383094866
 42
-0.1472695824370325
 10
-14.0488122517317
 20
3.93086122478266
 42
-0.1472695824370333
  0
LWPOLYLINE
  5
45
330
2
100
AcDbEntity
  8
0
100
AcDbPolyline
 90
        9
 70
     0
 43
0.0
 10
-14.0488122517317
 20
3.712836224782656
 42
-0.0700628980345364
 10
-14.12793105553175
 20
3.723977500551527
 42
-0.0818514225363451
 10
-14.18982737365819
 20
3.753354340440261
 42
-0.1069100077216601
 10
-14.23442552472369
 20
3.801101253195292
 42
-0.135394011665182
 10
-14.24823774965984
 20
3.851173724782655
 42
-0.1353940116651818
 10
-14.23442552472369
 20
3.901246196370025
 42
-0.1069100077216599
 10
-14.18982737365819
 20
3.948993109125048
 42
-0.0818514225363446
 10
-14.12793105553175
 20
3.978369949013789
 42
-0.0700628980345367
 10
-14.0488122517317
 20
3.98951122478266
 42
-0.0700628980345371
  0
LWPOLYLINE
  5
46
330
2
100
AcDbEntity
  8
0
100
AcDbPolyline
 90
        9
 70
     0
 43
0.0
 10
-14.0488122517317
 20
3.742161224782656
 42
-0.1432467981947568
 10
-14.07403690258716
 20
3.749539321653906
 42
-0.1071754848060475
 10
-14.09872306855775
 20
3.774090246798558
 42
-0.0783035184710328
 10
-14.11366973618011
 20
3.807711501149356
 42
-0.0656020556757086
 10
-14.11939680579621
 20
3.851173724782662
 42
-0.0656020556757101
 10
-14.11366973618011
 20
3.89463594841596
 42
-0.0783035184710357
 10
-14.09872306855775
 20
3.928257202766758
 42
-0.1071754848060445
 10
-14.07403690258716
 20
3.952808127911411
 42
-0.1432467981947535
 10
-14.0488122517317
 20
3.96018622478266
 42
-0.1432467981947515
  0
LINE
  5
47
330
2
100
AcDbEntity
  8
0
100
AcDbLine
 10
-14.0488122517317
 20
3.712836224782656
 30
0.0
 11
-14.0488122517317
 21
3.98951122478266
 31
0.0
  0
LWPOLYLINE
  5
48
330
2
100
AcDbEntity
  8
0
100
AcDbPolyline
 90
        9
 70
     0
 43
0.0
 10
-14.0488122517317
 20
4.771486224782656
 42
-0.147269582437036
 10
-14.06650867489424
 20
4.77681406647045
 42
-0.1071386913803464
 10
-14.08406056855775
 20
4.794826153156855
 42
-0.0765137470862007
 10
-14.09460248260452
 20
4.819330891191015
 42
-0.063469041210727
 10
-14.09866089943792
 20
4.851173724782662
 42
-0.0634690412107267
 10
-14.09460248260452
 20
4.883016558374301
 42
-0.0765137470862059
 10
-14.08406056855775
 20
4.907521296408461
 42
-0.1071386913803463
 10
-14.06650867489424
 20
4.925533383094866
 42
-0.1472695824370325
 10
-14.0488122517317
 20
4.93086122478266
 42
-0.1472695824370333
  0
LINE
  5
49
330
2
100
AcDbEntity
  8
0
100
AcDbLine
 10
-14.0488122517317
 20
5.712836224782656
 30
0.0
 11
-14.0488122517317
 21
5.98951122478266
 31
0.0
  0
LWPOLYLINE
  5
4A
330
2
100
AcDbEntity
  8
0
100
AcDbPolyline
 90
        9
 70
     0
 43
0.0
 10
-14.0488122517317
 20
5.742161224782656
 42
-0.1432467981947568
 10
-14.07403690258716
 20
5.749539321653906
 42
-0.1071754848060475
 10
-14.09872306855775
 20
5.774090246798558
 42
-0.0783035184710328
 10
-14.11366973618011
 20
5.807711501149356
 42
-0.0656020556757086
 10
-14.11939680579621
 20
5.851173724782662
 42
-0.0656020556757101
 10
-14.11366973618011
 20
5.89463594841596
 42
-0.0783035184710357
 10
-14.09872306855775
 20
5.928257202766758
 42
-0.1071754848060445
 10
-14.07403690258716
 20
5.952808127911411
 42
-0.1432467981947535
 10
-14.0488122517317
 20
5.96018622478266
 42
-0.1432467981947515
  0
LWPOLYLINE
  5
4B
330
2
100
AcDbEntity
  8
0
100
AcDbPolyline
 90
        9
 70
     0
 43
0.0
 10
-14.0488122517317
 20
5.771486224782656
 42
-0.147269582437036
 10
-14.06650867489424
 20
5.77681406647045
 42
-0.1071386913803464
 10
-14.08406056855775
 20
5.794826153156855
 42
-0.0765137470862007
 10
-14.09460248260452
 20
5.819330891191015
 42
-0.063469041210727
 10
-14.09866089943792
 20
5.851173724782662
 42
-0.0634690412107267
 10
-14.09460248260452
 20
5.883016558374301
 42
-0.0765137470862059
 10
-14.08406056855775
 20
5.907521296408461
 42
-0.1071386913803463
 10
-14.06650867489424
 20
5.925533383094866
 42
-0.1472695824370325
 10
-14.0488122517317
 20
5.93086122478266
 42
-0.1472695824370333
  0
LWPOLYLINE
  5
4C
330
2
100
AcDbEntity
  8
0
100
AcDbPolyline
 90
        9
 70
     0
 43
0.0
 10
-14.0488122517317
 20
5.712836224782656
 42
-0.0700628980345364
 10
-14.12793105553175
 20
5.723977500551527
 42
-0.0818514225363451
 10
-14.18982737365819
 20
5.753354340440261
 42
-0.1069100077216601
 10
-14.23442552472369
 20
5.801101253195292
 42
-0.135394011665182
 10
-14.24823774965984
 20
5.851173724782655
 42
-0.1353940116651818
 10
-14.23442552472369
 20
5.901246196370025
 42
-0.1069100077216599
 10
-14.18982737365819
 20
5.948993109125048
 42
-0.0818514225363446
 10
-14.12793105553175
 20
5.978369949013789
 42
-0.0700628980345367
 10
-14.0488122517317
 20
5.98951122478266
 42
-0.0700628980345371
  0
LINE
  5
4D
330
2
100
AcDbEntity
  8
0
100
AcDbLine
 10
-13.58190552253331
 20
4.915508953173063
 30
0.0
 11
-13.34262882723667
 21
4.676232257876425
 31
0.0
  0
LINE
  5
4E
330
2
100
AcDbEntity
  8
0
100
AcDbLine
 10
-13.30601717488499
 20
4.048314683237312
 30
0.0
 11
-13.30601717488499
 21
4.587843910228106
 31
0.0
  0
ARC
  5
4F
330
2
100
AcDbEntity
  8
0
100
AcDbCircle
 10
-13.43101717488499
 20
4.587843910228106
 30
0.0
 40
0.125
100
AcDbArc
 50
0.000000000000007
 51
45.00000000000016
  0
LINE
  5
50
330
2
100
AcDbEntity
  8
0
100
AcDbLine
 10
-13.61851717488499
 20
5.650343910228106
 30
0.0
 11
-13.61851717488499
 21
5.003897300821382
 31
0.0
  0
ARC
  5
51
330
2
100
AcDbEntity
  8
0
100
AcDbCircle
 10
-13.49351717488499
 20
5.003897300821382
 30
0.0
 40
0.125
100
AcDbArc
 50
180.0
 51
225.0000000000003
  0
ARC
  5
52
330
2
100
AcDbEntity
  8
0
100
AcDbCircle
 10
-13.49351717488499
 20
5.650343910228106
 30
0.0
 40
0.125
100
AcDbArc
 50
134.9999999999999
 51
180.0
  0
LINE
  5
53
330
2
100
AcDbEntity
  8
0
100
AcDbLine
 10
-13.34262882723667
 20
5.978008953173063
 30
0.0
 11
-13.58190552253331
 21
5.738732257876425
 31
0.0
  0
ARC
  5
54
330
2
100
AcDbEntity
  8
0
100
AcDbCircle
 10
-11.55601717488501
 20
-0.1085395662550575
 30
0.0
 40
0.75
100
AcDbArc
 50
6.485459088256569
 51
45.00000000000052
  0
LINE
  5
55
330
2
100
AcDbEntity
  8
0
100
AcDbLine
 10
-13.30601717488499
 20
8.569923724782658
 30
0.0
 11
-13.30601717488499
 21
8.066397044777109
 31
0.0
  0
LINE
  5
56
330
2
100
AcDbEntity
  8
0
100
AcDbLine
 10
-13.30601717488499
 20
8.066397300821382
 30
0.0
 11
-13.30601717488499
 21
8.569923724782658
 31
0.0
  0
LINE
  5
57
330
2
100
AcDbEntity
  8
0
100
AcDbLine
 10
-13.30601717488499
 20
8.569923724782658
 30
0.0
 11
-13.30601717488499
 21
8.066397044777109
 31
0.0
  0
LINE
  5
58
330
2
100
AcDbEntity
  8
0
100
AcDbLine
 10
-13.30601717488499
 20
8.066397300821382
 30
0.0
 11
-13.30601717488499
 21
8.569923724782658
 31
0.0
  0
LINE
  5
59
330
2
100
AcDbEntity
  8
0
100
AcDbLine
 10
-14.9863122517317
 20
10.56992372478266
 30
0.0
 11
-14.9863122517317
 21
6.269923724782654
 31
0.0
  0
LINE
  5
5A
330
2
100
AcDbEntity
  8
0
100
AcDbLine
 10
-14.0488122517317
 20
6.712836224782656
 30
0.0
 11
-14.0488122517317
 21
6.98951122478266
 31
0.0
  0
LWPOLYLINE
  5
5B
330
2
100
AcDbEntity
  8
0
100
AcDbPolyline
 90
        9
 70
     0
 43
0.0
 10
-14.0488122517317
 20
6.742161224782656
 42
-0.1432467981947568
 10
-14.07403690258716
 20
6.749539321653906
 42
-0.1071754848060475
 10
-14.09872306855775
 20
6.774090246798558
 42
-0.0783035184710328
 10
-14.11366973618011
 20
6.807711501149356
 42
-0.0656020556757086
 10
-14.11939680579621
 20
6.851173724782662
 42
-0.0656020556757101
 10
-14.11366973618011
 20
6.89463594841596
 42
-0.0783035184710357
 10
-14.09872306855775
 20
6.928257202766758
 42
-0.1071754848060445
 10
-14.07403690258716
 20
6.952808127911411
 42
-0.1432467981947535
 10
-14.0488122517317
 20
6.96018622478266
 42
-0.1432467981947515
  0
LWPOLYLINE
  5
5C
330
2
100
AcDbEntity
  8
0
100
AcDbPolyline
 90
        9
 70
     0
 43
0.0
 10
-14.0488122517317
 20
6.712836224782656
 42
-0.0700628980345364
 10
-14.12793105553175
 20
6.723977500551527
 42
-0.0818514225363451
 10
-14.18982737365819
 20
6.753354340440261
 42
-0.1069100077216601
 10
-14.23442552472369
 20
6.801101253195292
 42
-0.135394011665182
 10
-14.24823774965984
 20
6.851173724782655
 42
-0.1353940116651818
 10
-14.23442552472369
 20
6.901246196370025
 42
-0.1069100077216599
 10
-14.18982737365819
 20
6.948993109125048
 42
-0.0818514225363446
 10
-14.12793105553175
 20
6.978369949013789
 42
-0.0700628980345367
 10
-14.0488122517317
 20
6.98951122478266
 42
-0.0700628980345371
  0
LWPOLYLINE
  5
5D
330
2
100
AcDbEntity
  8
0
100
AcDbPolyline
 90
        9
 70
     0
 43
0.0
 10
-14.0488122517317
 20
6.771486224782656
 42
-0.147269582437036
 10
-14.06650867489424
 20
6.77681406647045
 42
-0.1071386913803464
 10
-14.08406056855775
 20
6.794826153156855
 42
-0.0765137470862007
 10
-14.09460248260452
 20
6.819330891191015
 42
-0.063469041210727
 10
-14.09866089943792
 20
6.851173724782662
 42
-0.0634690412107267
 10
-14.09460248260452
 20
6.883016558374301
 42
-0.0765137470862059
 10
-14.08406056855775
 20
6.907521296408461
 42
-0.1071386913803463
 10
-14.06650867489424
 20
6.925533383094866
 42
-0.1472695824370325
 10
-14.0488122517317
 20
6.93086122478266
 42
-0.1472695824370333
  0
LWPOLYLINE
  5
5E
330
2
100
AcDbEntity
  8
0
100
AcDbPolyline
 90
        9
 70
     0
 43
0.0
 10
-14.0488122517317
 20
7.712836224782656
 42
-0.0700628980345364
 10
-14.12793105553175
 20
7.723977500551527
 42
-0.0818514225363451
 10
-14.18982737365819
 20
7.753354340440261
 42
-0.1069100077216601
 10
-14.23442552472369
 20
7.801101253195292
 42
-0.135394011665182
 10
-14.24823774965984
 20
7.851173724782655
 42
-0.1353940116651818
 10
-14.23442552472369
 20
7.901246196370025
 42
-0.1069100077216599
 10
-14.18982737365819
 20
7.948993109125048
 42
-0.0818514225363446
 10
-14.12793105553175
 20
7.978369949013789
 42
-0.0700628980345367
 10
-14.0488122517317
 20
7.98951122478266
 42
-0.0700628980345371
  0
LWPOLYLINE
  5
5F
330
2
100
AcDbEntity
  8
0
100
AcDbPolyline
 90
        9
 70
     0
 43
0.0
 10
-14.0488122517317
 20
7.771486224782656
 42
-0.147269582437036
 10
-14.06650867489424
 20
7.77681406647045
 42
-0.1071386913803464
 10
-14.08406056855775
 20
7.794826153156855
 42
-0.0765137470862007
 10
-14.09460248260452
 20
7.819330891191015
 42
-0.063469041210727
 10
-14.09866089943792
 20
7.851173724782662
 42
-0.0634690412107267
 10
-14.09460248260452
 20
7.883016558374301
 42
-0.0765137470862059
 10
-14.08406056855775
 20
7.907521296408461
 42
-0.1071386913803463
 10
-14.06650867489424
 20
7.925533383094866
 42
-0.1472695824370325
 10
-14.0488122517317
 20
7.93086122478266
 42
-0.1472695824370333
  0
LWPOLYLINE
  5
60
330
2
100
AcDbEntity
  8
0
100
AcDbPolyline
 90
        9
 70
     0
 43
0.0
 10
-14.0488122517317
 20
7.742161224782656
 42
-0.1432467981947568
 10
-14.07403690258716
 20
7.749539321653906
 42
-0.1071754848060475
 10
-14.09872306855775
 20
7.774090246798558
 42
-0.0783035184710328
 10
-14.11366973618011
 20
7.807711501149356
 42
-0.0656020556757086
 10
-14.11939680579621
 20
7.851173724782662
 42
-0.0656020556757101
 10
-14.11366973618011
 20
7.89463594841596
 42
-0.0783035184710357
 10
-14.09872306855775
 20
7.928257202766758
 42
-0.1071754848060445
 10
-14.07403690258716
 20
7.952808127911411
 42
-0.1432467981947535
 10
-14.0488122517317
 20
7.96018622478266
 42
-0.1432467981947515
  0
LINE
  5
61
330
2
100
AcDbEntity
  8
0
100
AcDbLine
 10
-14.0488122517317
 20
7.712836224782656
 30
0.0
 11
-14.0488122517317
 21
7.98951122478266
 31
0.0
  0
LINE
  5
62
330
2
100
AcDbEntity
  8
0
100
AcDbLine
 10
-13.61851717488499
 20
7.650343910228106
 30
0.0
 11
-13.61851717488499
 21
7.003897300821382
 31
0.0
  0
ARC
  5
63
330
2
100
AcDbEntity
  8
0
100
AcDbCircle
 10
-13.43101717488499
 20
6.587843910228106
 30
0.0
 40
0.125
100
AcDbArc
 50
0.000000000000007
 51
45.00000000000016
  0
LINE
  5
64
330
2
100
AcDbEntity
  8
0
100
AcDbLine
 10
-13.30601717488499
 20
6.066397300821382
 30
0.0
 11
-13.30601717488499
 21
6.569923724782658
 31
0.0
  0
LINE
  5
65
330
2
100
AcDbEntity
  8
0
100
AcDbLine
 10
-13.30601717488499
 20
6.569923724782658
 30
0.0
 11
-13.30601717488499
 21
6.066397044777109
 31
0.0
  0
ARC
  5
66
330
2
100
AcDbEntity
  8
0
100
AcDbCircle
 10
-13.49351717488499
 20
7.003897300821382
 30
0.0
 40
0.125
100
AcDbArc
 50
180.0
 51
225.0000000000003
  0
LINE
  5
67
330
2
100
AcDbEntity
  8
0
100
AcDbLine
 10
-13.58190552253331
 20
6.915508953173063
 30
0.0
 11
-13.34262882723667
 21
6.676232257876425
 31
0.0
  0
LINE
  5
68
330
2
100
AcDbEntity
  8
0
100
AcDbLine
 10
-13.34262882723667
 20
7.978008953173063
 30
0.0
 11
-13.58190552253331
 21
7.738732257876425
 31
0.0
  0
ARC
  5
69
330
2
100
AcDbEntity
  8
0
100
AcDbCircle
 10
-13.49351717488499
 20
7.650343910228106
 30
0.0
 40
0.125
100
AcDbArc
 50
134.9999999999999
 51
180.0
  0
ARC
  5
6A
330
2
100
AcDbEntity
  8
0
100
AcDbCircle
 10
-13.43101717488499
 20
8.066397300821382
 30
0.0
 40
0.125
100
AcDbArc
 50
314.9999999999999
 51
0.000000000000007
  0
LINE
  5
6B
330
2
100
AcDbEntity
  8
0
100
AcDbLine
 10
-13.30601717488499
 20
10.56992372478266
 30
0.0
 11
-15.0800622517317
 21
10.56992372478266
 31
0.0
  0
LWPOLYLINE
  5
6C
330
2
100
AcDbEntity
  8
0
100
AcDbPolyline
 90
        9
 70
     0
 43
0.0
 10
-14.0488122517317
 20
9.712836224782656
 42
-0.0700628980345364
 10
-14.12793105553175
 20
9.723977500551527
 42
-0.0818514225363451
 10
-14.18982737365819
 20
9.753354340440261
 42
-0.1069100077216601
 10
-14.23442552472369
 20
9.801101253195292
 42
-0.135394011665182
 10
-14.24823774965984
 20
9.851173724782655
 42
-0.1353940116651818
 10
-14.23442552472369
 20
9.901246196370025
 42
-0.1069100077216599
 10
-14.18982737365819
 20
9.948993109125048
 42
-0.0818514225363446
 10
-14.12793105553175
 20
9.978369949013789
 42
-0.0700628980345367
 10
-14.0488122517317
 20
9.98951122478266
 42
-0.0700628980345371
  0
LWPOLYLINE
  5
6D
330
2
100
AcDbEntity
  8
0
100
AcDbPolyline
 90
        9
 70
     0
 43
0.0
 10
-14.0488122517317
 20
9.742161224782656
 42
-0.1432467981947568
 10
-14.07403690258716
 20
9.749539321653906
 42
-0.1071754848060475
 10
-14.09872306855775
 20
9.774090246798558
 42
-0.0783035184710328
 10
-14.11366973618011
 20
9.807711501149356
 42
-0.0656020556757086
 10
-14.11939680579621
 20
9.851173724782662
 42
-0.0656020556757101
 10
-14.11366973618011
 20
9.89463594841596
 42
-0.0783035184710357
 10
-14.09872306855775
 20
9.928257202766758
 42
-0.1071754848060445
 10
-14.07403690258716
 20
9.952808127911411
 42
-0.1432467981947535
 10
-14.0488122517317
 20
9.96018622478266
 42
-0.1432467981947515
  0
LINE
  5
6E
330
2
100
AcDbEntity
  8
0
100
AcDbLine
 10
-14.0488122517317
 20
9.712836224782656
 30
0.0
 11
-14.0488122517317
 21
9.98951122478266
 31
0.0
  0
LWPOLYLINE
  5
6F
330
2
100
AcDbEntity
  8
0
100
AcDbPolyline
 90
        9
 70
     0
 43
0.0
 10
-14.0488122517317
 20
8.771486224782656
 42
-0.147269582437036
 10
-14.06650867489424
 20
8.77681406647045
 42
-0.1071386913803464
 10
-14.08406056855775
 20
8.794826153156855
 42
-0.0765137470862007
 10
-14.09460248260452
 20
8.819330891191015
 42
-0.063469041210727
 10
-14.09866089943792
 20
8.851173724782662
 42
-0.0634690412107267
 10
-14.09460248260452
 20
8.883016558374301
 42
-0.0765137470862059
 10
-14.08406056855775
 20
8.907521296408461
 42
-0.1071386913803463
 10
-14.06650867489424
 20
8.925533383094866
 42
-0.1472695824370325
 10
-14.0488122517317
 20
8.93086122478266
 42
-0.1472695824370333
  0
LWPOLYLINE
  5
70
330
2
100
AcDbEntity
  8
0
100
AcDbPolyline
 90
        9
 70
     0
 43
0.0
 10
-14.0488122517317
 20
8.712836224782656
 42
-0.0700628980345364
 10
-14.12793105553175
 20
8.723977500551527
 42
-0.0818514225363451
 10
-14.18982737365819
 20
8.753354340440261
 42
-0.1069100077216601
 10
-14.23442552472369
 20
8.801101253195292
 42
-0.135394011665182
 10
-14.24823774965984
 20
8.851173724782655
 42
-0.1353940116651818
 10
-14.23442552472369
 20
8.901246196370025
 42
-0.1069100077216599
 10
-14.18982737365819
 20
8.948993109125048
 42
-0.0818514225363446
 10
-14.12793105553175
 20
8.978369949013789
 42
-0.0700628980345367
 10
-14.0488122517317
 20
8.98951122478266
 42
-0.0700628980345371
  0
LWPOLYLINE
  5
71
330
2
100
AcDbEntity
  8
0
100
AcDbPolyline
 90
        9
 70
     0
 43
0.0
 10
-14.0488122517317
 20
8.742161224782656
 42
-0.1432467981947568
 10
-14.07403690258716
 20
8.749539321653906
 42
-0.1071754848060475
 10
-14.09872306855775
 20
8.774090246798558
 42
-0.0783035184710328
 10
-14.11366973618011
 20
8.807711501149356
 42
-0.0656020556757086
 10
-14.11939680579621
 20
8.851173724782662
 42
-0.0656020556757101
 10
-14.11366973618011
 20
8.89463594841596
 42
-0.0783035184710357
 10
-14.09872306855775
 20
8.928257202766758
 42
-0.1071754848060445
 10
-14.07403690258716
 20
8.952808127911411
 42
-0.1432467981947535
 10
-14.0488122517317
 20
8.96018622478266
 42
-0.1432467981947515
  0
LINE
  5
72
330
2
100
AcDbEntity
  8
0
100
AcDbLine
 10
-14.0488122517317
 20
8.712836224782656
 30
0.0
 11
-14.0488122517317
 21
8.98951122478266
 31
0.0
  0
LWPOLYLINE
  5
73
330
2
100
AcDbEntity
  8
0
100
AcDbPolyline
 90
        9
 70
     0
 43
0.0
 10
-14.0488122517317
 20
9.771486224782656
 42
-0.147269582437036
 10
-14.06650867489424
 20
9.77681406647045
 42
-0.1071386913803464
 10
-14.08406056855775
 20
9.794826153156855
 42
-0.0765137470862007
 10
-14.09460248260452
 20
9.819330891191015
 42
-0.063469041210727
 10
-14.09866089943792
 20
9.851173724782662
 42
-0.0634690412107267
 10
-14.09460248260452
 20
9.883016558374301
 42
-0.0765137470862059
 10
-14.08406056855775
 20
9.907521296408461
 42
-0.1071386913803463
 10
-14.06650867489424
 20
9.925533383094866
 42
-0.1472695824370325
 10
-14.0488122517317
 20
9.93086122478266
 42
-0.1472695824370333
  0
LINE
  5
74
330
2
100
AcDbEntity
  8
0
100
AcDbLine
 10
-13.34262882723667
 20
9.978008953173063
 30
0.0
 11
-13.58190552253331
 21
9.738732257876425
 31
0.0
  0
LINE
  5
75
330
2
100
AcDbEntity
  8
0
100
AcDbLine
 10
-13.61851717488499
 20
9.650343910228106
 30
0.0
 11
-13.61851717488499
 21
9.003897300821382
 31
0.0
  0
ARC
  5
76
330
2
100
AcDbEntity
  8
0
100
AcDbCircle
 10
-13.43101717488499
 20
8.587843910228106
 30
0.0
 40
0.125
100
AcDbArc
 50
0.000000000000007
 51
45.00000000000016
  0
ARC
  5
77
330
2
100
AcDbEntity
  8
0
100
AcDbCircle
 10
-13.49351717488499
 20
9.003897300821382
 30
0.0
 40
0.125
100
AcDbArc
 50
180.0
 51
225.0000000000003
  0
LINE
  5
78
330
2
100
AcDbEntity
  8
0
100
AcDbLine
 10
-13.58190552253331
 20
8.915508953173063
 30
0.0
 11
-13.34262882723667
 21
8.676232257876425
 31
0.0
  0
ARC
  5
79
330
2
100
AcDbEntity
  8
0
100
AcDbCircle
 10
-13.49351717488499
 20
9.650343910228106
 30
0.0
 40
0.125
100
AcDbArc
 50
134.9999999999999
 51
180.0
  0
LINE
  5
7A
330
2
100
AcDbEntity
  8
0
100
AcDbLine
 10
-13.30601717488499
 20
10.06639730082138
 30
0.0
 11
-13.30601717488499
 21
10.56992372478266
 31
0.0
  0
LINE
  5
7B
330
2
100
AcDbEntity
  8
0
100
AcDbLine
 10
-13.30601717488499
 20
10.56992372478266
 30
0.0
 11
-13.30601717488499
 21
10.06639704477711
 31
0.0
  0
ARC
  5
7C
330
2
100
AcDbEntity
  8
0
100
AcDbCircle
 10
-13.43101717488499
 20
10.06639730082138
 30
0.0
 40
0.125
100
AcDbArc
 50
314.9999999999999
 51
0.000000000000007
  0
ARC
  5
7D
330
2
100
AcDbEntity
  8
0
100
AcDbCircle
 10
4.32716900158996
 20
6.090223576038721
 30
0.0
 40
0.125
100
AcDbArc
 50
180.0
 51
225.0000000000001
  0
LINE
  5
7E
330
2
100
AcDbEntity
  8
0
100
AcDbLine
 10
4.238780653941641
 20
6.001835228390402
 30
0.0
 11
4.478057349238272
 21
5.762558533093763
 31
0.0
  0
ELLIPSE
  5
80
330
2
100
AcDbEntity
  8
0
100
AcDbEllipse
 10
1.882464078436671
 20
5.851173724782672
 30
0.0
 11
0.0
 21
-0.1875000000000142
 31
0.0
210
0.0
220
0.0
230
1.0
 40
0.9999999999999242
 41
0.0
 42
3.141592653589793
  0
LINE
  5
81
330
2
100
AcDbEntity
  8
0
100
AcDbLine
 10
1.882464078436671
 20
6.007423724782658
 30
0.0
 11
1.882464078436671
 21
5.694923724782658
 31
0.0
  0
LINE
  5
82
330
2
100
AcDbEntity
  8
0
100
AcDbLine
 10
-4.238780859339967
 20
6.009758953173058
 30
0.0
 11
-4.478057554636605
 21
5.77048225787642
 31
0.0
  0
LINE
  5
83
330
2
100
AcDbEntity
  8
0
  6
Continuous
100
AcDbLine
 10
1.882464078436671
 20
0.1874999999999982
 30
0.0
 11
1.882464078436671
 21
10.59375
 31
0.0
  0
LINE
  5
84
330
2
100
AcDbEntity
  8
0
  6
Continuous
100
AcDbLine
 10
-1.882464283835004
 20
0.1875
 30
0.0
 11
-1.882464283835006
 21
10.60167372478266
 31
0.0
  0
LINE
  5
85
330
2
100
AcDbEntity
  8
0
  6
Continuous
100
AcDbLine
 10
1.788714078436671
 20
0.1875
 30
0.0
 11
1.788714078436671
 21
10.59375
 31
0.0
  0
LINE
  5
86
330
2
100
AcDbEntity
  8
0
  6
Continuous
100
AcDbLine
 10
-1.788714283835004
 20
0.1875
 30
0.0
 11
-1.788714283835006
 21
10.60167372478266
 31
0.0
  0
ARC
  5
87
330
2
100
AcDbEntity
  8
0
100
AcDbCircle
 10
1.694906723065541
 20
0.1874901658164063
 30
0.0
 40
0.0938073558866057
100
AcDbArc
 50
272.1686908907737
 51
0.0060065355278531
  0
ARC
  5
88
330
2
100
AcDbEntity
  8
0
100
AcDbCircle
 10
1.694964078436671
 20
0.1874999999999982
 30
0.0
 40
0.1875
100
AcDbArc
 50
270.0
 51
0.0
  0
LINE
  5
89
330
2
100
AcDbEntity
  8
0
100
AcDbLine
 10
-3.250266040446258
 20
1.77404391959835
 30
0.0
 11
-1.882464078436671
 21
0.4062419575887777
 31
0.0
  0
LINE
  5
8A
330
2
100
AcDbEntity
  8
0
100
AcDbLine
 10
-1.694964283835004
 20
0.09375
 30
0.0
 11
1.698456558430548
 21
0.09375
 31
0.0
  0
LINE
  5
8B
330
2
100
AcDbEntity
  8
0
100
AcDbLine
 10
-1.694964283835004
 20
0.0
 30
0.0
 11
1.694964283835004
 21
-0.0000000000000018
 31
0.0
  0
ARC
  5
8C
330
2
100
AcDbEntity
  8
0
100
AcDbCircle
 10
-1.694964283835004
 20
0.1875
 30
0.0
 40
0.09375
100
AcDbArc
 50
180.0
 51
269.9999999999998
  0
ARC
  5
8D
330
2
100
AcDbEntity
  8
0
100
AcDbCircle
 10
-1.694964283835004
 20
0.1875
 30
0.0
 40
0.1875
100
AcDbArc
 50
180.0
 51
270.0
  0
CIRCLE
  5
90
330
2
100
AcDbEntity
  8
0
100
AcDbCircle
 10
-2.639664283834994
 20
5.476673724782661
 30
0.0
 40
0.0855
  0
CIRCLE
  5
93
330
2
100
AcDbEntity
  8
0
100
AcDbCircle
 10
-2.639664283834994
 20
3.351673724782661
 30
0.0
 40
0.0855
  0
CIRCLE
  5
94
330
2
100
AcDbEntity
  8
0
100
AcDbCircle
 10
-3.031169001590145
 20
3.538496880742068
 30
0.0
 40
0.0855
  0
ARC
  5
95
330
2
100
AcDbEntity
  8
0
100
AcDbCircle
 10
-0.9521690015899669
 20
4.072140958454677
 30
0.0
 40
3.25
100
AcDbArc
 50
180.0
 51
225.0000000000005
  0
CIRCLE
  5
97
330
2
100
AcDbEntity
  8
0
100
AcDbCircle
 10
-3.202164283835002
 20
2.351673724782661
 30
0.0
 40
0.0855
  0
CIRCLE
  5
99
330
2
100
AcDbEntity
  8
0
100
AcDbCircle
 10
-3.514664283835002
 20
3.101673724782661
 30
0.0
 40
0.0855
  0
LINE
  5
9A
330
2
100
AcDbEntity
  8
0
100
AcDbLine
 10
-4.478057554636605
 20
4.947258953173066
 30
0.0
 11
-4.23878085933997
 21
4.707982257876427
 31
0.0
  0
CIRCLE
  5
9B
330
2
100
AcDbEntity
  8
0
100
AcDbCircle
 10
-3.733414283835009
 20
3.726673724782661
 30
0.0
 40
0.0855
  0
LINE
  5
9D
330
2
100
AcDbEntity
  8
0
100
AcDbLine
 10
-4.20216900158996
 20
4.611670185445451
 30
0.0
 11
-4.20216900158996
 21
4.072140958454677
 31
0.0
  0
ARC
  5
9F
330
2
100
AcDbEntity
  8
0
100
AcDbCircle
 10
-4.327169206988286
 20
4.619593910228108
 30
0.0
 40
0.125
100
AcDbArc
 50
0.0
 51
45.00000000000014
  0
CIRCLE
  5
A0
330
2
100
AcDbEntity
  8
0
100
AcDbCircle
 10
-3.952164283835002
 20
4.351673724782661
 30
0.0
 40
0.0855
  0
CIRCLE
  5
A1
330
2
100
AcDbEntity
  8
0
100
AcDbCircle
 10
-3.202164283835002
 20
4.101673724782661
 30
0.0
 40
0.0855
  0
CIRCLE
  5
A2
330
2
100
AcDbEntity
  8
0
100
AcDbCircle
 10
-3.733414283835009
 20
5.726673724782661
 30
0.0
 40
0.0855
  0
CIRCLE
  5
A3
330
2
100
AcDbEntity
  8
0
100
AcDbCircle
 10
-4.264664283835002
 20
5.351673724782661
 30
0.0
 40
0.0855
  0
LINE
  5
A4
330
2
100
AcDbEntity
  8
0
100
AcDbLine
 10
-4.514669206988286
 20
5.682093910228101
 30
0.0
 11
-4.514669206988286
 21
5.035647300821385
 31
0.0
  0
ARC
  5
A5
330
2
100
AcDbEntity
  8
0
100
AcDbCircle
 10
-4.389669206988286
 20
5.035647300821385
 30
0.0
 40
0.125
100
AcDbArc
 50
180.0
 51
225.0000000000003
  0
ARC
  5
A6
330
2
100
AcDbEntity
  8
0
100
AcDbCircle
 10
-4.389669206988286
 20
5.682093910228101
 30
0.0
 40
0.125
100
AcDbArc
 50
134.9999999999996
 51
180.0
  0
CIRCLE
  5
A8
330
2
100
AcDbEntity
  8
0
100
AcDbCircle
 10
-3.514664283835002
 20
5.101673724782661
 30
0.0
 40
0.0855
  0
ELLIPSE
  5
A9
330
2
100
AcDbEntity
  8
0
100
AcDbEllipse
 10
-1.882464283835006
 20
2.226673724782661
 30
0.0
 11
0.0
 21
-0.1383375000000022
 31
0.0
210
0.0
220
0.0
230
-1.0
 40
0.9035872413481376
 41
0.0
 42
3.141592653589793
  0
LINE
  5
AA
330
2
100
AcDbEntity
  8
0
100
AcDbLine
 10
-1.882464283835006
 20
2.382923724782661
 30
0.0
 11
-1.882464283835006
 21
2.070423724782661
 31
0.0
  0
ELLIPSE
  5
AB
330
2
100
AcDbEntity
  8
0
100
AcDbEllipse
 10
-1.882464283835006
 20
2.226673724782675
 30
0.0
 11
0.0
 21
-0.1875000000000142
 31
0.0
210
0.0
220
0.0
230
-1.0
 40
0.9999999999999242
 41
0.0
 42
3.141592653589793
  0
ELLIPSE
  5
AC
330
2
100
AcDbEntity
  8
0
100
AcDbEllipse
 10
-1.882464283835006
 20
1.226673724782675
 30
0.0
 11
0.0
 21
-0.1875000000000142
 31
0.0
210
0.0
220
0.0
230
-1.0
 40
0.9999999999999242
 41
0.0
 42
3.141592653589793
  0
ELLIPSE
  5
AD
330
2
100
AcDbEntity
  8
0
100
AcDbEllipse
 10
-1.882464283835006
 20
1.226673724782661
 30
0.0
 11
0.0
 21
-0.1383375000000022
 31
0.0
210
0.0
220
0.0
230
-1.0
 40
0.9035872413481376
 41
0.0
 42
3.141592653589793
  0
LINE
  5
AE
330
2
100
AcDbEntity
  8
0
100
AcDbLine
 10
-1.882464283835006
 20
1.382923724782661
 30
0.0
 11
-1.882464283835006
 21
1.070423724782661
 31
0.0
  0
LINE
  5
AF
330
2
100
AcDbEntity
  8
0
100
AcDbLine
 10
-1.882464283835006
 20
1.070423724782661
 30
0.0
 11
-1.882464283835006
 21
1.039173724782661
 31
0.0
  0
LINE
  5
B0
330
2
100
AcDbEntity
  8
0
100
AcDbLine
 10
-1.882464283835006
 20
1.382923724782689
 30
0.0
 11
-1.882464283835006
 21
1.414173724782689
 31
0.0
  0
LINE
  5
B1
330
2
100
AcDbEntity
  8
0
100
AcDbLine
 10
-1.882464283835006
 20
2.070423724782661
 30
0.0
 11
-1.882464283835006
 21
2.039173724782661
 31
0.0
  0
CIRCLE
  5
B3
330
2
100
AcDbEntity
  8
0
100
AcDbCircle
 10
-2.511171803841117
 20
2.840551387062064
 30
0.0
 40
0.0855
  0
LINE
  5
B4
330
2
100
AcDbEntity
  8
0
100
AcDbLine
 10
-1.882464283835006
 20
2.382923724782689
 30
0.0
 11
-1.882464283835006
 21
2.414173724782689
 31
0.0
  0
LINE
  5
B5
330
2
100
AcDbEntity
  8
0
100
AcDbLine
 10
-1.882464283835006
 20
3.382923724782689
 30
0.0
 11
-1.882464283835006
 21
3.414173724782689
 31
0.0
  0
LINE
  5
B6
330
2
100
AcDbEntity
  8
0
100
AcDbLine
 10
-1.882464283835006
 20
3.070423724782661
 30
0.0
 11
-1.882464283835006
 21
3.039173724782661
 31
0.0
  0
ELLIPSE
  5
B7
330
2
100
AcDbEntity
  8
0
100
AcDbEllipse
 10
-1.882464283835006
 20
3.226673724782661
 30
0.0
 11
0.0
 21
-0.1383375000000022
 31
0.0
210
0.0
220
0.0
230
-1.0
 40
0.9035872413481376
 41
0.0
 42
3.141592653589793
  0
ELLIPSE
  5
B8
330
2
100
AcDbEntity
  8
0
100
AcDbEllipse
 10
-1.882464283835006
 20
3.226673724782675
 30
0.0
 11
0.0
 21
-0.1875000000000142
 31
0.0
210
0.0
220
0.0
230
-1.0
 40
0.9999999999999242
 41
0.0
 42
3.141592653589793
  0
LINE
  5
B9
330
2
100
AcDbEntity
  8
0
100
AcDbLine
 10
-1.882464283835006
 20
3.382923724782661
 30
0.0
 11
-1.882464283835006
 21
3.070423724782661
 31
0.0
  0
ELLIPSE
  5
BA
330
2
100
AcDbEntity
  8
0
100
AcDbEllipse
 10
-1.882464283835006
 20
4.226673724782675
 30
0.0
 11
0.0
 21
-0.1875000000000142
 31
0.0
210
0.0
220
0.0
230
-1.0
 40
0.9999999999999242
 41
0.0
 42
3.141592653589793
  0
ELLIPSE
  5
BB
330
2
100
AcDbEntity
  8
0
100
AcDbEllipse
 10
-1.882464283835006
 20
4.226673724782661
 30
0.0
 11
0.0
 21
-0.1383375000000022
 31
0.0
210
0.0
220
0.0
230
-1.0
 40
0.9035872413481376
 41
0.0
 42
3.141592653589793
  0
LINE
  5
BC
330
2
100
AcDbEntity
  8
0
100
AcDbLine
 10
-1.882464283835006
 20
4.382923724782661
 30
0.0
 11
-1.882464283835006
 21
4.070423724782661
 31
0.0
  0
LINE
  5
BD
330
2
100
AcDbEntity
  8
0
100
AcDbLine
 10
-1.882464283835006
 20
4.070423724782661
 30
0.0
 11
-1.882464283835006
 21
4.039173724782661
 31
0.0
  0
CIRCLE
  5
BE
330
2
100
AcDbEntity
  8
0
100
AcDbCircle
 10
-2.511171803841117
 20
4.340551387062064
 30
0.0
 40
0.0855
  0
LINE
  5
BF
330
2
100
AcDbEntity
  8
0
100
AcDbLine
 10
-1.882464283835006
 20
4.382923724782689
 30
0.0
 11
-1.882464283835006
 21
4.414173724782689
 31
0.0
  0
ELLIPSE
  5
C0
330
2
100
AcDbEntity
  8
0
100
AcDbEllipse
 10
-1.882464283835006
 20
5.226673724782675
 30
0.0
 11
0.0
 21
-0.1875000000000142
 31
0.0
210
0.0
220
0.0
230
-1.0
 40
0.9999999999999242
 41
0.0
 42
3.141592653589793
  0
LINE
  5
C1
330
2
100
AcDbEntity
  8
0
100
AcDbLine
 10
-1.882464283835006
 20
5.382923724782661
 30
0.0
 11
-1.882464283835006
 21
5.070423724782661
 31
0.0
  0
CIRCLE
  5
C2
330
2
100
AcDbEntity
  8
0
100
AcDbCircle
 10
-2.511171803841117
 20
4.843750000000007
 30
0.0
 40
0.0855
  0
LINE
  5
C3
330
2
100
AcDbEntity
  8
0
100
AcDbLine
 10
-1.882464283835006
 20
5.070423724782661
 30
0.0
 11
-1.882464283835006
 21
5.039173724782661
 31
0.0
  0
ELLIPSE
  5
C4
330
2
100
AcDbEntity
  8
0
100
AcDbEllipse
 10
-1.882464283835006
 20
5.226673724782661
 30
0.0
 11
0.0
 21
-0.1383375000000022
 31
0.0
210
0.0
220
0.0
230
-1.0
 40
0.9035872413481376
 41
0.0
 42
3.141592653589793
  0
LINE
  5
C5
330
2
100
AcDbEntity
  8
0
100
AcDbLine
 10
-1.882464283835006
 20
5.382923724782689
 30
0.0
 11
-1.882464283835006
 21
5.414173724782689
 31
0.0
  0
ELLIPSE
  5
C6
330
2
100
AcDbEntity
  8
0
100
AcDbEllipse
 10
1.882464078436671
 20
0.8511737247826723
 30
0.0
 11
0.0
 21
-0.1875000000000142
 31
0.0
210
0.0
220
0.0
230
1.0
 40
0.9999999999999242
 41
0.0
 42
3.141592653589793
  0
LINE
  5
C7
330
2
100
AcDbEntity
  8
0
100
AcDbLine
 10
1.882464078436671
 20
1.007423724782658
 30
0.0
 11
1.882464078436671
 21
0.6949237247826581
 31
0.0
  0
LINE
  5
C8
330
2
100
AcDbEntity
  8
0
100
AcDbLine
 10
3.250266040446258
 20
1.77404391959835
 30
0.0
 11
1.882464078436671
 21
0.4062419575887777
 31
0.0
  0
LINE
  5
C9
330
2
100
AcDbEntity
  8
0
100
AcDbLine
 10
1.882464078436671
 20
0.6949237247826581
 30
0.0
 11
1.882464078436671
 21
0.6636737247826581
 31
0.0
  0
ELLIPSE
  5
CA
330
2
100
AcDbEntity
  8
0
100
AcDbEllipse
 10
1.882464078436671
 20
0.8511737247826581
 30
0.0
 11
0.0
 21
-0.1383375000000022
 31
0.0
210
0.0
220
0.0
230
1.0
 40
0.9035872413481376
 41
0.0
 42
3.141592653589793
  0
CIRCLE
  5
CB
330
2
100
AcDbEntity
  8
0
100
AcDbCircle
 10
3.031169001590145
 20
3.538496880742068
 30
0.0
 40
0.0855
  0
ARC
  5
CD
330
2
100
AcDbEntity
  8
0
100
AcDbCircle
 10
0.9521690015899669
 20
4.072140958454677
 30
0.0
 40
3.25
100
AcDbArc
 50
314.9999999999995
 51
0.0
  0
CIRCLE
  5
CE
330
2
100
AcDbEntity
  8
0
100
AcDbCircle
 10
2.639664078436665
 20
1.65625
 30
0.0
 40
0.0855
  0
LINE
  5
CF
330
2
100
AcDbEntity
  8
0
100
AcDbLine
 10
1.882464078436671
 20
1.007423724782687
 30
0.0
 11
1.882464078436671
 21
1.038673724782687
 31
0.0
  0
ELLIPSE
  5
D0
330
2
100
AcDbEntity
  8
0
100
AcDbEllipse
 10
1.882464078436671
 20
1.851173724782658
 30
0.0
 11
0.0
 21
-0.1383375000000022
 31
0.0
210
0.0
220
0.0
230
1.0
 40
0.9035872413481376
 41
0.0
 42
3.141592653589793
  0
ELLIPSE
  5
D1
330
2
100
AcDbEntity
  8
0
100
AcDbEllipse
 10
1.882464078436671
 20
1.851173724782672
 30
0.0
 11
0.0
 21
-0.1875000000000142
 31
0.0
210
0.0
220
0.0
230
1.0
 40
0.9999999999999242
 41
0.0
 42
3.141592653589793
  0
LINE
  5
D2
330
2
100
AcDbEntity
  8
0
100
AcDbLine
 10
1.882464078436671
 20
2.007423724782658
 30
0.0
 11
1.882464078436671
 21
1.694923724782658
 31
0.0
  0
LINE
  5
D3
330
2
100
AcDbEntity
  8
0
100
AcDbLine
 10
1.882464078436671
 20
1.694923724782658
 30
0.0
 11
1.882464078436671
 21
1.663673724782658
 31
0.0
  0
LINE
  5
D4
330
2
100
AcDbEntity
  8
0
100
AcDbLine
 10
1.882464078436671
 20
2.007423724782687
 30
0.0
 11
1.882464078436671
 21
2.038673724782687
 31
0.0
  0
CIRCLE
  5
D5
330
2
100
AcDbEntity
  8
0
100
AcDbCircle
 10
2.514664078436661
 20
2.840551387062064
 30
0.0
 40
0.0855
  0
ELLIPSE
  5
D7
330
2
100
AcDbEntity
  8
0
100
AcDbEllipse
 10
1.882464078436671
 20
2.851173724782658
 30
0.0
 11
0.0
 21
-0.1383375000000022
 31
0.0
210
0.0
220
0.0
230
1.0
 40
0.9035872413481376
 41
0.0
 42
3.141592653589793
  0
LINE
  5
D8
330
2
100
AcDbEntity
  8
0
100
AcDbLine
 10
1.882464078436671
 20
3.007423724782658
 30
0.0
 11
1.882464078436671
 21
2.694923724782658
 31
0.0
  0
ELLIPSE
  5
D9
330
2
100
AcDbEntity
  8
0
100
AcDbEllipse
 10
1.882464078436671
 20
2.851173724782672
 30
0.0
 11
0.0
 21
-0.1875000000000142
 31
0.0
210
0.0
220
0.0
230
1.0
 40
0.9999999999999242
 41
0.0
 42
3.141592653589793
  0
LINE
  5
DA
330
2
100
AcDbEntity
  8
0
100
AcDbLine
 10
1.882464078436671
 20
2.694923724782658
 30
0.0
 11
1.882464078436671
 21
2.663673724782658
 31
0.0
  0
LINE
  5
DC
330
2
100
AcDbEntity
  8
0
100
AcDbLine
 10
1.882464078436671
 20
3.007423724782687
 30
0.0
 11
1.882464078436671
 21
3.038673724782687
 31
0.0
  0
CIRCLE
  5
DD
330
2
100
AcDbEntity
  8
0
100
AcDbCircle
 10
2.639664078436665
 20
3.343750000000004
 30
0.0
 40
0.0855
  0
CIRCLE
  5
DE
330
2
100
AcDbEntity
  8
0
100
AcDbCircle
 10
3.202164078436676
 20
2.343750000000004
 30
0.0
 40
0.0855
  0
CIRCLE
  5
DF
330
2
100
AcDbEntity
  8
0
100
AcDbCircle
 10
3.514664078436676
 20
3.093750000000004
 30
0.0
 40
0.0855
  0
CIRCLE
  5
E2
330
2
100
AcDbEntity
  8
0
100
AcDbCircle
 10
3.952164078436676
 20
4.343750000000004
 30
0.0
 40
0.0855
  0
ELLIPSE
  5
E4
330
2
100
AcDbEntity
  8
0
100
AcDbEllipse
 10
1.882464078436671
 20
4.851173724782658
 30
0.0
 11
0.0
 21
-0.1383375000000022
 31
0.0
210
0.0
220
0.0
230
1.0
 40
0.9035872413481376
 41
0.0
 42
3.141592653589793
  0
ELLIPSE
  5
E5
330
2
100
AcDbEntity
  8
0
100
AcDbEllipse
 10
1.882464078436671
 20
4.851173724782672
 30
0.0
 11
0.0
 21
-0.1875000000000142
 31
0.0
210
0.0
220
0.0
230
1.0
 40
0.9999999999999242
 41
0.0
 42
3.141592653589793
  0
LINE
  5
E6
330
2
100
AcDbEntity
  8
0
100
AcDbLine
 10
1.882464078436671
 20
5.007423724782658
 30
0.0
 11
1.882464078436671
 21
4.694923724782658
 31
0.0
  0
LINE
  5
E7
330
2
100
AcDbEntity
  8
0
100
AcDbLine
 10
1.882464078436671
 20
4.007423724782687
 30
0.0
 11
1.882464078436671
 21
4.038673724782687
 31
0.0
  0
LINE
  5
E8
330
2
100
AcDbEntity
  8
0
100
AcDbLine
 10
1.882464078436671
 20
3.694923724782658
 30
0.0
 11
1.882464078436671
 21
3.663673724782658
 31
0.0
  0
ELLIPSE
  5
E9
330
2
100
AcDbEntity
  8
0
100
AcDbEllipse
 10
1.882464078436671
 20
3.851173724782672
 30
0.0
 11
0.0
 21
-0.1875000000000142
 31
0.0
210
0.0
220
0.0
230
1.0
 40
0.9999999999999242
 41
0.0
 42
3.141592653589793
  0
ELLIPSE
  5
EA
330
2
100
AcDbEntity
  8
0
100
AcDbEllipse
 10
1.882464078436671
 20
3.851173724782658
 30
0.0
 11
0.0
 21
-0.1383375000000022
 31
0.0
210
0.0
220
0.0
230
1.0
 40
0.9035872413481376
 41
0.0
 42
3.141592653589793
  0
LINE
  5
EB
330
2
100
AcDbEntity
  8
0
100
AcDbLine
 10
1.882464078436671
 20
4.007423724782658
 30
0.0
 11
1.882464078436671
 21
3.694923724782658
 31
0.0
  0
LINE
  5
EC
330
2
100
AcDbEntity
  8
0
100
AcDbLine
 10
1.882464078436671
 20
4.694923724782658
 30
0.0
 11
1.882464078436671
 21
4.663673724782658
 31
0.0
  0
CIRCLE
  5
ED
330
2
100
AcDbEntity
  8
0
100
AcDbCircle
 10
2.514664078436661
 20
4.340551387062064
 30
0.0
 40
0.0855
  0
CIRCLE
  5
EE
330
2
100
AcDbEntity
  8
0
100
AcDbCircle
 10
3.202164078436676
 20
4.093750000000004
 30
0.0
 40
0.0855
  0
CIRCLE
  5
F0
330
2
100
AcDbEntity
  8
0
100
AcDbCircle
 10
3.733414078436676
 20
3.71875
 30
0.0
 40
0.0855
  0
LINE
  5
F1
330
2
100
AcDbEntity
  8
0
100
AcDbLine
 10
1.882464078436671
 20
5.007423724782687
 30
0.0
 11
1.882464078436671
 21
5.038673724782687
 31
0.0
  0
CIRCLE
  5
F2
330
2
100
AcDbEntity
  8
0
100
AcDbCircle
 10
2.514664078436661
 20
4.843750000000007
 30
0.0
 40
0.0855
  0
LINE
  5
F3
330
2
100
AcDbEntity
  8
0
100
AcDbLine
 10
1.882464078436671
 20
5.694923724782658
 30
0.0
 11
1.882464078436671
 21
5.663673724782658
 31
0.0
  0
ELLIPSE
  5
F4
330
2
100
AcDbEntity
  8
0
100
AcDbEllipse
 10
1.882464078436671
 20
5.851173724782658
 30
0.0
 11
0.0
 21
-0.1383375000000022
 31
0.0
210
0.0
220
0.0
230
1.0
 40
0.9035872413481376
 41
0.0
 42
3.141592653589793
  0
CIRCLE
  5
F5
330
2
100
AcDbEntity
  8
0
100
AcDbCircle
 10
2.639664078436665
 20
5.46875
 30
0.0
 40
0.0855
  0
CIRCLE
  5
F6
330
2
100
AcDbEntity
  8
0
100
AcDbCircle
 10
3.514664078436676
 20
5.09375
 30
0.0
 40
0.0855
  0
CIRCLE
  5
F9
330
2
100
AcDbEntity
  8
0
100
AcDbCircle
 10
3.733414078436676
 20
5.71875
 30
0.0
 40
0.0855
  0
LINE
  5
FC
330
2
100
AcDbEntity
  8
0
100
AcDbLine
 10
4.478057349238272
 20
4.939335228390405
 30
0.0
 11
4.238780653941641
 21
4.70005853309377
 31
0.0
  0
LINE
  5
FD
330
2
100
AcDbEntity
  8
0
100
AcDbLine
 10
4.20216900158996
 20
4.072140958454677
 30
0.0
 11
4.20216900158996
 21
4.47594688074209
 31
0.0
  0
LINE
  5
FE
330
2
100
AcDbEntity
  8
0
100
AcDbLine
 10
4.20216900158996
 20
4.611670185445451
 30
0.0
 11
4.20216900158996
 21
4.072140958454677
 31
0.0
  0
ARC
  5
FF
330
2
100
AcDbEntity
  8
0
100
AcDbCircle
 10
4.32716900158996
 20
4.611670185445451
 30
0.0
 40
0.125
100
AcDbArc
 50
134.9999999999999
 51
180.0
  0
CIRCLE
  5
101
330
2
100
AcDbEntity
  8
0
100
AcDbCircle
 10
4.264664078436676
 20
5.34375
 30
0.0
 40
0.0855
  0
LINE
  5
103
330
2
100
AcDbEntity
  8
0
100
AcDbLine
 10
4.51466900158996
 20
5.674170185445444
 30
0.0
 11
4.51466900158996
 21
5.027723576038724
 31
0.0
  0
ARC
  5
104
330
2
100
AcDbEntity
  8
0
100
AcDbCircle
 10
4.38966900158996
 20
5.027723576038724
 30
0.0
 40
0.125
100
AcDbArc
 50
314.9999999999997
 51
0.0
  0
ARC
  5
106
330
2
100
AcDbEntity
  8
0
100
AcDbCircle
 10
4.38966900158996
 20
5.674170185445444
 30
0.0
 40
0.125
100
AcDbArc
 50
0.0
 51
45.00000000000033
  0
LINE
  5
107
330
2
100
AcDbEntity
  8
0
100
AcDbLine
 10
1.865586571357705
 20
15.24090940499987
 30
0.0
 11
1.604290991050933
 21
15.24090940499987
 31
0.0
  0
CIRCLE
  5
109
330
2
100
AcDbEntity
  8
0
100
AcDbCircle
 10
-2.639664283834994
 20
9.476673724782661
 30
0.0
 40
0.0855
  0
CIRCLE
  5
10A
330
2
100
AcDbEntity
  8
0
100
AcDbCircle
 10
-2.639664283834994
 20
7.476673724782661
 30
0.0
 40
0.0855
  0
LINE
  5
10B
330
2
100
AcDbEntity
  8
0
100
AcDbLine
 10
-1.788714283835004
 20
10.60167372478266
 30
0.0
 11
-4.202169206988286
 21
10.60167372478266
 31
0.0
  0
LINE
  5
10C
330
2
100
AcDbEntity
  8
0
100
AcDbLine
 10
-4.202169206988286
 20
8.098147402433749
 30
0.0
 11
-4.202169206988282
 21
8.601673724782657
 31
0.0
  0
LINE
  5
10D
330
2
100
AcDbEntity
  8
0
100
AcDbLine
 10
-4.202169206988286
 20
8.601673724782657
 30
0.0
 11
-4.202169206988286
 21
8.098147300821378
 31
0.0
  0
LINE
  5
10E
330
2
100
AcDbEntity
  8
0
100
AcDbLine
 10
-4.202169206988286
 20
8.098147402433749
 30
0.0
 11
-4.202169206988282
 21
8.601673724782657
 31
0.0
  0
LINE
  5
10F
330
2
100
AcDbEntity
  8
0
100
AcDbLine
 10
-4.202169206988286
 20
8.619593910228108
 30
0.0
 11
-4.202169206988286
 21
8.098147300821378
 31
0.0
  0
LINE
  5
110
330
2
100
AcDbEntity
  8
0
100
AcDbLine
 10
-4.514669206988286
 20
7.682093910228101
 30
0.0
 11
-4.514669206988286
 21
7.035647300821385
 31
0.0
  0
ARC
  5
111
330
2
100
AcDbEntity
  8
0
100
AcDbCircle
 10
-4.327169206988286
 20
6.619593910228108
 30
0.0
 40
0.125
100
AcDbArc
 50
0.0
 51
45.00000000000014
  0
ARC
  5
112
330
2
100
AcDbEntity
  8
0
100
AcDbCircle
 10
-4.327169206988286
 20
6.098147300821378
 30
0.0
 40
0.125
100
AcDbArc
 50
315.0
 51
0.0
  0
CIRCLE
  5
113
330
2
100
AcDbEntity
  8
0
100
AcDbCircle
 10
-3.952164283835002
 20
6.351673724782668
 30
0.0
 40
0.0855
  0
LINE
  5
114
330
2
100
AcDbEntity
  8
0
100
AcDbLine
 10
-4.202169206988286
 20
6.601673724782657
 30
0.0
 11
-4.202169206988286
 21
6.098147300821378
 31
0.0
  0
LINE
  5
115
330
2
100
AcDbEntity
  8
0
100
AcDbLine
 10
-4.202169206988286
 20
6.098147402433749
 30
0.0
 11
-4.202169206988282
 21
6.671370605524738
 31
0.0
  0
LINE
  5
116
330
2
100
AcDbEntity
  8
0
100
AcDbLine
 10
-4.478057554636605
 20
6.947258953173066
 30
0.0
 11
-4.238780859339967
 21
6.707982257876425
 31
0.0
  0
ARC
  5
117
330
2
100
AcDbEntity
  8
0
100
AcDbCircle
 10
-4.389669206988286
 20
7.035647300821385
 30
0.0
 40
0.125
100
AcDbArc
 50
180.0
 51
225.0000000000003
  0
CIRCLE
  5
118
330
2
100
AcDbEntity
  8
0
100
AcDbCircle
 10
-3.202164283835002
 20
6.101673724782668
 30
0.0
 40
0.0855
  0
CIRCLE
  5
119
330
2
100
AcDbEntity
  8
0
100
AcDbCircle
 10
-3.514664283835002
 20
7.101673724782661
 30
0.0
 40
0.0855
  0
LINE
  5
11A
330
2
100
AcDbEntity
  8
0
100
AcDbLine
 10
-4.238780859339967
 20
8.009758953173058
 30
0.0
 11
-4.478057554636605
 21
7.77048225787642
 31
0.0
  0
CIRCLE
  5
11B
330
2
100
AcDbEntity
  8
0
100
AcDbCircle
 10
-4.264664283835002
 20
7.351673724782661
 30
0.0
 40
0.0855
  0
ARC
  5
11C
330
2
100
AcDbEntity
  8
0
100
AcDbCircle
 10
-4.389669206988286
 20
7.682093910228101
 30
0.0
 40
0.125
100
AcDbArc
 50
134.9999999999996
 51
180.0
  0
ARC
  5
11D
330
2
100
AcDbEntity
  8
0
100
AcDbCircle
 10
-4.327169206988286
 20
8.098147300821378
 30
0.0
 40
0.125
100
AcDbArc
 50
315.0
 51
0.0
  0
CIRCLE
  5
11E
330
2
100
AcDbEntity
  8
0
100
AcDbCircle
 10
-3.952164283835002
 20
8.351673724782668
 30
0.0
 40
0.0855
  0
ARC
  5
11F
330
2
100
AcDbEntity
  8
0
100
AcDbCircle
 10
-4.389669206988286
 20
9.682093910228101
 30
0.0
 40
0.125
100
AcDbArc
 50
134.9999999999996
 51
180.0
  0
LINE
  5
120
330
2
100
AcDbEntity
  8
0
100
AcDbLine
 10
-4.514669206988286
 20
9.682093910228101
 30
0.0
 11
-4.514669206988286
 21
9.035647300821385
 31
0.0
  0
LINE
  5
121
330
2
100
AcDbEntity
  8
0
100
AcDbLine
 10
-4.478057554636605
 20
8.947258953173066
 30
0.0
 11
-4.23878085933997
 21
8.707982257876427
 31
0.0
  0
ARC
  5
122
330
2
100
AcDbEntity
  8
0
100
AcDbCircle
 10
-4.389669206988286
 20
9.035647300821385
 30
0.0
 40
0.125
100
AcDbArc
 50
180.0
 51
225.0000000000003
  0
ARC
  5
123
330
2
100
AcDbEntity
  8
0
100
AcDbCircle
 10
-4.327169206988286
 20
8.619593910228108
 30
0.0
 40
0.125
100
AcDbArc
 50
0.0
 51
45.00000000000014
  0
CIRCLE
  5
124
330
2
100
AcDbEntity
  8
0
100
AcDbCircle
 10
-4.264664283835002
 20
9.351673724782661
 30
0.0
 40
0.0855
  0
CIRCLE
  5
125
330
2
100
AcDbEntity
  8
0
100
AcDbCircle
 10
-3.514664283835002
 20
9.101673724782661
 30
0.0
 40
0.0855
  0
CIRCLE
  5
126
330
2
100
AcDbEntity
  8
0
100
AcDbCircle
 10
-3.952164283835002
 20
10.35167372478267
 30
0.0
 40
0.0855
  0
LINE
  5
127
330
2
100
AcDbEntity
  8
0
100
AcDbLine
 10
-4.202169206988286
 20
10.60167372478266
 30
0.0
 11
-4.202169206988286
 21
10.09814730082138
 31
0.0
  0
LINE
  5
128
330
2
100
AcDbEntity
  8
0
100
AcDbLine
 10
-4.238780859339967
 20
10.00975895317306
 30
0.0
 11
-4.478057554636605
 21
9.77048225787642
 31
0.0
  0
ARC
  5
129
330
2
100
AcDbEntity
  8
0
100
AcDbCircle
 10
-4.327169206988286
 20
10.09814730082138
 30
0.0
 40
0.125
100
AcDbArc
 50
315.0
 51
0.0
  0
ELLIPSE
  5
12A
330
2
100
AcDbEntity
  8
0
100
AcDbEllipse
 10
-1.882464283835006
 20
7.226673724782661
 30
0.0
 11
0.0
 21
-0.1383375000000022
 31
0.0
210
0.0
220
0.0
230
-1.0
 40
0.9035872413481376
 41
0.0
 42
3.141592653589793
  0
LINE
  5
12B
330
2
100
AcDbEntity
  8
0
100
AcDbLine
 10
-1.882464283835006
 20
7.382923724782661
 30
0.0
 11
-1.882464283835006
 21
7.070423724782661
 31
0.0
  0
ELLIPSE
  5
12C
330
2
100
AcDbEntity
  8
0
100
AcDbEllipse
 10
-1.882464283835006
 20
7.226673724782675
 30
0.0
 11
0.0
 21
-0.1875000000000142
 31
0.0
210
0.0
220
0.0
230
-1.0
 40
0.9999999999999242
 41
0.0
 42
3.141592653589793
  0
CIRCLE
  5
12D
330
2
100
AcDbEntity
  8
0
100
AcDbCircle
 10
-2.511171803841117
 20
6.343750000000007
 30
0.0
 40
0.0855
  0
ELLIPSE
  5
12E
330
2
100
AcDbEntity
  8
0
100
AcDbEllipse
 10
-1.882464283835006
 20
6.226673724782675
 30
0.0
 11
0.0
 21
-0.1875000000000142
 31
0.0
210
0.0
220
0.0
230
-1.0
 40
0.9999999999999242
 41
0.0
 42
3.141592653589793
  0
ELLIPSE
  5
12F
330
2
100
AcDbEntity
  8
0
100
AcDbEllipse
 10
-1.882464283835006
 20
6.226673724782661
 30
0.0
 11
0.0
 21
-0.1383375000000022
 31
0.0
210
0.0
220
0.0
230
-1.0
 40
0.9035872413481376
 41
0.0
 42
3.141592653589793
  0
LINE
  5
130
330
2
100
AcDbEntity
  8
0
100
AcDbLine
 10
-1.882464283835006
 20
6.382923724782661
 30
0.0
 11
-1.882464283835006
 21
6.070423724782661
 31
0.0
  0
LINE
  5
131
330
2
100
AcDbEntity
  8
0
100
AcDbLine
 10
-1.882464283835006
 20
6.070423724782661
 30
0.0
 11
-1.882464283835006
 21
6.039173724782661
 31
0.0
  0
LINE
  5
132
330
2
100
AcDbEntity
  8
0
100
AcDbLine
 10
-1.882464283835006
 20
6.382923724782689
 30
0.0
 11
-1.882464283835006
 21
6.414173724782689
 31
0.0
  0
LINE
  5
133
330
2
100
AcDbEntity
  8
0
100
AcDbLine
 10
-1.882464283835006
 20
7.070423724782661
 30
0.0
 11
-1.882464283835006
 21
7.039173724782661
 31
0.0
  0
LINE
  5
134
330
2
100
AcDbEntity
  8
0
100
AcDbLine
 10
-1.882464283835006
 20
7.382923724782689
 30
0.0
 11
-1.882464283835006
 21
7.414173724782689
 31
0.0
  0
CIRCLE
  5
135
330
2
100
AcDbEntity
  8
0
100
AcDbCircle
 10
-2.511171803841117
 20
8.343750000000007
 30
0.0
 40
0.0855
  0
LINE
  5
136
330
2
100
AcDbEntity
  8
0
100
AcDbLine
 10
-1.882464283835006
 20
8.382923724782689
 30
0.0
 11
-1.882464283835006
 21
8.414173724782689
 31
0.0
  0
LINE
  5
137
330
2
100
AcDbEntity
  8
0
100
AcDbLine
 10
-1.882464283835006
 20
8.070423724782661
 30
0.0
 11
-1.882464283835006
 21
8.039173724782661
 31
0.0
  0
ELLIPSE
  5
138
330
2
100
AcDbEntity
  8
0
100
AcDbEllipse
 10
-1.882464283835006
 20
8.226673724782661
 30
0.0
 11
0.0
 21
-0.1383375000000022
 31
0.0
210
0.0
220
0.0
230
-1.0
 40
0.9035872413481376
 41
0.0
 42
3.141592653589793
  0
ELLIPSE
  5
139
330
2
100
AcDbEntity
  8
0
100
AcDbEllipse
 10
-1.882464283835006
 20
8.226673724782675
 30
0.0
 11
0.0
 21
-0.1875000000000142
 31
0.0
210
0.0
220
0.0
230
-1.0
 40
0.9999999999999242
 41
0.0
 42
3.141592653589793
  0
LINE
  5
13A
330
2
100
AcDbEntity
  8
0
100
AcDbLine
 10
-1.882464283835006
 20
8.382923724782661
 30
0.0
 11
-1.882464283835006
 21
8.070423724782661
 31
0.0
  0
ELLIPSE
  5
13B
330
2
100
AcDbEntity
  8
0
100
AcDbEllipse
 10
-1.882464283835006
 20
9.226673724782661
 30
0.0
 11
0.0
 21
-0.1383375000000022
 31
0.0
210
0.0
220
0.0
230
-1.0
 40
0.9035872413481376
 41
0.0
 42
3.141592653589793
  0
ELLIPSE
  5
13C
330
2
100
AcDbEntity
  8
0
100
AcDbEllipse
 10
-1.882464283835006
 20
9.226673724782675
 30
0.0
 11
0.0
 21
-0.1875000000000142
 31
0.0
210
0.0
220
0.0
230
-1.0
 40
0.9999999999999242
 41
0.0
 42
3.141592653589793
  0
LINE
  5
13D
330
2
100
AcDbEntity
  8
0
100
AcDbLine
 10
-1.882464283835006
 20
9.382923724782661
 30
0.0
 11
-1.882464283835006
 21
9.070423724782661
 31
0.0
  0
LINE
  5
13E
330
2
100
AcDbEntity
  8
0
100
AcDbLine
 10
-1.882464283835006
 20
9.070423724782661
 30
0.0
 11
-1.882464283835006
 21
9.039173724782661
 31
0.0
  0
LINE
  5
13F
330
2
100
AcDbEntity
  8
0
100
AcDbLine
 10
-1.882464283835006
 20
9.382923724782689
 30
0.0
 11
-1.882464283835006
 21
9.414173724782689
 31
0.0
  0
CIRCLE
  5
140
330
2
100
AcDbEntity
  8
0
100
AcDbCircle
 10
-2.511171803841117
 20
10.34375000000001
 30
0.0
 40
0.0855
  0
ELLIPSE
  5
142
330
2
100
AcDbEntity
  8
0
100
AcDbEllipse
 10
-1.882464283835006
 20
10.22667372478268
 30
0.0
 11
0.0
 21
-0.1875000000000142
 31
0.0
210
0.0
220
0.0
230
-1.0
 40
0.9999999999999242
 41
0.0
 42
3.141592653589793
  0
LINE
  5
143
330
2
100
AcDbEntity
  8
0
100
AcDbLine
 10
-1.882464283835006
 20
10.38292372478266
 30
0.0
 11
-1.882464283835006
 21
10.07042372478266
 31
0.0
  0
LINE
  5
144
330
2
100
AcDbEntity
  8
0
100
AcDbLine
 10
-1.882464283835006
 20
10.07042372478266
 30
0.0
 11
-1.882464283835006
 21
10.03917372478266
 31
0.0
  0
ELLIPSE
  5
145
330
2
100
AcDbEntity
  8
0
100
AcDbEllipse
 10
-1.882464283835006
 20
10.22667372478266
 30
0.0
 11
0.0
 21
-0.1383375000000022
 31
0.0
210
0.0
220
0.0
230
-1.0
 40
0.9035872413481376
 41
0.0
 42
3.141592653589793
  0
LINE
  5
146
330
2
100
AcDbEntity
  8
0
100
AcDbLine
 10
-1.882464283835006
 20
10.38292372478269
 30
0.0
 11
-1.882464283835006
 21
10.41417372478269
 31
0.0
  0
LINE
  5
147
330
2
100
AcDbEntity
  8
0
100
AcDbLine
 10
-1.103793561290823
 20
15.24090940499987
 30
0.0
 11
1.092754860462579
 21
15.24090940499987
 31
0.0
  0
ARC
  5
148
330
2
100
AcDbEntity
  8
0
100
AcDbCircle
 10
-1.510043561290885
 20
15.24090940499987
 30
0.0
 40
0.09375
100
AcDbArc
 50
90.0
 51
180.0
  0
LINE
  5
149
330
2
100
AcDbEntity
  8
0
100
AcDbLine
 10
-1.884413051973372
 20
15.24090940499988
 30
0.0
 11
-1.603793561291152
 21
15.24090940499988
 31
0.0
  0
ARC
  5
14A
330
2
100
AcDbEntity
  8
0
100
AcDbCircle
 10
-1.197543561290885
 20
15.24090940499987
 30
0.0
 40
0.09375
100
AcDbArc
 50
0.0
 51
90.0
  0
LINE
  5
14B
330
2
100
AcDbEntity
  8
0
100
AcDbLine
 10
-1.197543561290885
 20
15.33465940499987
 30
0.0
 11
-1.510043561290885
 21
15.33465940499987
 31
0.0
  0
LINE
  5
14C
330
2
100
AcDbEntity
  8
0
100
AcDbLine
 10
1.499004860462433
 20
15.33465940499987
 30
0.0
 11
1.186504860462433
 21
15.33465940499987
 31
0.0
  0
ARC
  5
14D
330
2
100
AcDbEntity
  8
0
100
AcDbCircle
 10
1.186504860462433
 20
15.24090940499987
 30
0.0
 40
0.09375
100
AcDbArc
 50
90.0
 51
180.0
  0
ARC
  5
14E
330
2
100
AcDbEntity
  8
0
100
AcDbCircle
 10
1.499004860462433
 20
15.24090940499987
 30
0.0
 40
0.09375
100
AcDbArc
 50
0.0
 51
90.0
  0
LINE
  5
14F
330
2
100
AcDbEntity
  8
0
100
AcDbLine
 10
4.20216900158996
 20
8.593749999999996
 30
0.0
 11
4.20216900158996
 21
8.090223576038721
 31
0.0
  0
LINE
  5
150
330
2
100
AcDbEntity
  8
0
100
AcDbLine
 10
4.202169001589953
 20
8.090223677651093
 30
0.0
 11
4.202169001589953
 21
8.593749999999996
 31
0.0
  0
LINE
  5
151
330
2
100
AcDbEntity
  8
0
100
AcDbLine
 10
4.20216900158996
 20
8.593749999999996
 30
0.0
 11
4.20216900158996
 21
8.090223576038721
 31
0.0
  0
LINE
  5
152
330
2
100
AcDbEntity
  8
0
100
AcDbLine
 10
4.202169001589953
 20
8.090223677651093
 30
0.0
 11
4.202169001589953
 21
8.593749999999996
 31
0.0
  0
CIRCLE
  5
153
330
2
100
AcDbEntity
  8
0
100
AcDbCircle
 10
3.952164078436669
 20
8.343750000000007
 30
0.0
 40
0.0855
  0
CIRCLE
  5
154
330
2
100
AcDbEntity
  8
0
100
AcDbCircle
 10
3.952164078436669
 20
6.343750000000007
 30
0.0
 40
0.0855
  0
LINE
  5
157
330
2
100
AcDbEntity
  8
0
100
AcDbLine
 10
1.882464078436671
 20
6.007423724782687
 30
0.0
 11
1.882464078436671
 21
6.038673724782687
 31
0.0
  0
CIRCLE
  5
158
330
2
100
AcDbEntity
  8
0
100
AcDbCircle
 10
2.514664078436661
 20
6.343750000000007
 30
0.0
 40
0.0855
  0
ELLIPSE
  5
15B
330
2
100
AcDbEntity
  8
0
100
AcDbEllipse
 10
1.882464078436671
 20
6.851173724782672
 30
0.0
 11
0.0
 21
-0.1875000000000142
 31
0.0
210
0.0
220
0.0
230
1.0
 40
0.9999999999999242
 41
0.0
 42
3.141592653589793
  0
ELLIPSE
  5
15C
330
2
100
AcDbEntity
  8
0
100
AcDbEllipse
 10
1.882464078436671
 20
6.851173724782658
 30
0.0
 11
0.0
 21
-0.1383375000000022
 31
0.0
210
0.0
220
0.0
230
1.0
 40
0.9035872413481376
 41
0.0
 42
3.141592653589793
  0
LINE
  5
15D
330
2
100
AcDbEntity
  8
0
100
AcDbLine
 10
1.882464078436671
 20
7.007423724782658
 30
0.0
 11
1.882464078436671
 21
6.694923724782658
 31
0.0
  0
LINE
  5
15E
330
2
100
AcDbEntity
  8
0
100
AcDbLine
 10
1.882464078436671
 20
6.694923724782658
 30
0.0
 11
1.882464078436671
 21
6.663673724782658
 31
0.0
  0
LINE
  5
15F
330
2
100
AcDbEntity
  8
0
100
AcDbLine
 10
1.882464078436671
 20
7.007423724782687
 30
0.0
 11
1.882464078436671
 21
7.038673724782687
 31
0.0
  0
CIRCLE
  5
160
330
2
100
AcDbEntity
  8
0
100
AcDbCircle
 10
3.202164078436669
 20
6.093750000000007
 30
0.0
 40
0.0855
  0
CIRCLE
  5
162
330
2
100
AcDbEntity
  8
0
100
AcDbCircle
 10
3.514664078436676
 20
7.09375
 30
0.0
 40
0.0855
  0
ELLIPSE
  5
163
330
2
100
AcDbEntity
  8
0
100
AcDbEllipse
 10
1.882464078436671
 20
7.851173724782658
 30
0.0
 11
0.0
 21
-0.1383375000000022
 31
0.0
210
0.0
220
0.0
230
1.0
 40
0.9035872413481376
 41
0.0
 42
3.141592653589793
  0
LINE
  5
164
330
2
100
AcDbEntity
  8
0
100
AcDbLine
 10
1.882464078436671
 20
8.007423724782658
 30
0.0
 11
1.882464078436671
 21
7.694923724782658
 31
0.0
  0
ELLIPSE
  5
165
330
2
100
AcDbEntity
  8
0
100
AcDbEllipse
 10
1.882464078436671
 20
7.851173724782672
 30
0.0
 11
0.0
 21
-0.1875000000000142
 31
0.0
210
0.0
220
0.0
230
1.0
 40
0.9999999999999242
 41
0.0
 42
3.141592653589793
  0
LINE
  5
166
330
2
100
AcDbEntity
  8
0
100
AcDbLine
 10
1.882464078436671
 20
7.694923724782658
 30
0.0
 11
1.882464078436671
 21
7.663673724782658
 31
0.0
  0
CIRCLE
  5
167
330
2
100
AcDbEntity
  8
0
100
AcDbCircle
 10
2.639664078436665
 20
7.71875
 30
0.0
 40
0.0855
  0
LINE
  5
168
330
2
100
AcDbEntity
  8
0
100
AcDbLine
 10
1.882464078436671
 20
8.007423724782687
 30
0.0
 11
1.882464078436671
 21
8.038673724782687
 31
0.0
  0
CIRCLE
  5
169
330
2
100
AcDbEntity
  8
0
100
AcDbCircle
 10
2.514664078436661
 20
8.343750000000007
 30
0.0
 40
0.0855
  0
LINE
  5
16A
330
2
100
AcDbEntity
  8
0
100
AcDbLine
 10
4.51466900158996
 20
7.674170185445444
 30
0.0
 11
4.51466900158996
 21
7.027723576038724
 31
0.0
  0
ARC
  5
16B
330
2
100
AcDbEntity
  8
0
100
AcDbCircle
 10
4.32716900158996
 20
6.611670185445451
 30
0.0
 40
0.125
100
AcDbArc
 50
134.9999999999999
 51
180.0
  0
LINE
  5
16C
330
2
100
AcDbEntity
  8
0
100
AcDbLine
 10
4.202169001589953
 20
6.090223677651093
 30
0.0
 11
4.202169001589953
 21
6.593749999999996
 31
0.0
  0
LINE
  5
16D
330
2
100
AcDbEntity
  8
0
100
AcDbLine
 10
4.20216900158996
 20
6.611670185445451
 30
0.0
 11
4.20216900158996
 21
6.090223576038721
 31
0.0
  0
ARC
  5
16F
330
2
100
AcDbEntity
  8
0
100
AcDbCircle
 10
4.38966900158996
 20
7.027723576038724
 30
0.0
 40
0.125
100
AcDbArc
 50
314.9999999999997
 51
0.0
  0
LINE
  5
170
330
2
100
AcDbEntity
  8
0
100
AcDbLine
 10
4.478057349238272
 20
6.939335228390405
 30
0.0
 11
4.238780653941641
 21
6.70005853309377
 31
0.0
  0
LINE
  5
171
330
2
100
AcDbEntity
  8
0
100
AcDbLine
 10
4.238780653941641
 20
8.001835228390402
 30
0.0
 11
4.478057349238272
 21
7.762558533093763
 31
0.0
  0
ARC
  5
172
330
2
100
AcDbEntity
  8
0
100
AcDbCircle
 10
4.38966900158996
 20
7.674170185445444
 30
0.0
 40
0.125
100
AcDbArc
 50
0.0
 51
45.00000000000033
  0
CIRCLE
  5
173
330
2
100
AcDbEntity
  8
0
100
AcDbCircle
 10
4.264664078436676
 20
7.34375
 30
0.0
 40
0.0855
  0
ARC
  5
174
330
2
100
AcDbEntity
  8
0
100
AcDbCircle
 10
4.32716900158996
 20
8.090223576038721
 30
0.0
 40
0.125
100
AcDbArc
 50
180.0
 51
225.0000000000001
  0
CIRCLE
  5
175
330
2
100
AcDbEntity
  8
0
100
AcDbCircle
 10
3.952164078436669
 20
10.34375000000001
 30
0.0
 40
0.0855
  0
LINE
  5
177
330
2
100
AcDbEntity
  8
0
100
AcDbLine
 10
1.788714078436671
 20
10.59375
 30
0.0
 11
4.202169001589953
 21
10.59375
 31
0.0
  0
ELLIPSE
  5
178
330
2
100
AcDbEntity
  8
0
100
AcDbEllipse
 10
1.882464078436671
 20
9.851173724782672
 30
0.0
 11
0.0
 21
-0.1875000000000142
 31
0.0
210
0.0
220
0.0
230
1.0
 40
0.9999999999999242
 41
0.0
 42
3.141592653589793
  0
ELLIPSE
  5
179
330
2
100
AcDbEntity
  8
0
100
AcDbEllipse
 10
1.882464078436671
 20
9.851173724782658
 30
0.0
 11
0.0
 21
-0.1383375000000022
 31
0.0
210
0.0
220
0.0
230
1.0
 40
0.9035872413481376
 41
0.0
 42
3.141592653589793
  0
LINE
  5
17A
330
2
100
AcDbEntity
  8
0
100
AcDbLine
 10
1.882464078436671
 20
10.00742372478266
 30
0.0
 11
1.882464078436671
 21
9.694923724782658
 31
0.0
  0
LINE
  5
17B
330
2
100
AcDbEntity
  8
0
100
AcDbLine
 10
1.882464078436671
 20
9.007423724782687
 30
0.0
 11
1.882464078436671
 21
9.038673724782687
 31
0.0
  0
LINE
  5
17C
330
2
100
AcDbEntity
  8
0
100
AcDbLine
 10
1.882464078436671
 20
8.694923724782658
 30
0.0
 11
1.882464078436671
 21
8.663673724782658
 31
0.0
  0
ELLIPSE
  5
17D
330
2
100
AcDbEntity
  8
0
100
AcDbEllipse
 10
1.882464078436671
 20
8.851173724782658
 30
0.0
 11
0.0
 21
-0.1383375000000022
 31
0.0
210
0.0
220
0.0
230
1.0
 40
0.9035872413481376
 41
0.0
 42
3.141592653589793
  0
ELLIPSE
  5
17E
330
2
100
AcDbEntity
  8
0
100
AcDbEllipse
 10
1.882464078436671
 20
8.851173724782672
 30
0.0
 11
0.0
 21
-0.1875000000000142
 31
0.0
210
0.0
220
0.0
230
1.0
 40
0.9999999999999242
 41
0.0
 42
3.141592653589793
  0
LINE
  5
17F
330
2
100
AcDbEntity
  8
0
100
AcDbLine
 10
1.882464078436671
 20
9.007423724782658
 30
0.0
 11
1.882464078436671
 21
8.694923724782658
 31
0.0
  0
LINE
  5
180
330
2
100
AcDbEntity
  8
0
100
AcDbLine
 10
1.882464078436671
 20
9.694923724782658
 30
0.0
 11
1.882464078436671
 21
9.663673724782658
 31
0.0
  0
CIRCLE
  5
182
330
2
100
AcDbEntity
  8
0
100
AcDbCircle
 10
2.639664078436665
 20
9.59375
 30
0.0
 40
0.0855
  0
CIRCLE
  5
184
330
2
100
AcDbEntity
  8
0
100
AcDbCircle
 10
3.514664078436676
 20
9.09375
 30
0.0
 40
0.0855
  0
CIRCLE
  5
187
330
2
100
AcDbEntity
  8
0
100
AcDbCircle
 10
2.514664078436661
 20
10.34375000000001
 30
0.0
 40
0.0855
  0
LINE
  5
189
330
2
100
AcDbEntity
  8
0
100
AcDbLine
 10
1.882464078436671
 20
10.00742372478269
 30
0.0
 11
1.882464078436671
 21
10.03867372478269
 31
0.0
  0
LINE
  5
18B
330
2
100
AcDbEntity
  8
0
100
AcDbLine
 10
4.51466900158996
 20
9.674170185445444
 30
0.0
 11
4.51466900158996
 21
9.027723576038724
 31
0.0
  0
ARC
  5
18C
330
2
100
AcDbEntity
  8
0
100
AcDbCircle
 10
4.38966900158996
 20
9.027723576038724
 30
0.0
 40
0.125
100
AcDbArc
 50
314.9999999999997
 51
0.0
  0
ARC
  5
18D
330
2
100
AcDbEntity
  8
0
100
AcDbCircle
 10
4.32716900158996
 20
8.611670185445451
 30
0.0
 40
0.125
100
AcDbArc
 50
134.9999999999999
 51
180.0
  0
LINE
  5
18E
330
2
100
AcDbEntity
  8
0
100
AcDbLine
 10
4.478057349238272
 20
8.939335228390405
 30
0.0
 11
4.238780653941641
 21
8.70005853309377
 31
0.0
  0
CIRCLE
  5
18F
330
2
100
AcDbEntity
  8
0
100
AcDbCircle
 10
4.264664078436676
 20
9.34375
 30
0.0
 40
0.0855
  0
LINE
  5
193
330
2
100
AcDbEntity
  8
0
100
AcDbLine
 10
4.202169001589953
 20
10.09022367765109
 30
0.0
 11
4.202169001589953
 21
10.59375
 31
0.0
  0
LINE
  5
194
330
2
100
AcDbEntity
  8
0
100
AcDbLine
 10
4.20216900158996
 20
10.59375
 30
0.0
 11
4.20216900158996
 21
10.09022357603872
 31
0.0
  0
ARC
  5
195
330
2
100
AcDbEntity
  8
0
100
AcDbCircle
 10
4.32716900158996
 20
10.09022357603872
 30
0.0
 40
0.125
100
AcDbArc
 50
180.0
 51
225.0000000000001
  0
LINE
  5
196
330
2
100
AcDbEntity
  8
0
100
AcDbLine
 10
4.238780653941641
 20
10.0018352283904
 30
0.0
 11
4.478057349238272
 21
9.762558533093763
 31
0.0
  0
LINE
  5
197
330
2
100
AcDbEntity
  8
0
  6
Continuous
100
AcDbLine
 10
13.66914993057776
 20
0.3806779976197348
 30
0.0
 11
13.66914993057775
 21
10.56992372478266
 31
0.0
  0
LINE
  5
198
330
2
100
AcDbEntity
  8
0
  6
Continuous
100
AcDbLine
 10
13.57539993057776
 20
0.3057337165496961
 30
0.0
 11
13.57539993057776
 21
6.569923724782655
 31
0.0
  0
ARC
  5
199
330
2
100
AcDbEntity
  8
0
100
AcDbCircle
 10
12.02010485373104
 20
6.066397300821382
 30
0.0
 40
0.125
100
AcDbArc
 50
180.0
 51
225.0000000000001
  0
ARC
  5
19A
330
2
100
AcDbEntity
  8
0
100
AcDbCircle
 10
8.645104853731041
 20
4.048314683237312
 30
0.0
 40
3.25
100
AcDbArc
 50
314.9999999999995
 51
0.0
  0
LINE
  5
19B
330
2
100
AcDbEntity
  8
0
  6
Continuous
100
AcDbLine
 10
13.3711340620109
 20
-0.0238262752173384
 30
0.0
 11
9.399904438861647
 21
-0.0238262752173384
 31
0.0
  0
LINE
  5
19C
330
2
100
AcDbEntity
  8
0
  6
DASHED
100
AcDbLine
 10
13.40644783207139
 20
0.0699237247826616
 30
0.0
 11
9.416646993761127
 21
0.0699237247826616
 31
0.0
  0
LINE
  5
19D
330
2
100
AcDbEntity
  8
0
100
AcDbLine
 10
10.94320189258733
 20
1.750217644380985
 30
0.0
 11
9.614774767841162
 21
0.4217905196348291
 31
0.0
  0
ARC
  5
19E
330
2
100
AcDbEntity
  8
0
100
AcDbCircle
 10
10.14510485373107
 20
-0.1085395662550575
 30
0.0
 40
0.75
100
AcDbArc
 50
134.9999999999995
 51
173.5145409117434
  0
ARC
  5
19F
330
2
100
AcDbEntity
  8
0
100
AcDbCircle
 10
14.08908229404111
 20
-0.24073716965259
 30
0.0
 40
0.75
100
AcDbArc
 50
124.0495612829
 51
163.1890633163619
  0
LWPOLYLINE
  5
1A0
330
2
100
AcDbEntity
  8
0
100
AcDbPolyline
 90
        9
 70
     0
 43
0.0
 10
12.63789993057776
 20
0.7421612247826559
 42
0.1432467981947568
 10
12.66312458143322
 20
0.7495393216539057
 42
0.1071754848060475
 10
12.6878107474038
 20
0.7740902467985578
 42
0.0783035184710328
 10
12.70275741502616
 20
0.8077115011493561
 42
0.0656020556757086
 10
12.70848448464227
 20
0.8511737247826616
 42
0.0656020556757101
 10
12.70275741502616
 20
0.8946359484159601
 42
0.0783035184710357
 10
12.6878107474038
 20
0.9282572027667584
 42
0.1071754848060445
 10
12.66312458143322
 20
0.9528081279114105
 42
0.1432467981947535
 10
12.63789993057776
 20
0.9601862247826603
 42
0.1432467981947515
  0
LWPOLYLINE
  5
1A1
330
2
100
AcDbEntity
  8
0
100
AcDbPolyline
 90
        9
 70
     0
 43
0.0
 10
12.63789993057776
 20
0.7714862247826559
 42
0.147269582437036
 10
12.6555963537403
 20
0.7768140664704504
 42
0.1071386913803464
 10
12.6731482474038
 20
0.7948261531568548
 42
0.0765137470862007
 10
12.68369016145057
 20
0.8193308911910151
 42
0.063469041210727
 10
12.68774857828397
 20
0.8511737247826616
 42
0.0634690412107267
 10
12.68369016145057
 20
0.883016558374301
 42
0.0765137470862059
 10
12.6731482474038
 20
0.9075212964084614
 42
0.1071386913803463
 10
12.6555963537403
 20
0.9255333830948658
 42
0.1472695824370325
 10
12.63789993057776
 20
0.9308612247826602
 42
0.1472695824370333
  0
LINE
  5
1A2
330
2
100
AcDbEntity
  8
0
100
AcDbLine
 10
12.63789993057776
 20
0.7128362247826559
 30
0.0
 11
12.63789993057776
 21
0.9895112247826603
 31
0.0
  0
LWPOLYLINE
  5
1A3
330
2
100
AcDbEntity
  8
0
100
AcDbPolyline
 90
        9
 70
     0
 43
0.0
 10
12.63789993057776
 20
0.7128362247826559
 42
0.0700628980345364
 10
12.7170187343778
 20
0.723977500551527
 42
0.0818514225363451
 10
12.77891505250425
 20
0.7533543404402607
 42
0.1069100077216601
 10
12.82351320356975
 20
0.8011012531952915
 42
0.135394011665182
 10
12.83732542850589
 20
0.8511737247826545
 42
0.1353940116651818
 10
12.82351320356975
 20
0.9012461963700247
 42
0.1069100077216599
 10
12.77891505250425
 20
0.9489931091250483
 42
0.0818514225363446
 10
12.7170187343778
 20
0.9783699490137892
 42
0.0700628980345367
 10
12.63789993057776
 20
0.9895112247826603
 42
0.0700628980345371
  0
LWPOLYLINE
  5
1A4
330
2
100
AcDbEntity
  8
0
100
AcDbPolyline
 90
        9
 70
     0
 43
0.0
 10
12.63789993057776
 20
1.712836224782656
 42
0.0700628980345364
 10
12.7170187343778
 20
1.723977500551527
 42
0.0818514225363451
 10
12.77891505250425
 20
1.753354340440261
 42
0.1069100077216601
 10
12.82351320356975
 20
1.801101253195292
 42
0.135394011665182
 10
12.83732542850589
 20
1.851173724782655
 42
0.1353940116651818
 10
12.82351320356975
 20
1.901246196370025
 42
0.1069100077216599
 10
12.77891505250425
 20
1.948993109125048
 42
0.0818514225363446
 10
12.7170187343778
 20
1.978369949013789
 42
0.0700628980345367
 10
12.63789993057776
 20
1.98951122478266
 42
0.0700628980345371
  0
LWPOLYLINE
  5
1A5
330
2
100
AcDbEntity
  8
0
100
AcDbPolyline
 90
        9
 70
     0
 43
0.0
 10
12.63789993057776
 20
1.771486224782656
 42
0.147269582437036
 10
12.6555963537403
 20
1.77681406647045
 42
0.1071386913803464
 10
12.6731482474038
 20
1.794826153156855
 42
0.0765137470862007
 10
12.68369016145057
 20
1.819330891191015
 42
0.063469041210727
 10
12.68774857828397
 20
1.851173724782662
 42
0.0634690412107267
 10
12.68369016145057
 20
1.883016558374301
 42
0.0765137470862059
 10
12.6731482474038
 20
1.907521296408461
 42
0.1071386913803463
 10
12.6555963537403
 20
1.925533383094866
 42
0.1472695824370325
 10
12.63789993057776
 20
1.93086122478266
 42
0.1472695824370333
  0
LWPOLYLINE
  5
1A6
330
2
100
AcDbEntity
  8
0
100
AcDbPolyline
 90
        9
 70
     0
 43
0.0
 10
12.63789993057776
 20
1.742161224782656
 42
0.1432467981947568
 10
12.66312458143322
 20
1.749539321653906
 42
0.1071754848060475
 10
12.6878107474038
 20
1.774090246798558
 42
0.0783035184710328
 10
12.70275741502616
 20
1.807711501149356
 42
0.0656020556757086
 10
12.70848448464227
 20
1.851173724782662
 42
0.0656020556757101
 10
12.70275741502616
 20
1.89463594841596
 42
0.0783035184710357
 10
12.6878107474038
 20
1.928257202766758
 42
0.1071754848060445
 10
12.66312458143322
 20
1.952808127911411
 42
0.1432467981947535
 10
12.63789993057776
 20
1.96018622478266
 42
0.1432467981947515
  0
LINE
  5
1A7
330
2
100
AcDbEntity
  8
0
100
AcDbLine
 10
12.63789993057776
 20
1.712836224782656
 30
0.0
 11
12.63789993057776
 21
1.98951122478266
 31
0.0
  0
LWPOLYLINE
  5
1A8
330
2
100
AcDbEntity
  8
0
100
AcDbPolyline
 90
        9
 70
     0
 43
0.0
 10
12.63789993057776
 20
2.771486224782656
 42
0.147269582437036
 10
12.6555963537403
 20
2.77681406647045
 42
0.1071386913803464
 10
12.6731482474038
 20
2.794826153156855
 42
0.0765137470862007
 10
12.68369016145057
 20
2.819330891191015
 42
0.063469041210727
 10
12.68774857828397
 20
2.851173724782662
 42
0.0634690412107267
 10
12.68369016145057
 20
2.883016558374301
 42
0.0765137470862059
 10
12.6731482474038
 20
2.907521296408461
 42
0.1071386913803463
 10
12.6555963537403
 20
2.925533383094866
 42
0.1472695824370325
 10
12.63789993057776
 20
2.93086122478266
 42
0.1472695824370333
  0
LWPOLYLINE
  5
1A9
330
2
100
AcDbEntity
  8
0
100
AcDbPolyline
 90
        9
 70
     0
 43
0.0
 10
12.63789993057776
 20
2.712836224782656
 42
0.0700628980345364
 10
12.7170187343778
 20
2.723977500551527
 42
0.0818514225363451
 10
12.77891505250425
 20
2.753354340440261
 42
0.1069100077216601
 10
12.82351320356975
 20
2.801101253195292
 42
0.135394011665182
 10
12.83732542850589
 20
2.851173724782655
 42
0.1353940116651818
 10
12.82351320356975
 20
2.901246196370025
 42
0.1069100077216599
 10
12.77891505250425
 20
2.948993109125048
 42
0.0818514225363446
 10
12.7170187343778
 20
2.978369949013789
 42
0.0700628980345367
 10
12.63789993057776
 20
2.98951122478266
 42
0.0700628980345371
  0
LWPOLYLINE
  5
1AA
330
2
100
AcDbEntity
  8
0
100
AcDbPolyline
 90
        9
 70
     0
 43
0.0
 10
12.63789993057776
 20
2.742161224782656
 42
0.1432467981947568
 10
12.66312458143322
 20
2.749539321653906
 42
0.1071754848060475
 10
12.6878107474038
 20
2.774090246798558
 42
0.0783035184710328
 10
12.70275741502616
 20
2.807711501149356
 42
0.0656020556757086
 10
12.70848448464227
 20
2.851173724782662
 42
0.0656020556757101
 10
12.70275741502616
 20
2.89463594841596
 42
0.0783035184710357
 10
12.6878107474038
 20
2.928257202766758
 42
0.1071754848060445
 10
12.66312458143322
 20
2.952808127911411
 42
0.1432467981947535
 10
12.63789993057776
 20
2.96018622478266
 42
0.1432467981947515
  0
LINE
  5
1AB
330
2
100
AcDbEntity
  8
0
100
AcDbLine
 10
12.63789993057776
 20
2.712836224782656
 30
0.0
 11
12.63789993057776
 21
2.98951122478266
 31
0.0
  0
LINE
  5
1AC
330
2
100
AcDbEntity
  8
0
100
AcDbLine
 10
12.17099320137936
 20
4.915508953173063
 30
0.0
 11
11.93171650608272
 21
4.676232257876425
 31
0.0
  0
LINE
  5
1AD
330
2
100
AcDbEntity
  8
0
100
AcDbLine
 10
12.63789993057776
 20
4.712836224782656
 30
0.0
 11
12.63789993057776
 21
4.98951122478266
 31
0.0
  0
LWPOLYLINE
  5
1AE
330
2
100
AcDbEntity
  8
0
100
AcDbPolyline
 90
        9
 70
     0
 43
0.0
 10
12.63789993057776
 20
4.742161224782656
 42
0.1432467981947568
 10
12.66312458143322
 20
4.749539321653906
 42
0.1071754848060475
 10
12.6878107474038
 20
4.774090246798558
 42
0.0783035184710328
 10
12.70275741502616
 20
4.807711501149356
 42
0.0656020556757086
 10
12.70848448464227
 20
4.851173724782662
 42
0.0656020556757101
 10
12.70275741502616
 20
4.89463594841596
 42
0.0783035184710357
 10
12.6878107474038
 20
4.928257202766758
 42
0.1071754848060445
 10
12.66312458143322
 20
4.952808127911411
 42
0.1432467981947535
 10
12.63789993057776
 20
4.96018622478266
 42
0.1432467981947515
  0
LWPOLYLINE
  5
1AF
330
2
100
AcDbEntity
  8
0
100
AcDbPolyline
 90
        9
 70
     0
 43
0.0
 10
12.63789993057776
 20
4.712836224782656
 42
0.0700628980345364
 10
12.7170187343778
 20
4.723977500551527
 42
0.0818514225363451
 10
12.77891505250425
 20
4.753354340440261
 42
0.1069100077216601
 10
12.82351320356975
 20
4.801101253195292
 42
0.135394011665182
 10
12.83732542850589
 20
4.851173724782655
 42
0.1353940116651818
 10
12.82351320356975
 20
4.901246196370025
 42
0.1069100077216599
 10
12.77891505250425
 20
4.948993109125048
 42
0.0818514225363446
 10
12.7170187343778
 20
4.978369949013789
 42
0.0700628980345367
 10
12.63789993057776
 20
4.98951122478266
 42
0.0700628980345371
  0
LINE
  5
1B0
330
2
100
AcDbEntity
  8
0
100
AcDbLine
 10
11.89510485373105
 20
4.048314683237312
 30
0.0
 11
11.89510485373105
 21
4.587843910228106
 31
0.0
  0
ARC
  5
1B1
330
2
100
AcDbEntity
  8
0
100
AcDbCircle
 10
12.02010485373104
 20
4.587843910228106
 30
0.0
 40
0.125
100
AcDbArc
 50
134.9999999999999
 51
180.0
  0
LINE
  5
1B2
330
2
100
AcDbEntity
  8
0
100
AcDbLine
 10
12.63789993057776
 20
3.712836224782656
 30
0.0
 11
12.63789993057776
 21
3.98951122478266
 31
0.0
  0
LWPOLYLINE
  5
1B3
330
2
100
AcDbEntity
  8
0
100
AcDbPolyline
 90
        9
 70
     0
 43
0.0
 10
12.63789993057776
 20
3.742161224782656
 42
0.1432467981947568
 10
12.66312458143322
 20
3.749539321653906
 42
0.1071754848060475
 10
12.6878107474038
 20
3.774090246798558
 42
0.0783035184710328
 10
12.70275741502616
 20
3.807711501149356
 42
0.0656020556757086
 10
12.70848448464227
 20
3.851173724782662
 42
0.0656020556757101
 10
12.70275741502616
 20
3.89463594841596
 42
0.0783035184710357
 10
12.6878107474038
 20
3.928257202766758
 42
0.1071754848060445
 10
12.66312458143322
 20
3.952808127911411
 42
0.1432467981947535
 10
12.63789993057776
 20
3.96018622478266
 42
0.1432467981947515
  0
LWPOLYLINE
  5
1B4
330
2
100
AcDbEntity
  8
0
100
AcDbPolyline
 90
        9
 70
     0
 43
0.0
 10
12.63789993057776
 20
3.712836224782656
 42
0.0700628980345364
 10
12.7170187343778
 20
3.723977500551527
 42
0.0818514225363451
 10
12.77891505250425
 20
3.753354340440261
 42
0.1069100077216601
 10
12.82351320356975
 20
3.801101253195292
 42
0.135394011665182
 10
12.83732542850589
 20
3.851173724782655
 42
0.1353940116651818
 10
12.82351320356975
 20
3.901246196370025
 42
0.1069100077216599
 10
12.77891505250425
 20
3.948993109125048
 42
0.0818514225363446
 10
12.7170187343778
 20
3.978369949013789
 42
0.0700628980345367
 10
12.63789993057776
 20
3.98951122478266
 42
0.0700628980345371
  0
LWPOLYLINE
  5
1B5
330
2
100
AcDbEntity
  8
0
100
AcDbPolyline
 90
        9
 70
     0
 43
0.0
 10
12.63789993057776
 20
3.771486224782656
 42
0.147269582437036
 10
12.6555963537403
 20
3.77681406647045
 42
0.1071386913803464
 10
12.6731482474038
 20
3.794826153156855
 42
0.0765137470862007
 10
12.68369016145057
 20
3.819330891191015
 42
0.063469041210727
 10
12.68774857828397
 20
3.851173724782662
 42
0.0634690412107267
 10
12.68369016145057
 20
3.883016558374301
 42
0.0765137470862059
 10
12.6731482474038
 20
3.907521296408461
 42
0.1071386913803463
 10
12.6555963537403
 20
3.925533383094866
 42
0.1472695824370325
 10
12.63789993057776
 20
3.93086122478266
 42
0.1472695824370333
  0
LINE
  5
1B6
330
2
100
AcDbEntity
  8
0
100
AcDbLine
 10
12.20760485373104
 20
5.650343910228106
 30
0.0
 11
12.20760485373104
 21
5.003897300821382
 31
0.0
  0
ARC
  5
1B7
330
2
100
AcDbEntity
  8
0
100
AcDbCircle
 10
12.08260485373104
 20
5.003897300821382
 30
0.0
 40
0.125
100
AcDbArc
 50
314.9999999999997
 51
0.0
  0
LINE
  5
1B8
330
2
100
AcDbEntity
  8
0
100
AcDbLine
 10
11.93171650608272
 20
5.978008953173063
 30
0.0
 11
12.17099320137936
 21
5.738732257876425
 31
0.0
  0
ARC
  5
1B9
330
2
100
AcDbEntity
  8
0
100
AcDbCircle
 10
12.08260485373104
 20
5.650343910228106
 30
0.0
 40
0.125
100
AcDbArc
 50
0.0
 51
45.00000000000014
  0
LWPOLYLINE
  5
1BA
330
2
100
AcDbEntity
  8
0
100
AcDbPolyline
 90
        9
 70
     0
 43
0.0
 10
12.63789993057776
 20
4.771486224782656
 42
0.147269582437036
 10
12.6555963537403
 20
4.77681406647045
 42
0.1071386913803464
 10
12.6731482474038
 20
4.794826153156855
 42
0.0765137470862007
 10
12.68369016145057
 20
4.819330891191015
 42
0.063469041210727
 10
12.68774857828397
 20
4.851173724782662
 42
0.0634690412107267
 10
12.68369016145057
 20
4.883016558374301
 42
0.0765137470862059
 10
12.6731482474038
 20
4.907521296408461
 42
0.1071386913803463
 10
12.6555963537403
 20
4.925533383094866
 42
0.1472695824370325
 10
12.63789993057776
 20
4.93086122478266
 42
0.1472695824370333
  0
LWPOLYLINE
  5
1BB
330
2
100
AcDbEntity
  8
0
100
AcDbPolyline
 90
        9
 70
     0
 43
0.0
 10
12.63789993057776
 20
5.712836224782656
 42
0.0700628980345364
 10
12.7170187343778
 20
5.723977500551527
 42
0.0818514225363451
 10
12.77891505250425
 20
5.753354340440261
 42
0.1069100077216601
 10
12.82351320356975
 20
5.801101253195292
 42
0.135394011665182
 10
12.83732542850589
 20
5.851173724782655
 42
0.1353940116651818
 10
12.82351320356975
 20
5.901246196370025
 42
0.1069100077216599
 10
12.77891505250425
 20
5.948993109125048
 42
0.0818514225363446
 10
12.7170187343778
 20
5.978369949013789
 42
0.0700628980345367
 10
12.63789993057776
 20
5.98951122478266
 42
0.0700628980345371
  0
LWPOLYLINE
  5
1BC
330
2
100
AcDbEntity
  8
0
100
AcDbPolyline
 90
        9
 70
     0
 43
0.0
 10
12.63789993057776
 20
5.771486224782656
 42
0.147269582437036
 10
12.6555963537403
 20
5.77681406647045
 42
0.1071386913803464
 10
12.6731482474038
 20
5.794826153156855
 42
0.0765137470862007
 10
12.68369016145057
 20
5.819330891191015
 42
0.063469041210727
 10
12.68774857828397
 20
5.851173724782662
 42
0.0634690412107267
 10
12.68369016145057
 20
5.883016558374301
 42
0.0765137470862059
 10
12.6731482474038
 20
5.907521296408461
 42
0.1071386913803463
 10
12.6555963537403
 20
5.925533383094866
 42
0.1472695824370325
 10
12.63789993057776
 20
5.93086122478266
 42
0.1472695824370333
  0
LWPOLYLINE
  5
1BD
330
2
100
AcDbEntity
  8
0
100
AcDbPolyline
 90
        9
 70
     0
 43
0.0
 10
12.63789993057776
 20
5.742161224782656
 42
0.1432467981947568
 10
12.66312458143322
 20
5.749539321653906
 42
0.1071754848060475
 10
12.6878107474038
 20
5.774090246798558
 42
0.0783035184710328
 10
12.70275741502616
 20
5.807711501149356
 42
0.0656020556757086
 10
12.70848448464227
 20
5.851173724782662
 42
0.0656020556757101
 10
12.70275741502616
 20
5.89463594841596
 42
0.0783035184710357
 10
12.6878107474038
 20
5.928257202766758
 42
0.1071754848060445
 10
12.66312458143322
 20
5.952808127911411
 42
0.1432467981947535
 10
12.63789993057776
 20
5.96018622478266
 42
0.1432467981947515
  0
LINE
  5
1BE
330
2
100
AcDbEntity
  8
0
100
AcDbLine
 10
12.63789993057776
 20
5.712836224782656
 30
0.0
 11
12.63789993057776
 21
5.98951122478266
 31
0.0
  0
LINE
  5
1BF
330
2
100
AcDbEntity
  8
0
100
AcDbLine
 10
11.89510485373104
 20
8.066397300821382
 30
0.0
 11
11.89510485373104
 21
8.569923724782658
 31
0.0
  0
LINE
  5
1C0
330
2
100
AcDbEntity
  8
0
100
AcDbLine
 10
11.89510485373104
 20
8.569923724782658
 30
0.0
 11
11.89510485373104
 21
8.066397044777109
 31
0.0
  0
LINE
  5
1C1
330
2
100
AcDbEntity
  8
0
100
AcDbLine
 10
11.89510485373104
 20
8.066397300821382
 30
0.0
 11
11.89510485373104
 21
8.569923724782658
 31
0.0
  0
LINE
  5
1C2
330
2
100
AcDbEntity
  8
0
100
AcDbLine
 10
11.89510485373104
 20
8.569923724782658
 30
0.0
 11
11.89510485373104
 21
8.066397044777109
 31
0.0
  0
LINE
  5
1C3
330
2
100
AcDbEntity
  8
0
100
AcDbLine
 10
13.57539993057776
 20
10.56992372478266
 30
0.0
 11
13.57539993057776
 21
6.269923724782654
 31
0.0
  0
LINE
  5
1C4
330
2
100
AcDbEntity
  8
0
100
AcDbLine
 10
12.20760485373104
 20
7.650343910228106
 30
0.0
 11
12.20760485373104
 21
7.003897300821382
 31
0.0
  0
ARC
  5
1C5
330
2
100
AcDbEntity
  8
0
100
AcDbCircle
 10
12.02010485373104
 20
6.587843910228106
 30
0.0
 40
0.125
100
AcDbArc
 50
134.9999999999999
 51
180.0
  0
LINE
  5
1C6
330
2
100
AcDbEntity
  8
0
100
AcDbLine
 10
11.89510485373104
 20
6.569923724782658
 30
0.0
 11
11.89510485373104
 21
6.066397044777109
 31
0.0
  0
LINE
  5
1C7
330
2
100
AcDbEntity
  8
0
100
AcDbLine
 10
11.89510485373104
 20
6.066397300821382
 30
0.0
 11
11.89510485373104
 21
6.569923724782658
 31
0.0
  0
LINE
  5
1C8
330
2
100
AcDbEntity
  8
0
100
AcDbLine
 10
12.17099320137936
 20
6.915508953173063
 30
0.0
 11
11.93171650608272
 21
6.676232257876425
 31
0.0
  0
ARC
  5
1C9
330
2
100
AcDbEntity
  8
0
100
AcDbCircle
 10
12.08260485373104
 20
7.003897300821382
 30
0.0
 40
0.125
100
AcDbArc
 50
314.9999999999997
 51
0.0
  0
LWPOLYLINE
  5
1CA
330
2
100
AcDbEntity
  8
0
100
AcDbPolyline
 90
        9
 70
     0
 43
0.0
 10
12.63789993057776
 20
6.771486224782656
 42
0.147269582437036
 10
12.6555963537403
 20
6.77681406647045
 42
0.1071386913803464
 10
12.6731482474038
 20
6.794826153156855
 42
0.0765137470862007
 10
12.68369016145057
 20
6.819330891191015
 42
0.063469041210727
 10
12.68774857828397
 20
6.851173724782662
 42
0.0634690412107267
 10
12.68369016145057
 20
6.883016558374301
 42
0.0765137470862059
 10
12.6731482474038
 20
6.907521296408461
 42
0.1071386913803463
 10
12.6555963537403
 20
6.925533383094866
 42
0.1472695824370325
 10
12.63789993057776
 20
6.93086122478266
 42
0.1472695824370333
  0
LWPOLYLINE
  5
1CB
330
2
100
AcDbEntity
  8
0
100
AcDbPolyline
 90
        9
 70
     0
 43
0.0
 10
12.63789993057776
 20
6.712836224782656
 42
0.0700628980345364
 10
12.7170187343778
 20
6.723977500551527
 42
0.0818514225363451
 10
12.77891505250425
 20
6.753354340440261
 42
0.1069100077216601
 10
12.82351320356975
 20
6.801101253195292
 42
0.135394011665182
 10
12.83732542850589
 20
6.851173724782655
 42
0.1353940116651818
 10
12.82351320356975
 20
6.901246196370025
 42
0.1069100077216599
 10
12.77891505250425
 20
6.948993109125048
 42
0.0818514225363446
 10
12.7170187343778
 20
6.978369949013789
 42
0.0700628980345367
 10
12.63789993057776
 20
6.98951122478266
 42
0.0700628980345371
  0
LWPOLYLINE
  5
1CC
330
2
100
AcDbEntity
  8
0
100
AcDbPolyline
 90
        9
 70
     0
 43
0.0
 10
12.63789993057776
 20
6.742161224782656
 42
0.1432467981947568
 10
12.66312458143322
 20
6.749539321653906
 42
0.1071754848060475
 10
12.6878107474038
 20
6.774090246798558
 42
0.0783035184710328
 10
12.70275741502616
 20
6.807711501149356
 42
0.0656020556757086
 10
12.70848448464227
 20
6.851173724782662
 42
0.0656020556757101
 10
12.70275741502616
 20
6.89463594841596
 42
0.0783035184710357
 10
12.6878107474038
 20
6.928257202766758
 42
0.1071754848060445
 10
12.66312458143322
 20
6.952808127911411
 42
0.1432467981947535
 10
12.63789993057776
 20
6.96018622478266
 42
0.1432467981947515
  0
LINE
  5
1CD
330
2
100
AcDbEntity
  8
0
100
AcDbLine
 10
12.63789993057776
 20
6.712836224782656
 30
0.0
 11
12.63789993057776
 21
6.98951122478266
 31
0.0
  0
LINE
  5
1CE
330
2
100
AcDbEntity
  8
0
100
AcDbLine
 10
11.93171650608272
 20
7.978008953173063
 30
0.0
 11
12.17099320137936
 21
7.738732257876425
 31
0.0
  0
ARC
  5
1CF
330
2
100
AcDbEntity
  8
0
100
AcDbCircle
 10
12.08260485373104
 20
7.650343910228106
 30
0.0
 40
0.125
100
AcDbArc
 50
0.0
 51
45.00000000000014
  0
ARC
  5
1D0
330
2
100
AcDbEntity
  8
0
100
AcDbCircle
 10
12.02010485373104
 20
8.066397300821382
 30
0.0
 40
0.125
100
AcDbArc
 50
180.0
 51
225.0000000000001
  0
LINE
  5
1D1
330
2
100
AcDbEntity
  8
0
100
AcDbLine
 10
12.63789993057776
 20
7.712836224782656
 30
0.0
 11
12.63789993057776
 21
7.98951122478266
 31
0.0
  0
LWPOLYLINE
  5
1D2
330
2
100
AcDbEntity
  8
0
100
AcDbPolyline
 90
        9
 70
     0
 43
0.0
 10
12.63789993057776
 20
7.742161224782656
 42
0.1432467981947568
 10
12.66312458143322
 20
7.749539321653906
 42
0.1071754848060475
 10
12.6878107474038
 20
7.774090246798558
 42
0.0783035184710328
 10
12.70275741502616
 20
7.807711501149356
 42
0.0656020556757086
 10
12.70848448464227
 20
7.851173724782662
 42
0.0656020556757101
 10
12.70275741502616
 20
7.89463594841596
 42
0.0783035184710357
 10
12.6878107474038
 20
7.928257202766758
 42
0.1071754848060445
 10
12.66312458143322
 20
7.952808127911411
 42
0.1432467981947535
 10
12.63789993057776
 20
7.96018622478266
 42
0.1432467981947515
  0
LWPOLYLINE
  5
1D3
330
2
100
AcDbEntity
  8
0
100
AcDbPolyline
 90
        9
 70
     0
 43
0.0
 10
12.63789993057776
 20
7.771486224782656
 42
0.147269582437036
 10
12.6555963537403
 20
7.77681406647045
 42
0.1071386913803464
 10
12.6731482474038
 20
7.794826153156855
 42
0.0765137470862007
 10
12.68369016145057
 20
7.819330891191015
 42
0.063469041210727
 10
12.68774857828397
 20
7.851173724782662
 42
0.0634690412107267
 10
12.68369016145057
 20
7.883016558374301
 42
0.0765137470862059
 10
12.6731482474038
 20
7.907521296408461
 42
0.1071386913803463
 10
12.6555963537403
 20
7.925533383094866
 42
0.1472695824370325
 10
12.63789993057776
 20
7.93086122478266
 42
0.1472695824370333
  0
LWPOLYLINE
  5
1D4
330
2
100
AcDbEntity
  8
0
100
AcDbPolyline
 90
        9
 70
     0
 43
0.0
 10
12.63789993057776
 20
7.712836224782656
 42
0.0700628980345364
 10
12.7170187343778
 20
7.723977500551527
 42
0.0818514225363451
 10
12.77891505250425
 20
7.753354340440261
 42
0.1069100077216601
 10
12.82351320356975
 20
7.801101253195292
 42
0.135394011665182
 10
12.83732542850589
 20
7.851173724782655
 42
0.1353940116651818
 10
12.82351320356975
 20
7.901246196370025
 42
0.1069100077216599
 10
12.77891505250425
 20
7.948993109125048
 42
0.0818514225363446
 10
12.7170187343778
 20
7.978369949013789
 42
0.0700628980345367
 10
12.63789993057776
 20
7.98951122478266
 42
0.0700628980345371
  0
LINE
  5
1D5
330
2
100
AcDbEntity
  8
0
100
AcDbLine
 10
11.93171650608272
 20
9.978008953173063
 30
0.0
 11
12.17099320137936
 21
9.738732257876425
 31
0.0
  0
LINE
  5
1D6
330
2
100
AcDbEntity
  8
0
100
AcDbLine
 10
12.63789993057776
 20
9.712836224782656
 30
0.0
 11
12.63789993057776
 21
9.98951122478266
 31
0.0
  0
LWPOLYLINE
  5
1D7
330
2
100
AcDbEntity
  8
0
100
AcDbPolyline
 90
        9
 70
     0
 43
0.0
 10
12.63789993057776
 20
9.742161224782656
 42
0.1432467981947568
 10
12.66312458143322
 20
9.749539321653906
 42
0.1071754848060475
 10
12.6878107474038
 20
9.774090246798558
 42
0.0783035184710328
 10
12.70275741502616
 20
9.807711501149356
 42
0.0656020556757086
 10
12.70848448464227
 20
9.851173724782662
 42
0.0656020556757101
 10
12.70275741502616
 20
9.89463594841596
 42
0.0783035184710357
 10
12.6878107474038
 20
9.928257202766758
 42
0.1071754848060445
 10
12.66312458143322
 20
9.952808127911411
 42
0.1432467981947535
 10
12.63789993057776
 20
9.96018622478266
 42
0.1432467981947515
  0
LWPOLYLINE
  5
1D8
330
2
100
AcDbEntity
  8
0
100
AcDbPolyline
 90
        9
 70
     0
 43
0.0
 10
12.63789993057776
 20
9.712836224782656
 42
0.0700628980345364
 10
12.7170187343778
 20
9.723977500551527
 42
0.0818514225363451
 10
12.77891505250425
 20
9.753354340440261
 42
0.1069100077216601
 10
12.82351320356975
 20
9.801101253195292
 42
0.135394011665182
 10
12.83732542850589
 20
9.851173724782655
 42
0.1353940116651818
 10
12.82351320356975
 20
9.901246196370025
 42
0.1069100077216599
 10
12.77891505250425
 20
9.948993109125048
 42
0.0818514225363446
 10
12.7170187343778
 20
9.978369949013789
 42
0.0700628980345367
 10
12.63789993057776
 20
9.98951122478266
 42
0.0700628980345371
  0
LINE
  5
1D9
330
2
100
AcDbEntity
  8
0
100
AcDbLine
 10
12.20760485373104
 20
9.650343910228106
 30
0.0
 11
12.20760485373104
 21
9.003897300821382
 31
0.0
  0
LINE
  5
1DA
330
2
100
AcDbEntity
  8
0
100
AcDbLine
 10
12.17099320137936
 20
8.915508953173063
 30
0.0
 11
11.93171650608272
 21
8.676232257876425
 31
0.0
  0
ARC
  5
1DB
330
2
100
AcDbEntity
  8
0
100
AcDbCircle
 10
12.02010485373104
 20
8.587843910228106
 30
0.0
 40
0.125
100
AcDbArc
 50
134.9999999999999
 51
180.0
  0
ARC
  5
1DC
330
2
100
AcDbEntity
  8
0
100
AcDbCircle
 10
12.08260485373104
 20
9.003897300821382
 30
0.0
 40
0.125
100
AcDbArc
 50
314.9999999999997
 51
0.0
  0
ARC
  5
1DD
330
2
100
AcDbEntity
  8
0
100
AcDbCircle
 10
12.08260485373104
 20
9.650343910228106
 30
0.0
 40
0.125
100
AcDbArc
 50
0.0
 51
45.00000000000014
  0
LINE
  5
1DE
330
2
100
AcDbEntity
  8
0
100
AcDbLine
 10
12.63789993057776
 20
8.712836224782656
 30
0.0
 11
12.63789993057776
 21
8.98951122478266
 31
0.0
  0
LWPOLYLINE
  5
1DF
330
2
100
AcDbEntity
  8
0
100
AcDbPolyline
 90
        9
 70
     0
 43
0.0
 10
12.63789993057776
 20
8.742161224782656
 42
0.1432467981947568
 10
12.66312458143322
 20
8.749539321653906
 42
0.1071754848060475
 10
12.6878107474038
 20
8.774090246798558
 42
0.0783035184710328
 10
12.70275741502616
 20
8.807711501149356
 42
0.0656020556757086
 10
12.70848448464227
 20
8.851173724782662
 42
0.0656020556757101
 10
12.70275741502616
 20
8.89463594841596
 42
0.0783035184710357
 10
12.6878107474038
 20
8.928257202766758
 42
0.1071754848060445
 10
12.66312458143322
 20
8.952808127911411
 42
0.1432467981947535
 10
12.63789993057776
 20
8.96018622478266
 42
0.1432467981947515
  0
LWPOLYLINE
  5
1E0
330
2
100
AcDbEntity
  8
0
100
AcDbPolyline
 90
        9
 70
     0
 43
0.0
 10
12.63789993057776
 20
8.712836224782656
 42
0.0700628980345364
 10
12.7170187343778
 20
8.723977500551527
 42
0.0818514225363451
 10
12.77891505250425
 20
8.753354340440261
 42
0.1069100077216601
 10
12.82351320356975
 20
8.801101253195292
 42
0.135394011665182
 10
12.83732542850589
 20
8.851173724782655
 42
0.1353940116651818
 10
12.82351320356975
 20
8.901246196370025
 42
0.1069100077216599
 10
12.77891505250425
 20
8.948993109125048
 42
0.0818514225363446
 10
12.7170187343778
 20
8.978369949013789
 42
0.0700628980345367
 10
12.63789993057776
 20
8.98951122478266
 42
0.0700628980345371
  0
LWPOLYLINE
  5
1E1
330
2
100
AcDbEntity
  8
0
100
AcDbPolyline
 90
        9
 70
     0
 43
0.0
 10
12.63789993057776
 20
8.771486224782656
 42
0.147269582437036
 10
12.6555963537403
 20
8.77681406647045
 42
0.1071386913803464
 10
12.6731482474038
 20
8.794826153156855
 42
0.0765137470862007
 10
12.68369016145057
 20
8.819330891191015
 42
0.063469041210727
 10
12.68774857828397
 20
8.851173724782662
 42
0.0634690412107267
 10
12.68369016145057
 20
8.883016558374301
 42
0.0765137470862059
 10
12.6731482474038
 20
8.907521296408461
 42
0.1071386913803463
 10
12.6555963537403
 20
8.925533383094866
 42
0.1472695824370325
 10
12.63789993057776
 20
8.93086122478266
 42
0.1472695824370333
  0
LINE
  5
1E2
330
2
100
AcDbEntity
  8
0
100
AcDbLine
 10
11.89510485373104
 20
10.56992372478266
 30
0.0
 11
13.66914993057776
 21
10.56992372478266
 31
0.0
  0
LINE
  5
1E3
330
2
100
AcDbEntity
  8
0
100
AcDbLine
 10
11.89510485373104
 20
10.56992372478266
 30
0.0
 11
11.89510485373104
 21
10.06639704477711
 31
0.0
  0
LINE
  5
1E4
330
2
100
AcDbEntity
  8
0
100
AcDbLine
 10
11.89510485373104
 20
10.06639730082138
 30
0.0
 11
11.89510485373104
 21
10.56992372478266
 31
0.0
  0
ARC
  5
1E5
330
2
100
AcDbEntity
  8
0
100
AcDbCircle
 10
12.02010485373104
 20
10.06639730082138
 30
0.0
 40
0.125
100
AcDbArc
 50
180.0
 51
225.0000000000001
  0
LWPOLYLINE
  5
1E6
330
2
100
AcDbEntity
  8
0
100
AcDbPolyline
 90
        9
 70
     0
 43
0.0
 10
12.63789993057776
 20
9.771486224782656
 42
0.147269582437036
 10
12.6555963537403
 20
9.77681406647045
 42
0.1071386913803464
 10
12.6731482474038
 20
9.794826153156855
 42
0.0765137470862007
 10
12.68369016145057
 20
9.819330891191015
 42
0.063469041210727
 10
12.68774857828397
 20
9.851173724782662
 42
0.0634690412107267
 10
12.68369016145057
 20
9.883016558374301
 42
0.0765137470862059
 10
12.6731482474038
 20
9.907521296408461
 42
0.1071386913803463
 10
12.6555963537403
 20
9.925533383094866
 42
0.1472695824370325
 10
12.63789993057776
 20
9.93086122478266
 42
0.1472695824370333
  0
ARC
  5
1E7
330
2
100
AcDbEntity
  8
0
  6
Continuous
100
AcDbCircle
 10
1.959336571357705
 20
19.27215940499987
 30
0.0
 40
0.1875
100
AcDbArc
 50
90.0
 51
180.0
  0
LINE
  5
1E8
330
2
100
AcDbEntity
  8
0
100
AcDbLine
 10
1.59275185171588
 20
19.24090940499987
 30
0.0
 11
1.771836571357705
 21
19.24090940499987
 31
0.0
  0
LINE
  5
1E9
330
2
100
AcDbEntity
  8
0
  6
Continuous
100
AcDbLine
 10
-1.978163051973374
 20
19.36590940499987
 30
0.0
 11
-4.516000102699165
 21
19.36590940499987
 31
0.0
  0
LINE
  5
1EA
330
2
100
AcDbEntity
  8
0
  6
Continuous
100
AcDbLine
 10
-1.978163051973375
 20
19.45965940499987
 30
0.0
 11
-4.516000102699165
 21
19.45965940499987
 31
0.0
  0
LINE
  5
1EB
330
2
100
AcDbEntity
  8
0
100
AcDbLine
 10
-4.516000102699165
 20
19.45965940499987
 30
0.0
 11
-4.516000102699165
 21
19.36590940499987
 31
0.0
  0
LINE
  5
1EC
330
2
100
AcDbEntity
  8
0
100
AcDbLine
 10
-1.895391360905292
 20
18.62035255094725
 30
0.0
 11
-2.042612306845419
 21
18.46390141810426
 31
0.0
  0
LINE
  5
1ED
330
2
100
AcDbEntity
  8
0
100
AcDbLine
 10
-1.922208097474593
 20
18.68193045703938
 30
0.0
 11
-2.104944859377453
 21
18.49919369513652
 31
0.0
  0
LINE
  5
1EE
330
2
100
AcDbEntity
  8
0
100
AcDbLine
 10
-2.104944859377453
 20
18.49919369513652
 30
0.0
 11
-1.891020907802725
 21
18.37807137531927
 31
0.0
  0
LINE
  5
1EF
330
2
100
AcDbEntity
  8
0
100
AcDbLine
 10
-1.103796570038222
 20
19.24090940499987
 30
0.0
 11
1.092757869209374
 21
19.24090940499987
 31
0.0
  0
ARC
  5
1F0
330
2
100
AcDbEntity
  8
0
100
AcDbCircle
 10
-1.510043561290885
 20
19.24015831844171
 30
0.0
 40
0.09375
100
AcDbArc
 50
179.5409647978006
 51
270.0000000000001
  0
ARC
  5
1F1
330
2
100
AcDbEntity
  8
0
100
AcDbCircle
 10
-1.96640227129876
 20
18.72612463086353
 30
0.0
 40
0.125
100
AcDbArc
 50
314.9999999999999
 51
0.0
  0
ARC
  5
1F2
330
2
100
AcDbEntity
  8
0
100
AcDbCircle
 10
-1.966402271298753
 20
18.72612463086354
 30
0.0
 40
0.0625
100
AcDbArc
 50
314.9999999999999
 51
0.0
  0
LINE
  5
1F3
330
2
100
AcDbEntity
  8
0
100
AcDbLine
 10
-1.84140227129876
 20
18.78217149869099
 30
0.0
 11
-1.841402271298753
 21
18.80805984633932
 31
0.0
  0
ARC
  5
1F4
330
2
100
AcDbEntity
  8
0
  6
Continuous
100
AcDbCircle
 10
-1.978163051973375
 20
19.27215940499987
 30
0.0
 40
0.1875
100
AcDbArc
 50
0.0
 51
90.0
  0
ARC
  5
1F5
330
2
100
AcDbEntity
  8
0
  6
Continuous
100
AcDbCircle
 10
-1.978163051973374
 20
19.27215940499987
 30
0.0
 40
0.09375
100
AcDbArc
 50
0.0
 51
90.0
  0
LINE
  5
1F6
330
2
100
AcDbEntity
  8
0
100
AcDbLine
 10
-1.603790552543904
 20
19.24090940499987
 30
0.0
 11
-1.790663051973375
 21
19.24090940499987
 31
0.0
  0
ARC
  5
1F7
330
2
100
AcDbEntity
  8
0
100
AcDbCircle
 10
-1.197543561290885
 20
19.24015831844171
 30
0.0
 40
0.09375
100
AcDbArc
 50
270.0
 51
0.4590352021994594
  0
LINE
  5
1F8
330
2
100
AcDbEntity
  8
0
100
AcDbLine
 10
-1.197543561290885
 20
19.14640831844171
 30
0.0
 11
-1.510043561290885
 21
19.14640831844171
 31
0.0
  0
LINE
  5
1F9
330
2
100
AcDbEntity
  8
0
100
AcDbLine
 10
1.499004860462433
 20
19.14640831844171
 30
0.0
 11
1.186504860462433
 21
19.14640831844171
 31
0.0
  0
ARC
  5
1FA
330
2
100
AcDbEntity
  8
0
100
AcDbCircle
 10
1.186504860462433
 20
19.24015831844171
 30
0.0
 40
0.09375
100
AcDbArc
 50
179.5409647977985
 51
270.0
  0
ARC
  5
1FB
330
2
100
AcDbEntity
  8
0
100
AcDbCircle
 10
1.499004860462433
 20
19.24015831844171
 30
0.0
 40
0.09375
100
AcDbArc
 50
270.0
 51
0.4590352022018076
  0
LINE
  5
1FC
330
2
100
AcDbEntity
  8
0
100
AcDbLine
 10
1.869957024460272
 20
18.62035255094725
 30
0.0
 11
2.017177970400406
 21
18.46390141810426
 31
0.0
  0
LINE
  5
1FD
330
2
100
AcDbEntity
  8
0
100
AcDbLine
 10
1.896773761029573
 20
18.68193045703937
 30
0.0
 11
2.079510522932432
 21
18.49919369513651
 31
0.0
  0
LINE
  5
1FE
330
2
100
AcDbEntity
  8
0
100
AcDbLine
 10
2.079510522932432
 20
18.49919369513651
 30
0.0
 11
1.865586571357705
 21
18.37807137531927
 31
0.0
  0
LINE
  5
1FF
330
2
100
AcDbEntity
  8
0
  6
Continuous
100
AcDbLine
 10
1.959336571357705
 20
19.36590940499987
 30
0.0
 11
4.483999897300835
 21
19.36590940499987
 31
0.0
  0
LINE
  5
200
330
2
100
AcDbEntity
  8
0
  6
Continuous
100
AcDbLine
 10
1.959336571357705
 20
19.45965940499987
 30
0.0
 11
4.483999897300835
 21
19.45965940499987
 31
0.0
  0
ARC
  5
201
330
2
100
AcDbEntity
  8
0
100
AcDbCircle
 10
1.94096793485374
 20
18.72612463086352
 30
0.0
 40
0.125
100
AcDbArc
 50
180.0
 51
225.0000000000001
  0
ARC
  5
202
330
2
100
AcDbEntity
  8
0
100
AcDbCircle
 10
1.940967934853733
 20
18.72612463086354
 30
0.0
 40
0.0625
100
AcDbArc
 50
180.0
 51
225.0000000000001
  0
LINE
  5
203
330
2
100
AcDbEntity
  8
0
100
AcDbLine
 10
1.81596793485374
 20
18.78217149869099
 30
0.0
 11
1.815967934853733
 21
18.80805984633932
 31
0.0
  0
ARC
  5
204
330
2
100
AcDbEntity
  8
0
  6
Continuous
100
AcDbCircle
 10
1.959336571357705
 20
19.27215940499987
 30
0.0
 40
0.09375
100
AcDbArc
 50
90.0
 51
180.0
  0
LINE
  5
205
330
2
100
AcDbEntity
  8
0
100
AcDbLine
 10
4.483999897300835
 20
19.45965940499987
 30
0.0
 11
4.483999897300835
 21
19.36590940499987
 31
0.0
  0
LWPOLYLINE
  5
20D
330
2
100
AcDbEntity
  8
0
100
AcDbPolyline
 90
        2
 70
     0
 43
0.0
 10
4.478057349238272
 20
9.762558533093763
 10
4.51466900158996
 20
9.674170185445444
  0
LWPOLYLINE
  5
20E
330
2
100
AcDbEntity
  8
0
100
AcDbPolyline
 90
        2
 70
     0
 43
0.0
 10
4.20216900158996
 20
8.611670185445451
 10
4.20216900158996
 20
8.593749999999996
  0
ENDSEC
  0
SECTION
  2
OBJECTS
  0
DICTIONARY
  5
9
330
0
100
AcDbDictionary
281
     1
  3
ACAD_COLOR
350
212
  3
ACAD_GROUP
350
23
  3
ACAD_LAYOUT
350
D
  3
ACAD_MATERIAL
350
211
  3
ACAD_MLINESTYLE
350
24
  3
ACAD_PLOTSETTINGS
350
25
  3
ACAD_PLOTSTYLENAME
350
8
  3
ACAD_TABLESTYLE
350
213
  3
ACDBHEADERROUNDTRIPXREC
350
228
  3
AcDbVariableDictionary
350
207
  0
DICTIONARY
  5
212
102
{ACAD_REACTORS
330
9
102
}
330
9
100
AcDbDictionary
281
     1
  0
DICTIONARY
  5
23
102
{ACAD_REACTORS
330
9
102
}
330
9
100
AcDbDictionary
281
     1
  0
DICTIONARY
  5
D
102
{ACAD_REACTORS
330
9
102
}
330
9
100
AcDbDictionary
281
     1
  3
Layout1
350
13
  3
Model
350
C
  0
DICTIONARY
  5
211
102
{ACAD_REACTORS
330
9
102
}
330
9
100
AcDbDictionary
281
     1
  0
DICTIONARY
  5
24
102
{ACAD_REACTORS
330
9
102
}
330
9
100
AcDbDictionary
281
     1
  3
STANDARD
350
26
  0
DICTIONARY
  5
25
102
{ACAD_REACTORS
330
9
102
}
330
9
100
AcDbDictionary
281
     1
  0
ACDBDICTIONARYWDFLT
  5
8
102
{ACAD_REACTORS
330
9
102
}
330
9
100
AcDbDictionary
281
     1
  3
Normal
350
7
100
AcDbDictionaryWithDefault
340
7
  0
DICTIONARY
  5
213
102
{ACAD_REACTORS
330
9
102
}
330
9
100
AcDbDictionary
281
     1
  3
Standard
350
214
  0
DICTIONARY
  5
228
102
{ACAD_REACTORS
330
9
102
}
330
9
100
AcDbDictionary
281
     1
  3
COLORDICT
350
229
  3
MATERIALDICT
350
22A
  0
DICTIONARY
  5
207
102
{ACAD_REACTORS
330
9
102
}
330
9
100
AcDbDictionary
281
     1
  3
CTABLESTYLE
350
225
  3
HIDETEXT
350
227
  0
LAYOUT
  5
13
102
{ACAD_REACTORS
330
D
102
}
102
{ACAD_XDICTIONARY
360
22B
102
}
330
D
100
AcDbPlotSettings
  1

  2
HP LaserJet 2100 Series PS
  4

  6

 40
0.0
 41
0.0
 42
0.0
 43
0.0
 44
0.0
 45
0.0
 46
0.0
 47
0.0
 48
0.0
 49
0.0
140
0.0
141
0.0
142
1.0
143
1.0
 70
   688
 72
     0
 73
     0
 74
     5
  7

 75
    16
147
1.0
148
0.0
149
0.0
100
AcDbLayout
  1
Layout1
 70
     0
 71
     1
 10
0.0
 20
0.0
 11
12.0
 21
9.0
 12
0.0
 22
0.0
 32
0.0
 14
1.000000000000000E+20
 24
1.000000000000000E+20
 34
1.000000000000000E+20
 15
-1.000000000000000E+20
 25
-1.000000000000000E+20
 35
-1.000000000000000E+20
146
0.0
 13
0.0
 23
0.0
 33
0.0
 16
1.0
 26
0.0
 36
0.0
 17
0.0
 27
1.0
 37
0.0
 76
     0
330
E
  0
LAYOUT
  5
C
102
{ACAD_REACTORS
330
D
102
}
102
{ACAD_XDICTIONARY
360
22D
102
}
330
D
100
AcDbPlotSettings
  1

  2
HP LaserJet 2100 Series PS
  4
Letter
  6

 40
5.365749835968018
 41
5.408084392547607
 42
5.4080810546875
 43
5.365753173828125
 44
215.8999938964844
 45
279.3999938964844
 46
0.0
 47
0.0
 48
0.0
 49
0.0
140
0.0
141
0.0
142
1.0
143
3.971318409846261
 70
 11952
 72
     0
 73
     1
 74
     2
  7

 75
     0
147
0.2518055458662435
148
0.0
149
0.0
100
AcDbLayout
  1
Model
 70
     1
 71
     0
 10
0.0
 20
0.0
 11
12.0
 21
9.0
 12
0.0
 22
0.0
 32
0.0
 14
0.0
 24
0.0
 34
0.0
 15
0.0
 25
0.0
 35
0.0
146
0.0
 13
0.0
 23
0.0
 33
0.0
 16
1.0
 26
0.0
 36
0.0
 17
0.0
 27
1.0
 37
0.0
 76
     0
330
2
  0
MLINESTYLE
  5
26
102
{ACAD_REACTORS
330
24
102
}
330
24
100
AcDbMlineStyle
  2
STANDARD
 70
     0
  3

 62
   256
 51
90.0
 52
90.0
 71
     2
 49
0.5
 62
   256
  6
BYLAYER
 49
-0.5
 62
   256
  6
BYLAYER
  0
ACDBPLACEHOLDER
  5
7
102
{ACAD_REACTORS
330
8
102
}
330
8
  0
ACAD_PROXY_OBJECT
  5
214
102
{ACAD_REACTORS
330
213
102
}
330
213
100
AcDbProxyObject
 90
      499
 91
      565
 95
   983063
 70
     0
 93
     1841
310
4214DD185B99185C9928B81E85EB51B8AE3F2E07A17AD46E2B8FC02B5E8DC0F42B1CFD028000000C1008070000C3001FDFF8000000C1003FBFF000000182007F7FE00000030400FEFFC00000060801FDFF8000000C1003FBFF00000018200000000000000681FA0B0000001820100E000186003FBFF000000182007F7FE000
310
00030400FEFFC00000060801FDFF8000000C1003FBFF000000182007F7FE000000304000AD7A3703D0AC73F4160000003040201C00030C007F7FE00000030400FEFFC00000060801FDFF8000000C1003FBFF000000182007F7FE00000030400FEFFC000000608000
340
16
340
16
340
16
 94
        0
  0
XRECORD
  5
229
102
{ACAD_REACTORS
330
228
102
}
330
228
100
AcDbXrecord
340
212
  0
XRECORD
  5
22A
102
{ACAD_REACTORS
330
228
102
}
330
228
100
AcDbXrecord
340
211
  0
DICTIONARYVAR
  5
225
102
{ACAD_REACTORS
330
207
102
}
330
207
100
DictionaryVariables
280
     0
  1
STANDARD
  0
DICTIONARYVAR
  5
227
102
{ACAD_REACTORS
330
207
102
}
330
207
100
DictionaryVariables
280
     0
  1
0
  0
DICTIONARY
  5
22B
330
13
100
AcDbDictionary
280
     1
281
     1
  3
ACAD_XREC_ROUNDTRIP
360
22C
  0
DICTIONARY
  5
22D
330
C
100
AcDbDictionary
280
     1
281
     1
  3
ACAD_XREC_ROUNDTRIP
360
22E
  0
XRECORD
  5
22C
102
{ACAD_REACTORS
330
22B
102
}
330
22B
100
AcDbXrecord
102
SHADEPLOT
 70
     0
102
SHADEPLOTRESLEVEL
 70
     2
102
SHADEPLOTCUSTOMDPI
 70
   300
  0
XRECORD
  5
22E
102
{ACAD_REACTORS
330
22D
102
}
330
22D
100
AcDbXrecord
102
SHADEPLOT
 70
     0
102
SHADEPLOTRESLEVEL
 70
     2
102
SHADEPLOTCUSTOMDPI
 70
   300
  0
ENDSEC
  0
EOF
